  0
SECTION
  2
HEADER
  9
$ACADVER
  1
AC1018
  9
$ACADMAINTVER
 70
     0
  9
$DWGCODEPAGE
  3
ANSI_932
  9
$INSBASE
 10
0.0
 20
0.0
 30
0.0
  9
$EXTMIN
 10
1.000000000000000E+20
 20
1.000000000000000E+20
 30
1.000000000000000E+20
  9
$EXTMAX
 10
-1.000000000000000E+20
 20
-1.000000000000000E+20
 30
-1.000000000000000E+20
  9
$LIMMIN
 10
0.0
 20
0.0
  9
$LIMMAX
 10
12.0
 20
9.0
  9
$ORTHOMODE
 70
     0
  9
$REGENMODE
 70
     1
  9
$FILLMODE
 70
     1
  9
$QTEXTMODE
 70
     0
  9
$MIRRTEXT
 70
     1
  9
$LTSCALE
 40
1.0
  9
$ATTMODE
 70
     1
  9
$TEXTSIZE
 40
0.2
  9
$TRACEWID
 40
0.05
  9
$TEXTSTYLE
  7
Standard
  9
$CLAYER
  8
0
  9
$CELTYPE
  6
ByLayer
  9
$CECOLOR
 62
   256
  9
$CELTSCALE
 40
1.0
  9
$DISPSILH
 70
     0
  9
$DIMSCALE
 40
1.0
  9
$DIMASZ
 40
0.18
  9
$DIMEXO
 40
0.0625
  9
$DIMDLI
 40
0.38
  9
$DIMRND
 40
0.0
  9
$DIMDLE
 40
0.0
  9
$DIMEXE
 40
0.18
  9
$DIMTP
 40
0.0
  9
$DIMTM
 40
0.0
  9
$DIMTXT
 40
0.18
  9
$DIMCEN
 40
0.09
  9
$DIMTSZ
 40
0.0
  9
$DIMTOL
 70
     0
  9
$DIMLIM
 70
     0
  9
$DIMTIH
 70
     1
  9
$DIMTOH
 70
     1
  9
$DIMSE1
 70
     0
  9
$DIMSE2
 70
     0
  9
$DIMTAD
 70
     0
  9
$DIMZIN
 70
     0
  9
$DIMBLK
  1

  9
$DIMASO
 70
     1
  9
$DIMSHO
 70
     1
  9
$DIMPOST
  1

  9
$DIMAPOST
  1

  9
$DIMALT
 70
     0
  9
$DIMALTD
 70
     2
  9
$DIMALTF
 40
25.4
  9
$DIMLFAC
 40
1.0
  9
$DIMTOFL
 70
     0
  9
$DIMTVP
 40
0.0
  9
$DIMTIX
 70
     0
  9
$DIMSOXD
 70
     0
  9
$DIMSAH
 70
     0
  9
$DIMBLK1
  1

  9
$DIMBLK2
  1

  9
$DIMSTYLE
  2
Standard
  9
$DIMCLRD
 70
     0
  9
$DIMCLRE
 70
     0
  9
$DIMCLRT
 70
     0
  9
$DIMTFAC
 40
1.0
  9
$DIMGAP
 40
0.09
  9
$DIMJUST
 70
     0
  9
$DIMSD1
 70
     0
  9
$DIMSD2
 70
     0
  9
$DIMTOLJ
 70
     1
  9
$DIMTZIN
 70
     0
  9
$DIMALTZ
 70
     0
  9
$DIMALTTZ
 70
     0
  9
$DIMUPT
 70
     0
  9
$DIMDEC
 70
     4
  9
$DIMTDEC
 70
     4
  9
$DIMALTU
 70
     2
  9
$DIMALTTD
 70
     2
  9
$DIMTXSTY
  7
Standard
  9
$DIMAUNIT
 70
     0
  9
$DIMADEC
 70
     0
  9
$DIMALTRND
 40
0.0
  9
$DIMAZIN
 70
     0
  9
$DIMDSEP
 70
    46
  9
$DIMATFIT
 70
     3
  9
$DIMFRAC
 70
     0
  9
$DIMLDRBLK
  1

  9
$DIMLUNIT
 70
     2
  9
$DIMLWD
 70
    -2
  9
$DIMLWE
 70
    -2
  9
$DIMTMOVE
 70
     0
  9
$LUNITS
 70
     2
  9
$LUPREC
 70
     4
  9
$SKETCHINC
 40
0.1
  9
$FILLETRAD
 40
0.5
  9
$AUNITS
 70
     0
  9
$AUPREC
 70
     0
  9
$MENU
  1
.
  9
$ELEVATION
 40
0.0
  9
$PELEVATION
 40
0.0
  9
$THICKNESS
 40
0.0
  9
$LIMCHECK
 70
     0
  9
$CHAMFERA
 40
0.5
  9
$CHAMFERB
 40
0.5
  9
$CHAMFERC
 40
1.0
  9
$CHAMFERD
 40
0.0
  9
$SKPOLY
 70
     0
  9
$TDCREATE
 40
2456324.973877315
  9
$TDUCREATE
 40
2456325.182210648
  9
$TDUPDATE
 40
2456324.973877327
  9
$TDUUPDATE
 40
2456325.18221066
  9
$TDINDWG
 40
0.0000000116
  9
$TDUSRTIMER
 40
0.0000000116
  9
$USRTIMER
 70
     1
  9
$ANGBASE
 50
0.0
  9
$ANGDIR
 70
     0
  9
$PDMODE
 70
     0
  9
$PDSIZE
 40
0.0
  9
$PLINEWID
 40
0.0
  9
$SPLFRAME
 70
     0
  9
$SPLINETYPE
 70
     6
  9
$SPLINESEGS
 70
     8
  9
$HANDSEED
  5
1AF
  9
$SURFTAB1
 70
     6
  9
$SURFTAB2
 70
     6
  9
$SURFTYPE
 70
     6
  9
$SURFU
 70
     6
  9
$SURFV
 70
     6
  9
$UCSBASE
  2

  9
$UCSNAME
  2

  9
$UCSORG
 10
0.0
 20
0.0
 30
0.0
  9
$UCSXDIR
 10
1.0
 20
0.0
 30
0.0
  9
$UCSYDIR
 10
0.0
 20
1.0
 30
0.0
  9
$UCSORTHOREF
  2

  9
$UCSORTHOVIEW
 70
     0
  9
$UCSORGTOP
 10
0.0
 20
0.0
 30
0.0
  9
$UCSORGBOTTOM
 10
0.0
 20
0.0
 30
0.0
  9
$UCSORGLEFT
 10
0.0
 20
0.0
 30
0.0
  9
$UCSORGRIGHT
 10
0.0
 20
0.0
 30
0.0
  9
$UCSORGFRONT
 10
0.0
 20
0.0
 30
0.0
  9
$UCSORGBACK
 10
0.0
 20
0.0
 30
0.0
  9
$PUCSBASE
  2

  9
$PUCSNAME
  2

  9
$PUCSORG
 10
0.0
 20
0.0
 30
0.0
  9
$PUCSXDIR
 10
1.0
 20
0.0
 30
0.0
  9
$PUCSYDIR
 10
0.0
 20
1.0
 30
0.0
  9
$PUCSORTHOREF
  2

  9
$PUCSORTHOVIEW
 70
     0
  9
$PUCSORGTOP
 10
0.0
 20
0.0
 30
0.0
  9
$PUCSORGBOTTOM
 10
0.0
 20
0.0
 30
0.0
  9
$PUCSORGLEFT
 10
0.0
 20
0.0
 30
0.0
  9
$PUCSORGRIGHT
 10
0.0
 20
0.0
 30
0.0
  9
$PUCSORGFRONT
 10
0.0
 20
0.0
 30
0.0
  9
$PUCSORGBACK
 10
0.0
 20
0.0
 30
0.0
  9
$USERI1
 70
     0
  9
$USERI2
 70
     0
  9
$USERI3
 70
     0
  9
$USERI4
 70
     0
  9
$USERI5
 70
     0
  9
$USERR1
 40
0.0
  9
$USERR2
 40
0.0
  9
$USERR3
 40
0.0
  9
$USERR4
 40
0.0
  9
$USERR5
 40
0.0
  9
$WORLDVIEW
 70
     1
  9
$SHADEDGE
 70
     3
  9
$SHADEDIF
 70
    70
  9
$TILEMODE
 70
     1
  9
$MAXACTVP
 70
    64
  9
$PINSBASE
 10
0.0
 20
0.0
 30
0.0
  9
$PLIMCHECK
 70
     0
  9
$PEXTMIN
 10
1.000000000000000E+20
 20
1.000000000000000E+20
 30
1.000000000000000E+20
  9
$PEXTMAX
 10
-1.000000000000000E+20
 20
-1.000000000000000E+20
 30
-1.000000000000000E+20
  9
$PLIMMIN
 10
0.0
 20
0.0
  9
$PLIMMAX
 10
12.0
 20
9.0
  9
$UNITMODE
 70
     0
  9
$VISRETAIN
 70
     1
  9
$PLINEGEN
 70
     0
  9
$PSLTSCALE
 70
     1
  9
$TREEDEPTH
 70
  3020
  9
$CMLSTYLE
  2
Standard
  9
$CMLJUST
 70
     0
  9
$CMLSCALE
 40
1.0
  9
$PROXYGRAPHICS
 70
     1
  9
$MEASUREMENT
 70
     0
  9
$CELWEIGHT
370
    -1
  9
$ENDCAPS
280
     0
  9
$JOINSTYLE
280
     0
  9
$LWDISPLAY
290
     1
  9
$INSUNITS
 70
     1
  9
$HYPERLINKBASE
  1

  9
$STYLESHEET
  1

  9
$XEDIT
290
     1
  9
$CEPSNTYPE
380
     0
  9
$PSTYLEMODE
290
     1
  9
$FINGERPRINTGUID
  2
{ABD11628-C7F2-DD28-E9B9-D574BD62DC32}
  9
$VERSIONGUID
  2
{FAEB1C32-E019-11D5-929B-00C0DF256EC4}
  9
$EXTNAMES
290
     1
  9
$PSVPSCALE
 40
0.0
  9
$OLESTARTUP
290
     0
  9
$SORTENTS
280
   127
  9
$INDEXCTL
280
     0
  9
$HIDETEXT
280
     1
  9
$XCLIPFRAME
290
     0
  9
$HALOGAP
280
     0
  9
$OBSCOLOR
 70
   257
  9
$OBSLTYPE
280
     0
  9
$INTERSECTIONDISPLAY
280
     0
  9
$INTERSECTIONCOLOR
 70
   257
  9
$DIMASSOC
280
     2
  9
$PROJECTNAME
  1

  0
ENDSEC
  0
SECTION
  2
CLASSES
  0
CLASS
  1
ACDBDICTIONARYWDFLT
  2
AcDbDictionaryWithDefault
  3
ObjectDBX Classes
 90
        0
 91
        3
280
     0
281
     0
  0
CLASS
  1
VISUALSTYLE
  2
AcDbVisualStyle
  3
ObjectDBX Classes
 90
     4095
 91
        3
280
     0
281
     0
  0
ENDSEC
  0
SECTION
  2
TABLES
  0
TABLE
  2
VPORT
  5
8
330
0
100
AcDbSymbolTable
 70
     1
  0
VPORT
  5
29
330
8
100
AcDbSymbolTableRecord
100
AcDbViewportTableRecord
  2
*Active
 70
     0
 10
0.0
 20
0.0
 11
1.0
 21
1.0
 12
0.0
 22
0.0
 13
0.0
 23
0.0
 14
0.5
 24
0.5
 15
0.5
 25
0.5
 16
0.0
 26
0.0
 36
1.0
 17
16.0
 27
-9.0
 37
0.0
 40
12.0
 41
2.0
 42
50.0
 43
0.0
 44
0.0
 50
0.0
 51
0.0
 71
     0
 72
   100
 73
     1
 74
     3
 75
     0
 76
     0
 77
     0
 78
     0
281
     0
 65
     1
110
0.0
120
0.0
130
0.0
111
1.0
121
0.0
131
0.0
112
0.0
122
1.0
132
0.0
 79
     0
146
0.0
  0
ENDTAB
  0
TABLE
  2
LTYPE
  5
5
330
0
100
AcDbSymbolTable
 70
     1
  0
LTYPE
  5
14
330
5
100
AcDbSymbolTableRecord
100
AcDbLinetypeTableRecord
  2
ByBlock
 70
     0
  3

 72
    65
 73
     0
 40
0.0
  0
LTYPE
  5
15
330
5
100
AcDbSymbolTableRecord
100
AcDbLinetypeTableRecord
  2
ByLayer
 70
     0
  3

 72
    65
 73
     0
 40
0.0
  0
LTYPE
  5
16
330
5
100
AcDbSymbolTableRecord
100
AcDbLinetypeTableRecord
  2
Continuous
 70
     0
  3
Solid line
 72
    65
 73
     0
 40
0.0
  0
ENDTAB
  0
TABLE
  2
LAYER
  5
2
330
0
100
AcDbSymbolTable
 70
     4
  0
LAYER
  5
10
330
2
100
AcDbSymbolTableRecord
100
AcDbLayerTableRecord
  2
0
 70
     0
 62
     7
  6
Continuous
370
    -3
390
F
  0
LAYER
  5
3B
330
2
100
AcDbSymbolTableRecord
100
AcDbLayerTableRecord
  2
Notes
 70
     0
 62
     7
  6
Continuous
370
    -3
390
F
  0
LAYER
  5
3C
330
2
100
AcDbSymbolTableRecord
100
AcDbLayerTableRecord
  2
Your Material Box
 70
     0
 62
     7
  6
Continuous
370
    -3
390
F
  0
LAYER
  5
3D
330
2
100
AcDbSymbolTableRecord
100
AcDbLayerTableRecord
  2
Your Design Layer 1
 70
     0
 62
     7
  6
Continuous
370
    -3
390
F
  0
ENDTAB
  0
TABLE
  2
STYLE
  5
3
330
0
100
AcDbSymbolTable
 70
     1
  0
STYLE
  5
11
330
3
100
AcDbSymbolTableRecord
100
AcDbTextStyleTableRecord
  2
Standard
 70
     0
 40
0.0
 41
1.0
 50
0.0
 71
     0
 42
0.2
  3
txt
  4

  0
ENDTAB
  0
TABLE
  2
VIEW
  5
6
330
0
100
AcDbSymbolTable
 70
     0
  0
ENDTAB
  0
TABLE
  2
UCS
  5
7
330
0
100
AcDbSymbolTable
 70
     0
  0
ENDTAB
  0
TABLE
  2
APPID
  5
9
330
0
100
AcDbSymbolTable
 70
     1
  0
APPID
  5
12
330
9
100
AcDbSymbolTableRecord
100
AcDbRegAppTableRecord
  2
ACAD
 70
     0
  0
ENDTAB
  0
TABLE
  2
DIMSTYLE
  5
A
330
0
100
AcDbSymbolTable
 70
     1
100
AcDbDimStyleTable
  0
DIMSTYLE
105
27
330
A
100
AcDbSymbolTableRecord
100
AcDbDimStyleTableRecord
  2
Standard
 70
     0
340
11
  0
ENDTAB
  0
TABLE
  2
BLOCK_RECORD
  5
1
330
0
100
AcDbSymbolTable
 70
     5
  0
BLOCK_RECORD
  5
1F
330
1
100
AcDbSymbolTableRecord
100
AcDbBlockTableRecord
  2
*Model_Space
340
22
  0
BLOCK_RECORD
  5
1B
330
1
100
AcDbSymbolTableRecord
100
AcDbBlockTableRecord
  2
*Paper_Space
340
1E
  0
BLOCK_RECORD
  5
23
330
1
100
AcDbSymbolTableRecord
100
AcDbBlockTableRecord
  2
*Paper_Space0
340
26
  0
BLOCK_RECORD
  5
41
330
1
100
AcDbSymbolTableRecord
100
AcDbBlockTableRecord
  2
block 2
340
0
102
{BLKREFS
331
42
102
}
  0
BLOCK_RECORD
  5
74
330
1
100
AcDbSymbolTableRecord
100
AcDbBlockTableRecord
  2
block 3
340
0
102
{BLKREFS
331
75
102
}
  0
BLOCK_RECORD
  5
18A
330
1
100
AcDbSymbolTableRecord
100
AcDbBlockTableRecord
  2
block 4
340
0
102
{BLKREFS
331
18B
102
}
  0
BLOCK_RECORD
  5
19B
330
1
100
AcDbSymbolTableRecord
100
AcDbBlockTableRecord
  2
block 5
340
0
102
{BLKREFS
331
19C
102
}
  0
ENDTAB
  0
ENDSEC
  0
SECTION
  2
BLOCKS
  0
BLOCK
  5
20
330
1F
100
AcDbEntity
  8
0
100
AcDbBlockBegin
  2
*Model_Space
 70
     0
 71
     0
 10
0.0
 20
0.0
 30
0.0
  3
*Model_Space
  1

  0
ENDBLK
  5
21
330
1F
100
AcDbEntity
  8
0
100
AcDbBlockEnd
  0
BLOCK
  5
1C
330
1B
100
AcDbEntity
 67
     1
  8
0
100
AcDbBlockBegin
  2
*Paper_Space
 70
     0
 71
     0
 10
0.0
 20
0.0
 30
0.0
  3
*Paper_Space
  1

  0
ENDBLK
  5
1D
330
1B
100
AcDbEntity
 67
     1
  8
0
100
AcDbBlockEnd
  0
BLOCK
  5
24
330
23
100
AcDbEntity
  8
0
100
AcDbBlockBegin
  2
*Paper_Space0
 70
     0
 71
     0
 10
0.0
 20
0.0
 30
0.0
  3
*Paper_Space0
  1

  0
ENDBLK
  5
25
330
23
100
AcDbEntity
  8
0
100
AcDbBlockEnd
  0
BLOCK
  5
43
330
41
100
AcDbEntity
  8
0
100
AcDbBlockBegin
  2
block 2
 70
     0
 71
     0
 10
0.0
 20
0.0
 30
0.0
  3
block 2
  1

  0
SPLINE
  5
45
330
41
100
AcDbEntity
  8
Your Design Layer 1
 62
     1
420
 16711680
370
     5
100
AcDbSpline
210
0.0
220
0.0
230
1.0
 70
     8
 71
     3
 72
     8
 73
     4
 74
     0
 42
0.0000000001
 43
0.0000000001
 40
0.0
 40
0.0
 40
0.0
 40
0.0
 40
1.0
 40
1.0
 40
1.0
 40
1.0
 10
4.487752278645833
 20
-9.603040907118055
 30
0.0
 10
4.796237521701388
 20
-9.317220052083332
 30
0.0
 10
5.148125542534722
 20
-9.098036024305555
 30
0.0
 10
5.550035264756944
 20
-8.954508463541666
 30
0.0
  0
SPLINE
  5
46
330
41
100
AcDbEntity
  8
Your Design Layer 1
 62
     1
420
 16711680
370
     5
100
AcDbSpline
210
0.0
220
0.0
230
1.0
 70
     8
 71
     3
 72
     8
 73
     4
 74
     0
 42
0.0000000001
 43
0.0000000001
 40
0.0
 40
0.0
 40
0.0
 40
0.0
 40
1.0
 40
1.0
 40
1.0
 40
1.0
 10
5.517347547743055
 20
-14.87822808159722
 30
0.0
 10
5.040296766493055
 20
-14.69943576388889
 30
0.0
 10
4.628702799479166
 20
-14.42015245225694
 30
0.0
 10
4.293429904513888
 20
-14.04908582899306
 30
0.0
  0
POLYLINE
  5
47
330
41
100
AcDbEntity
  8
Your Design Layer 1
 62
     1
420
 16711680
370
     5
100
AcDb2dPolyline
 66
     1
 10
0.0
 20
0.0
 30
0.0
  0
VERTEX
  5
48
330
47
100
AcDbEntity
  8
Your Design Layer 1
 62
     1
420
 16711680
370
     5
100
AcDbVertex
100
AcDb2dVertex
 10
4.487752278645833
 20
-10.0452880859375
 30
0.0
  0
VERTEX
  5
49
330
47
100
AcDbEntity
  8
Your Design Layer 1
 62
     1
420
 16711680
370
     5
100
AcDbVertex
100
AcDb2dVertex
 10
4.487752278645833
 20
-9.603040907118055
 30
0.0
  0
SEQEND
  5
4A
330
47
100
AcDbEntity
  8
Your Design Layer 1
370
     5
  0
POLYLINE
  5
4B
330
41
100
AcDbEntity
  8
Your Design Layer 1
 62
     1
420
 16711680
370
     5
100
AcDb2dPolyline
 66
     1
 10
0.0
 20
0.0
 30
0.0
  0
VERTEX
  5
4C
330
4B
100
AcDbEntity
  8
Your Design Layer 1
 62
     1
420
 16711680
370
     5
100
AcDbVertex
100
AcDb2dVertex
 10
4.293429904513888
 20
-14.04908582899306
 30
0.0
  0
VERTEX
  5
4D
330
4B
100
AcDbEntity
  8
Your Design Layer 1
 62
     1
420
 16711680
370
     5
100
AcDbVertex
100
AcDb2dVertex
 10
4.72314453125
 20
-14.04908582899306
 30
0.0
  0
SEQEND
  5
4E
330
4B
100
AcDbEntity
  8
Your Design Layer 1
370
     5
  0
SPLINE
  5
4F
330
41
100
AcDbEntity
  8
Your Design Layer 1
 62
     1
420
 16711680
370
     5
100
AcDbSpline
210
0.0
220
0.0
230
1.0
 70
     8
 71
     3
 72
     8
 73
     4
 74
     0
 42
0.0000000001
 43
0.0000000001
 40
0.0
 40
0.0
 40
0.0
 40
0.0
 40
1.0
 40
1.0
 40
1.0
 40
1.0
 10
4.485541449652778
 20
-10.04741753472222
 30
0.0
 10
4.696356879340278
 20
-9.806844075520832
 30
0.0
 10
4.946004231770833
 20
-9.603352864583332
 30
0.0
 10
5.225029839409722
 20
-9.446261935763888
 30
0.0
  0
SPLINE
  5
50
330
41
100
AcDbEntity
  8
Your Design Layer 1
 62
     1
420
 16711680
370
     5
100
AcDbSpline
210
0.0
220
0.0
230
1.0
 70
     8
 71
     3
 72
     8
 73
     4
 74
     0
 42
0.0000000001
 43
0.0000000001
 40
0.0
 40
0.0
 40
0.0
 40
0.0
 40
1.0
 40
1.0
 40
1.0
 40
1.0
 10
5.225599500868055
 20
-14.40646701388889
 30
0.0
 10
5.0411376953125
 20
-14.30345323350694
 30
0.0
 10
4.878621419270833
 20
-14.18863932291667
 30
0.0
 10
4.72314453125
 20
-14.04908582899306
 30
0.0
  0
POLYLINE
  5
51
330
41
100
AcDbEntity
  8
Your Design Layer 1
 62
     1
420
 16711680
370
     5
100
AcDb2dPolyline
 66
     1
 10
0.0
 20
0.0
 30
0.0
  0
VERTEX
  5
52
330
51
100
AcDbEntity
  8
Your Design Layer 1
 62
     1
420
 16711680
370
     5
100
AcDbVertex
100
AcDb2dVertex
 10
5.550035264756944
 20
-8.954508463541666
 30
0.0
  0
VERTEX
  5
53
330
51
100
AcDbEntity
  8
Your Design Layer 1
 62
     1
420
 16711680
370
     5
100
AcDbVertex
100
AcDb2dVertex
 10
7.1124267578125
 20
-11.63728841145833
 30
0.0
  0
SEQEND
  5
54
330
51
100
AcDbEntity
  8
Your Design Layer 1
370
     5
  0
POLYLINE
  5
55
330
41
100
AcDbEntity
  8
Your Design Layer 1
 62
     1
420
 16711680
370
     5
100
AcDb2dPolyline
 66
     1
 10
0.0
 20
0.0
 30
0.0
  0
VERTEX
  5
56
330
55
100
AcDbEntity
  8
Your Design Layer 1
 62
     1
420
 16711680
370
     5
100
AcDbVertex
100
AcDb2dVertex
 10
5.225029839409722
 20
-9.446261935763888
 30
0.0
  0
VERTEX
  5
57
330
55
100
AcDbEntity
  8
Your Design Layer 1
 62
     1
420
 16711680
370
     5
100
AcDbVertex
100
AcDb2dVertex
 10
5.990505642361111
 20
-11.92716471354167
 30
0.0
  0
SEQEND
  5
58
330
55
100
AcDbEntity
  8
Your Design Layer 1
370
     5
  0
POLYLINE
  5
59
330
41
100
AcDbEntity
  8
Your Design Layer 1
 62
     1
420
 16711680
370
     5
100
AcDb2dPolyline
 66
     1
 10
0.0
 20
0.0
 30
0.0
  0
VERTEX
  5
5A
330
59
100
AcDbEntity
  8
Your Design Layer 1
 62
     1
420
 16711680
370
     5
100
AcDbVertex
100
AcDb2dVertex
 10
5.5145263671875
 20
-14.88218858506944
 30
0.0
  0
VERTEX
  5
5B
330
59
100
AcDbEntity
  8
Your Design Layer 1
 62
     1
420
 16711680
370
     5
100
AcDbVertex
100
AcDb2dVertex
 10
7.138644748263888
 20
-12.19746907552083
 30
0.0
  0
SEQEND
  5
5C
330
59
100
AcDbEntity
  8
Your Design Layer 1
370
     5
  0
POLYLINE
  5
5D
330
41
100
AcDbEntity
  8
Your Design Layer 1
 62
     1
420
 16711680
370
     5
100
AcDb2dPolyline
 66
     1
 10
0.0
 20
0.0
 30
0.0
  0
VERTEX
  5
5E
330
5D
100
AcDbEntity
  8
Your Design Layer 1
 62
     1
420
 16711680
370
     5
100
AcDbVertex
100
AcDb2dVertex
 10
5.225599500868055
 20
-14.40646701388889
 30
0.0
  0
VERTEX
  5
5F
330
5D
100
AcDbEntity
  8
Your Design Layer 1
 62
     1
420
 16711680
370
     5
100
AcDbVertex
100
AcDb2dVertex
 10
5.990505642361111
 20
-11.92716471354167
 30
0.0
  0
SEQEND
  5
60
330
5D
100
AcDbEntity
  8
Your Design Layer 1
370
     5
  0
SPLINE
  5
61
330
41
100
AcDbEntity
  8
Your Design Layer 1
 62
     1
420
 16711680
370
     5
100
AcDbSpline
210
0.0
220
0.0
230
1.0
 70
    11
 71
     3
 72
    17
 73
    13
 74
     0
 42
0.0000000001
 43
0.0000000001
 40
0.0
 40
0.0
 40
0.0
 40
0.0
 40
1.0
 40
1.0
 40
1.0
 40
2.0
 40
2.0
 40
2.0
 40
3.0
 40
3.0
 40
3.0
 40
4.0
 40
4.0
 40
4.0
 40
4.0
 10
6.621622721354166
 20
-11.58376736111111
 30
0.0
 10
6.431966145833333
 20
-11.58376736111111
 30
0.0
 10
6.278225368923611
 20
-11.73750813802083
 30
0.0
 10
6.278225368923611
 20
-11.92716471354167
 30
0.0
 10
6.278225368923611
 20
-12.1168212890625
 30
0.0
 10
6.431966145833333
 20
-12.27056206597222
 30
0.0
 10
6.621622721354166
 20
-12.27056206597222
 30
0.0
 10
6.811279296875
 20
-12.27056206597222
 30
0.0
 10
6.965020073784721
 20
-12.1168212890625
 30
0.0
 10
6.965020073784721
 20
-11.92716471354167
 30
0.0
 10
6.965020073784721
 20
-11.73750813802083
 30
0.0
 10
6.811279296875
 20
-11.58376736111111
 30
0.0
 10
6.621622721354166
 20
-11.58376736111111
 30
0.0
  0
POLYLINE
  5
62
330
41
100
AcDbEntity
  8
Your Design Layer 1
 62
     1
420
 16711680
370
     5
100
AcDb2dPolyline
 66
     1
 10
0.0
 20
0.0
 30
0.0
  0
VERTEX
  5
63
330
62
100
AcDbEntity
  8
Your Design Layer 1
 62
     1
420
 16711680
370
     5
100
AcDbVertex
100
AcDb2dVertex
 10
7.1124267578125
 20
-11.63728841145833
 30
0.0
  0
VERTEX
  5
64
330
62
100
AcDbEntity
  8
Your Design Layer 1
 62
     1
420
 16711680
370
     5
100
AcDbVertex
100
AcDb2dVertex
 10
17.13897026909722
 20
-11.63728841145833
 30
0.0
  0
SEQEND
  5
65
330
62
100
AcDbEntity
  8
Your Design Layer 1
370
     5
  0
POLYLINE
  5
66
330
41
100
AcDbEntity
  8
Your Design Layer 1
 62
     1
420
 16711680
370
     5
100
AcDb2dPolyline
 66
     1
 10
0.0
 20
0.0
 30
0.0
  0
VERTEX
  5
67
330
66
100
AcDbEntity
  8
Your Design Layer 1
 62
     1
420
 16711680
370
     5
100
AcDbVertex
100
AcDb2dVertex
 10
7.138644748263888
 20
-12.19746907552083
 30
0.0
  0
VERTEX
  5
68
330
66
100
AcDbEntity
  8
Your Design Layer 1
 62
     1
420
 16711680
370
     5
100
AcDbVertex
100
AcDb2dVertex
 10
17.13897026909722
 20
-12.19746907552083
 30
0.0
  0
SEQEND
  5
69
330
66
100
AcDbEntity
  8
Your Design Layer 1
370
     5
  0
SPLINE
  5
6A
330
41
100
AcDbEntity
  8
Your Design Layer 1
 62
     1
420
 16711680
370
     5
100
AcDbSpline
210
0.0
220
0.0
230
1.0
 70
    11
 71
     3
 72
    17
 73
    13
 74
     0
 42
0.0000000001
 43
0.0000000001
 40
0.0
 40
0.0
 40
0.0
 40
0.0
 40
1.0
 40
1.0
 40
1.0
 40
2.0
 40
2.0
 40
2.0
 40
3.0
 40
3.0
 40
3.0
 40
4.0
 40
4.0
 40
4.0
 40
4.0
 10
16.69536675347222
 20
-11.80216471354167
 30
0.0
 10
16.62632921006944
 20
-11.80216471354167
 30
0.0
 10
16.57036675347222
 20
-11.85812717013889
 30
0.0
 10
16.57036675347222
 20
-11.92716471354167
 30
0.0
 10
16.57036675347222
 20
-11.99618869357639
 30
0.0
 10
16.62632921006944
 20
-12.05216471354167
 30
0.0
 10
16.69536675347222
 20
-12.05216471354167
 30
0.0
 10
16.764404296875
 20
-12.05216471354167
 30
0.0
 10
16.82036675347222
 20
-11.99618869357639
 30
0.0
 10
16.82036675347222
 20
-11.92716471354167
 30
0.0
 10
16.82036675347222
 20
-11.85812717013889
 30
0.0
 10
16.764404296875
 20
-11.80216471354167
 30
0.0
 10
16.69536675347222
 20
-11.80216471354167
 30
0.0
  0
SPLINE
  5
6B
330
41
100
AcDbEntity
  8
Your Design Layer 1
 62
     1
420
 16711680
370
     5
100
AcDbSpline
210
0.0
220
0.0
230
1.0
 70
    11
 71
     3
 72
    17
 73
    13
 74
     0
 42
0.0000000001
 43
0.0000000001
 40
0.0
 40
0.0
 40
0.0
 40
0.0
 40
1.0
 40
1.0
 40
1.0
 40
2.0
 40
2.0
 40
2.0
 40
3.0
 40
3.0
 40
3.0
 40
4.0
 40
4.0
 40
4.0
 40
4.0
 10
16.12717013888889
 20
-11.80216471354167
 30
0.0
 10
16.05813259548611
 20
-11.80216471354167
 30
0.0
 10
16.00216335720486
 20
-11.85812717013889
 30
0.0
 10
16.00216335720486
 20
-11.92716471354167
 30
0.0
 10
16.00216335720486
 20
-11.99618869357639
 30
0.0
 10
16.05813259548611
 20
-12.05216471354167
 30
0.0
 10
16.12717013888889
 20
-12.05216471354167
 30
0.0
 10
16.19620768229166
 20
-12.05216471354167
 30
0.0
 10
16.25217013888889
 20
-11.99618869357639
 30
0.0
 10
16.25217013888889
 20
-11.92716471354167
 30
0.0
 10
16.25217013888889
 20
-11.85812717013889
 30
0.0
 10
16.19620768229166
 20
-11.80216471354167
 30
0.0
 10
16.12717013888889
 20
-11.80216471354167
 30
0.0
  0
POLYLINE
  5
6C
330
41
100
AcDbEntity
  8
Your Design Layer 1
 62
     1
420
 16711680
370
     5
100
AcDb2dPolyline
 66
     1
 10
0.0
 20
0.0
 30
0.0
  0
VERTEX
  5
6D
330
6C
100
AcDbEntity
  8
Your Design Layer 1
 62
     1
420
 16711680
370
     5
100
AcDbVertex
100
AcDb2dVertex
 10
17.13897026909722
 20
-11.6373291015625
 30
0.0
  0
VERTEX
  5
6E
330
6C
100
AcDbEntity
  8
Your Design Layer 1
 62
     1
420
 16711680
370
     5
100
AcDbVertex
100
AcDb2dVertex
 10
17.13897026909722
 20
-12.197509765625
 30
0.0
  0
SEQEND
  5
6F
330
6C
100
AcDbEntity
  8
Your Design Layer 1
370
     5
  0
POLYLINE
  5
70
330
41
100
AcDbEntity
  8
Your Design Layer 1
 62
     7
420
 16777215
370
    70
100
AcDb2dPolyline
 66
     1
 10
0.0
 20
0.0
 30
0.0
  0
VERTEX
  5
71
330
70
100
AcDbEntity
  8
Your Design Layer 1
 62
     7
420
 16777215
370
    70
100
AcDbVertex
100
AcDb2dVertex
 10
16.41126844618055
 20
-12.20041232638889
 30
0.0
  0
VERTEX
  5
72
330
70
100
AcDbEntity
  8
Your Design Layer 1
 62
     7
420
 16777215
370
    70
100
AcDbVertex
100
AcDb2dVertex
 10
16.41126844618055
 20
-11.66220431857639
 30
0.0
  0
SEQEND
  5
73
330
70
100
AcDbEntity
  8
Your Design Layer 1
370
    70
  0
ENDBLK
  5
44
330
41
100
AcDbEntity
  8
0
100
AcDbBlockEnd
  0
BLOCK
  5
76
330
74
100
AcDbEntity
  8
0
100
AcDbBlockBegin
  2
block 3
 70
     0
 71
     0
 10
0.0
 20
0.0
 30
0.0
  3
block 3
  1

  0
SPLINE
  5
78
330
74
100
AcDbEntity
  8
Your Design Layer 1
 62
     1
420
 16711680
370
     5
100
AcDbSpline
210
0.0
220
0.0
230
1.0
 70
     8
 71
     3
 72
     8
 73
     4
 74
     0
 42
0.0000000001
 43
0.0000000001
 40
0.0
 40
0.0
 40
0.0
 40
0.0
 40
1.0
 40
1.0
 40
1.0
 40
1.0
 10
9.150322808159721
 20
-4.995334201388888
 30
0.0
 10
9.09865993923611
 20
-4.918206108940972
 30
0.0
 10
9.042344835069445
 20
-4.844448513454861
 30
0.0
 10
8.981784396701388
 20
-4.774461534288194
 30
0.0
  0
SPLINE
  5
79
330
74
100
AcDbEntity
  8
Your Design Layer 1
 62
     1
420
 16711680
370
     5
100
AcDbSpline
210
0.0
220
0.0
230
1.0
 70
     8
 71
     3
 72
     8
 73
     4
 74
     0
 42
0.0000000001
 43
0.0000000001
 40
0.0
 40
0.0
 40
0.0
 40
0.0
 40
1.0
 40
1.0
 40
1.0
 40
1.0
 10
9.349962022569445
 20
-5.363491482204861
 30
0.0
 10
9.327799479166666
 20
-5.311570909288194
 30
0.0
 10
9.303751627604166
 20
-5.260654025607638
 30
0.0
 10
9.277899848090277
 20
-5.210842556423611
 30
0.0
  0
SPLINE
  5
7A
330
74
100
AcDbEntity
  8
Your Design Layer 1
 62
     1
420
 16711680
370
     5
100
AcDbSpline
210
0.0
220
0.0
230
1.0
 70
     8
 71
     3
 72
     8
 73
     4
 74
     0
 42
0.0000000001
 43
0.0000000001
 40
0.0
 40
0.0
 40
0.0
 40
0.0
 40
1.0
 40
1.0
 40
1.0
 40
1.0
 10
9.496202256944445
 20
-5.857401529947916
 30
0.0
 10
9.481065538194445
 20
-5.770392523871528
 30
0.0
 10
9.460910373263888
 20
-5.685092502170138
 30
0.0
 10
9.43606228298611
 20
-5.601826985677083
 30
0.0
  0
SPLINE
  5
7B
330
74
100
AcDbEntity
  8
Your Design Layer 1
 62
     1
420
 16711680
370
     5
100
AcDbSpline
210
0.0
220
0.0
230
1.0
 70
     8
 71
     3
 72
    14
 73
    10
 74
     0
 42
0.0000000001
 43
0.0000000001
 40
0.0
 40
0.0
 40
0.0
 40
0.0
 40
1.0
 40
1.0
 40
1.0
 40
2.0
 40
2.0
 40
2.0
 40
3.0
 40
3.0
 40
3.0
 40
3.0
 10
9.529147677951388
 20
-6.291497124565971
 30
0.0
 10
9.529310438368055
 20
-6.283399793836805
 30
0.0
 10
9.529432508680555
 20
-6.275295681423611
 30
0.0
 10
9.529513888888888
 20
-6.267178005642361
 30
0.0
 10
9.529581705729166
 20
-6.260118272569444
 30
0.0
 10
9.529622395833332
 20
-6.253044976128471
 30
0.0
 10
9.529622395833332
 20
-6.245964898003471
 30
0.0
 10
9.529622395833332
 20
-6.191046820746528
 30
0.0
 10
9.527655707465277
 20
-6.136576334635416
 30
0.0
 10
9.523790147569445
 20
-6.082648383246528
 30
0.0
  0
SPLINE
  5
7C
330
74
100
AcDbEntity
  8
Your Design Layer 1
 62
     1
420
 16711680
370
     5
100
AcDbSpline
210
0.0
220
0.0
230
1.0
 70
     8
 71
     3
 72
     8
 73
     4
 74
     0
 42
0.0000000001
 43
0.0000000001
 40
0.0
 40
0.0
 40
0.0
 40
0.0
 40
1.0
 40
1.0
 40
1.0
 40
1.0
 10
9.477511935763888
 20
-6.729444715711805
 30
0.0
 10
9.488077799479166
 20
-6.681220160590278
 30
0.0
 10
9.49709743923611
 20
-6.632419162326388
 30
0.0
 10
9.504503038194445
 20
-6.583089192708333
 30
0.0
  0
SPLINE
  5
7D
330
74
100
AcDbEntity
  8
Your Design Layer 1
 62
     1
420
 16711680
370
     5
100
AcDbSpline
210
0.0
220
0.0
230
1.0
 70
     8
 71
     3
 72
     8
 73
     4
 74
     0
 42
0.0000000001
 43
0.0000000001
 40
0.0
 40
0.0
 40
0.0
 40
0.0
 40
1.0
 40
1.0
 40
1.0
 40
1.0
 10
9.328016493055555
 20
-7.178107367621528
 30
0.0
 10
9.352959526909721
 20
-7.123392740885416
 30
0.0
 10
9.375773111979166
 20
-7.0675048828125
 30
0.0
 10
9.396348741319445
 20
-7.010552300347221
 30
0.0
  0
SPLINE
  5
7E
330
74
100
AcDbEntity
  8
Your Design Layer 1
 62
     1
420
 16711680
370
     5
100
AcDbSpline
210
0.0
220
0.0
230
1.0
 70
     8
 71
     3
 72
     8
 73
     4
 74
     0
 42
0.0000000001
 43
0.0000000001
 40
0.0
 40
0.0
 40
0.0
 40
0.0
 40
1.0
 40
1.0
 40
1.0
 40
1.0
 10
9.07033962673611
 20
-7.608432345920138
 30
0.0
 10
9.111789279513888
 20
-7.554029676649305
 30
0.0
 10
9.150824652777777
 20
-7.497687445746528
 30
0.0
 10
9.187269422743055
 20
-7.439554850260416
 30
0.0
  0
SPLINE
  5
7F
330
74
100
AcDbEntity
  8
Your Design Layer 1
 62
     1
420
 16711680
370
     5
100
AcDbSpline
210
0.0
220
0.0
230
1.0
 70
     8
 71
     3
 72
     8
 73
     4
 74
     0
 42
0.0000000001
 43
0.0000000001
 40
0.0
 40
0.0
 40
0.0
 40
0.0
 40
1.0
 40
1.0
 40
1.0
 40
1.0
 10
8.746988932291666
 20
-7.951653374565971
 30
0.0
 10
8.79970974392361
 20
-7.906270345052083
 30
0.0
 10
8.850301106770832
 20
-7.85845947265625
 30
0.0
 10
8.898600260416666
 20
-7.808424207899305
 30
0.0
  0
SPLINE
  5
80
330
74
100
AcDbEntity
  8
Your Design Layer 1
 62
     1
420
 16711680
370
     5
100
AcDbSpline
210
0.0
220
0.0
230
1.0
 70
     8
 71
     3
 72
     8
 73
     4
 74
     0
 42
0.0000000001
 43
0.0000000001
 40
0.0
 40
0.0
 40
0.0
 40
0.0
 40
1.0
 40
1.0
 40
1.0
 40
1.0
 10
8.37936740451389
 20
-8.209343804253471
 30
0.0
 10
8.437934027777777
 20
-8.176466200086805
 30
0.0
 10
8.494886610243055
 20
-8.141038682725695
 30
0.0
 10
8.550062391493055
 20
-8.103224012586805
 30
0.0
  0
SPLINE
  5
81
330
74
100
AcDbEntity
  8
Your Design Layer 1
 62
     1
420
 16711680
370
     5
100
AcDbSpline
210
0.0
220
0.0
230
1.0
 70
     8
 71
     3
 72
     8
 73
     4
 74
     0
 42
0.0000000001
 43
0.0000000001
 40
0.0
 40
0.0
 40
0.0
 40
0.0
 40
1.0
 40
1.0
 40
1.0
 40
1.0
 10
7.956773546006944
 20
-8.39227294921875
 30
0.0
 10
8.013495551215277
 20
-8.374396430121527
 30
0.0
 10
8.06924099392361
 20
-8.35433620876736
 30
0.0
 10
8.12392849392361
 20
-8.33218722873264
 30
0.0
  0
SPLINE
  5
82
330
74
100
AcDbEntity
  8
Your Design Layer 1
 62
     1
420
 16711680
370
     5
100
AcDbSpline
210
0.0
220
0.0
230
1.0
 70
     8
 71
     3
 72
     8
 73
     4
 74
     0
 42
0.0000000001
 43
0.0000000001
 40
0.0
 40
0.0
 40
0.0
 40
0.0
 40
1.0
 40
1.0
 40
1.0
 40
1.0
 10
7.491807725694444
 20
-8.486090766059027
 30
0.0
 10
7.550320095486111
 20
-8.480611165364582
 30
0.0
 10
7.608194986979166
 20
-8.472893608940971
 30
0.0
 10
7.665323893229166
 20
-8.463033040364582
 30
0.0
  0
SPLINE
  5
83
330
74
100
AcDbEntity
  8
Your Design Layer 1
 62
     1
420
 16711680
370
     5
100
AcDbSpline
210
0.0
220
0.0
230
1.0
 70
     8
 71
     3
 72
     8
 73
     4
 74
     0
 42
0.0000000001
 43
0.0000000001
 40
0.0
 40
0.0
 40
0.0
 40
0.0
 40
1.0
 40
1.0
 40
1.0
 40
1.0
 10
7.016845703125
 20
-8.48077392578125
 30
0.0
 10
7.073296440972221
 20
-8.48733859592014
 30
0.0
 10
7.130384657118055
 20
-8.491828070746527
 30
0.0
 10
7.188042534722221
 20
-8.494133843315971
 30
0.0
  0
SPLINE
  5
84
330
74
100
AcDbEntity
  8
Your Design Layer 1
 62
     1
420
 16711680
370
     5
100
AcDbSpline
210
0.0
220
0.0
230
1.0
 70
     8
 71
     3
 72
     8
 73
     4
 74
     0
 42
0.0000000001
 43
0.0000000001
 40
0.0
 40
0.0
 40
0.0
 40
0.0
 40
1.0
 40
1.0
 40
1.0
 40
1.0
 10
6.560126410590278
 20
-8.37845187717014
 30
0.0
 10
6.615342881944444
 20
-8.397074381510416
 30
0.0
 10
6.6715087890625
 20
-8.413621690538195
 30
0.0
 10
6.728542751736111
 20
-8.427971733940971
 30
0.0
  0
SPLINE
  5
85
330
74
100
AcDbEntity
  8
Your Design Layer 1
 62
     1
420
 16711680
370
     5
100
AcDbSpline
210
0.0
220
0.0
230
1.0
 70
     8
 71
     3
 72
     8
 73
     4
 74
     0
 42
0.0000000001
 43
0.0000000001
 40
0.0
 40
0.0
 40
0.0
 40
0.0
 40
1.0
 40
1.0
 40
1.0
 40
1.0
 10
6.139227973090278
 20
-8.18594699435764
 30
0.0
 10
6.187147352430555
 20
-8.214185926649305
 30
0.0
 10
6.236219618055555
 20
-8.24068874782986
 30
0.0
 10
6.286336263020833
 20
-8.265374077690971
 30
0.0
  0
SPLINE
  5
86
330
74
100
AcDbEntity
  8
Your Design Layer 1
 62
     1
420
 16711680
370
     5
100
AcDbSpline
210
0.0
220
0.0
230
1.0
 70
     8
 71
     3
 72
     8
 73
     4
 74
     0
 42
0.0000000001
 43
0.0000000001
 40
0.0
 40
0.0
 40
0.0
 40
0.0
 40
1.0
 40
1.0
 40
1.0
 40
1.0
 10
5.761705186631944
 20
-7.906812879774305
 30
0.0
 10
5.802517361111111
 20
-7.944139268663194
 30
0.0
 10
5.844706217447916
 20
-7.979973687065971
 30
0.0
 10
5.888197157118055
 20
-8.014234754774305
 30
0.0
  0
SPLINE
  5
87
330
74
100
AcDbEntity
  8
Your Design Layer 1
 62
     1
420
 16711680
370
     5
100
AcDbSpline
210
0.0
220
0.0
230
1.0
 70
     8
 71
     3
 72
     8
 73
     4
 74
     0
 42
0.0000000001
 43
0.0000000001
 40
0.0
 40
0.0
 40
0.0
 40
0.0
 40
1.0
 40
1.0
 40
1.0
 40
1.0
 10
5.450731065538194
 20
-7.55682373046875
 30
0.0
 10
5.483357747395833
 20
-7.602261013454861
 30
0.0
 10
5.517632378472222
 20
-7.646436903211805
 30
0.0
 10
5.553473578559028
 20
-7.689249674479166
 30
0.0
  0
SPLINE
  5
88
330
74
100
AcDbEntity
  8
Your Design Layer 1
 62
     1
420
 16711680
370
     5
100
AcDbSpline
210
0.0
220
0.0
230
1.0
 70
     8
 71
     3
 72
    14
 73
    10
 74
     0
 42
0.0000000001
 43
0.0000000001
 40
0.0
 40
0.0
 40
0.0
 40
0.0
 40
1.0
 40
1.0
 40
1.0
 40
2.0
 40
2.0
 40
2.0
 40
3.0
 40
3.0
 40
3.0
 40
3.0
 10
5.207858615451388
 20
-7.125047471788194
 30
0.0
 10
5.213019476996528
 20
-7.137193467881944
 30
0.0
 10
5.218282063802083
 20
-7.149285210503471
 30
0.0
 10
5.223646375868055
 20
-7.161322699652778
 30
0.0
 10
5.243401421440972
 20
-7.20562744140625
 30
0.0
 10
5.264546712239583
 20
-7.249172634548611
 30
0.0
 10
5.287021213107638
 20
-7.291910807291666
 30
0.0
 10
5.292650010850694
 20
-7.3026123046875
 30
0.0
 10
5.298366970486111
 20
-7.313266330295138
 30
0.0
 10
5.304165310329861
 20
-7.323866102430555
 30
0.0
  0
SPLINE
  5
89
330
74
100
AcDbEntity
  8
Your Design Layer 1
 62
     1
420
 16711680
370
     5
100
AcDbSpline
210
0.0
220
0.0
230
1.0
 70
     8
 71
     3
 72
    11
 73
     7
 74
     0
 42
0.0000000001
 43
0.0000000001
 40
0.0
 40
0.0
 40
0.0
 40
0.0
 40
1.0
 40
1.0
 40
1.0
 40
2.0
 40
2.0
 40
2.0
 40
2.0
 10
5.074347601996528
 20
-6.694552951388888
 30
0.0
 10
5.084493001302083
 20
-6.744669596354166
 30
0.0
 10
5.096299913194444
 20
-6.794182671440971
 30
0.0
 10
5.109714084201388
 20
-6.843031141493055
 30
0.0
 10
5.110948350694444
 20
-6.8475341796875
 30
0.0
 10
5.112202962239583
 20
-6.852030436197916
 30
0.0
 10
5.113471137152778
 20
-6.856526692708333
 30
0.0
  0
SPLINE
  5
8A
330
74
100
AcDbEntity
  8
Your Design Layer 1
 62
     1
420
 16711680
370
     5
100
AcDbSpline
210
0.0
220
0.0
230
1.0
 70
     8
 71
     3
 72
     8
 73
     4
 74
     0
 42
0.0000000001
 43
0.0000000001
 40
0.0
 40
0.0
 40
0.0
 40
0.0
 40
1.0
 40
1.0
 40
1.0
 40
1.0
 10
5.029629177517361
 20
-6.245964898003471
 30
0.0
 10
5.029629177517361
 20
-6.301289876302083
 30
0.0
 10
5.031622992621528
 20
-6.356153700086805
 30
0.0
 10
5.035549587673611
 20
-6.410481770833333
 30
0.0
  0
SPLINE
  5
8B
330
74
100
AcDbEntity
  8
Your Design Layer 1
 62
     1
420
 16711680
370
     5
100
AcDbSpline
210
0.0
220
0.0
230
1.0
 70
     8
 71
     3
 72
     8
 73
     4
 74
     0
 42
0.0000000001
 43
0.0000000001
 40
0.0
 40
0.0
 40
0.0
 40
0.0
 40
1.0
 40
1.0
 40
1.0
 40
1.0
 10
5.083048502604166
 20
-5.756388346354166
 30
0.0
 10
5.070041232638888
 20
-5.814988878038194
 30
0.0
 10
5.059326171875
 20
-5.87445068359375
 30
0.0
 10
5.050998263888888
 20
-5.934672037760416
 30
0.0
  0
SPLINE
  5
8C
330
74
100
AcDbEntity
  8
Your Design Layer 1
 62
     1
420
 16711680
370
     5
100
AcDbSpline
210
0.0
220
0.0
230
1.0
 70
     8
 71
     3
 72
     8
 73
     4
 74
     0
 42
0.0000000001
 43
0.0000000001
 40
0.0
 40
0.0
 40
0.0
 40
0.0
 40
1.0
 40
1.0
 40
1.0
 40
1.0
 10
5.231913248697916
 20
-5.312255859375
 30
0.0
 10
5.209052191840278
 20
-5.3623046875
 30
0.0
 10
5.187974717881944
 20
-5.413336859809028
 30
0.0
 10
5.16876220703125
 20
-5.46527099609375
 30
0.0
  0
SPLINE
  5
8D
330
74
100
AcDbEntity
  8
Your Design Layer 1
 62
     1
420
 16711680
370
     5
100
AcDbSpline
210
0.0
220
0.0
230
1.0
 70
     8
 71
     3
 72
     8
 73
     4
 74
     0
 42
0.0000000001
 43
0.0000000001
 40
0.0
 40
0.0
 40
0.0
 40
0.0
 40
1.0
 40
1.0
 40
1.0
 40
1.0
 10
5.477559407552083
 20
-4.898505316840278
 30
0.0
 10
5.442396375868055
 20
-4.945454915364583
 30
0.0
 10
5.409030490451388
 20
-4.993821885850694
 30
0.0
 10
5.377549913194444
 20
-5.043511284722222
 30
0.0
  0
SPLINE
  5
8E
330
74
100
AcDbEntity
  8
Your Design Layer 1
 62
     1
420
 16711680
370
     5
100
AcDbSpline
210
0.0
220
0.0
230
1.0
 70
     8
 71
     3
 72
    11
 73
     7
 74
     0
 42
0.0000000001
 43
0.0000000001
 40
0.0
 40
0.0
 40
0.0
 40
0.0
 40
1.0
 40
1.0
 40
1.0
 40
2.0
 40
2.0
 40
2.0
 40
2.0
 10
5.792283799913194
 20
-4.557651095920138
 30
0.0
 10
5.748684353298611
 20
-4.596089680989583
 30
0.0
 10
5.706590440538194
 20
-4.636189778645833
 30
0.0
 10
5.666090223524305
 20
-4.677849663628472
 30
0.0
 10
5.661546495225694
 20
-4.682522243923611
 30
0.0
 10
5.657029893663194
 20
-4.687215169270833
 30
0.0
 10
5.65252685546875
 20
-4.691928439670138
 30
0.0
  0
SPLINE
  5
8F
330
74
100
AcDbEntity
  8
Your Design Layer 1
 62
     1
420
 16711680
370
     5
100
AcDbSpline
210
0.0
220
0.0
230
1.0
 70
     8
 71
     3
 72
    11
 73
     7
 74
     0
 42
0.0000000001
 43
0.0000000001
 40
0.0
 40
0.0
 40
0.0
 40
0.0
 40
1.0
 40
1.0
 40
1.0
 40
2.0
 40
2.0
 40
2.0
 40
2.0
 10
6.169854058159722
 20
-4.288255479600695
 30
0.0
 10
6.118937174479166
 20
-4.317179361979166
 30
0.0
 10
6.069254557291666
 20
-4.348029242621528
 30
0.0
 10
6.020914713541666
 20
-4.380710177951388
 30
0.0
 10
6.014892578125
 20
-4.384779188368055
 30
0.0
 10
6.008897569444444
 20
-4.388882107204861
 30
0.0
 10
6.002916124131944
 20
-4.393012152777778
 30
0.0
  0
SPLINE
  5
90
330
74
100
AcDbEntity
  8
Your Design Layer 1
 62
     1
420
 16711680
370
     5
100
AcDbSpline
210
0.0
220
0.0
230
1.0
 70
     8
 71
     3
 72
     8
 73
     4
 74
     0
 42
0.0000000001
 43
0.0000000001
 40
0.0
 40
0.0
 40
0.0
 40
0.0
 40
1.0
 40
1.0
 40
1.0
 40
1.0
 10
6.603678385416666
 20
-4.099277072482638
 30
0.0
 10
6.551432291666666
 20
-4.115715874565972
 30
0.0
 10
6.5
 20
-4.134006076388888
 30
0.0
 10
6.449476453993055
 20
-4.154073079427083
 30
0.0
  0
SPLINE
  5
91
330
74
100
AcDbEntity
  8
Your Design Layer 1
 62
     1
420
 16711680
370
     5
100
AcDbSpline
210
0.0
220
0.0
230
1.0
 70
     8
 71
     3
 72
    11
 73
     7
 74
     0
 42
0.0000000001
 43
0.0000000001
 40
0.0
 40
0.0
 40
0.0
 40
0.0
 40
1.0
 40
1.0
 40
1.0
 40
2.0
 40
2.0
 40
2.0
 40
2.0
 10
7.068318684895833
 20
-4.005764431423611
 30
0.0
 10
7.065199110243055
 20
-4.006056043836805
 30
0.0
 10
7.062065972222221
 20
-4.006354437934028
 30
0.0
 10
7.058946397569444
 20
-4.006659613715278
 30
0.0
 10
7.002536349826388
 20
-4.012152777777778
 30
0.0
 10
6.946736653645833
 20
-4.019727918836805
 30
0.0
 10
6.891628689236111
 20
-4.029303656684028
 30
0.0
  0
POLYLINE
  5
92
330
74
100
AcDbEntity
  8
Your Design Layer 1
 62
     1
420
 16711680
370
     5
100
AcDb2dPolyline
 66
     1
 10
0.0
 20
0.0
 30
0.0
  0
VERTEX
  5
93
330
92
100
AcDbEntity
  8
Your Design Layer 1
 62
     1
420
 16711680
370
     5
100
AcDbVertex
100
AcDb2dVertex
 10
7.279622395833333
 20
-3.995964898003472
 30
0.0
  0
VERTEX
  5
1AC
330
92
100
AcDbEntity
  8
0
100
AcDbVertex
100
AcDb2dVertex
 10
7.279622395833333
 20
-3.995964898003472
 30
0.0
  0
SEQEND
  5
94
330
92
100
AcDbEntity
  8
Your Design Layer 1
370
     5
  0
SPLINE
  5
95
330
74
100
AcDbEntity
  8
Your Design Layer 1
 62
     1
420
 16711680
370
     5
100
AcDbSpline
210
0.0
220
0.0
230
1.0
 70
     8
 71
     3
 72
    11
 73
     7
 74
     0
 42
0.0000000001
 43
0.0000000001
 40
0.0
 40
0.0
 40
0.0
 40
0.0
 40
1.0
 40
1.0
 40
1.0
 40
2.0
 40
2.0
 40
2.0
 40
2.0
 10
7.514784071180555
 20
-4.008321126302083
 30
0.0
 10
7.500773111979166
 20
-4.006232367621528
 30
0.0
 10
7.5855712890625
 20
-4.016547309027778
 30
0.0
 10
7.571465386284721
 20
-4.014723036024305
 30
0.0
 10
7.501763237847221
 20
-4.005696614583333
 30
0.0
 10
7.431057400173611
 20
-3.999857584635417
 30
0.0
 10
7.3594970703125
 20
-3.997348361545139
 30
0.0
  0
SPLINE
  5
96
330
74
100
AcDbEntity
  8
Your Design Layer 1
 62
     1
420
 16711680
370
     5
100
AcDbSpline
210
0.0
220
0.0
230
1.0
 70
     8
 71
     3
 72
     8
 73
     4
 74
     0
 42
0.0000000001
 43
0.0000000001
 40
0.0
 40
0.0
 40
0.0
 40
0.0
 40
1.0
 40
1.0
 40
1.0
 40
1.0
 10
8.004869249131945
 20
-4.115424262152778
 30
0.0
 10
7.943359375
 20
-4.094495985243055
 30
0.0
 10
7.880669487847221
 20
-4.076158311631945
 30
0.0
 10
7.816908094618055
 20
-4.060526529947916
 30
0.0
  0
SPLINE
  5
97
330
74
100
AcDbEntity
  8
Your Design Layer 1
 62
     1
420
 16711680
370
     5
100
AcDbSpline
210
0.0
220
0.0
230
1.0
 70
     8
 71
     3
 72
     8
 73
     4
 74
     0
 42
0.0000000001
 43
0.0000000001
 40
0.0
 40
0.0
 40
0.0
 40
0.0
 40
1.0
 40
1.0
 40
1.0
 40
1.0
 10
8.43288845486111
 20
-4.313605414496528
 30
0.0
 10
8.375745985243055
 20
-4.279425726996528
 30
0.0
 10
8.316962348090277
 20
-4.247714572482638
 30
0.0
 10
8.256673177083332
 20
-4.218614366319445
 30
0.0
  0
SPLINE
  5
98
330
74
100
AcDbEntity
  8
Your Design Layer 1
 62
     1
420
 16711680
370
     5
100
AcDbSpline
210
0.0
220
0.0
230
1.0
 70
     8
 71
     3
 72
     8
 73
     4
 74
     0
 42
0.0000000001
 43
0.0000000001
 40
0.0
 40
0.0
 40
0.0
 40
0.0
 40
1.0
 40
1.0
 40
1.0
 40
1.0
 10
8.825751410590277
 20
-4.611328125
 30
0.0
 10
8.772650824652777
 20
-4.561089409722222
 30
0.0
 10
8.717108832465277
 20
-4.513407389322916
 30
0.0
 10
8.659315321180555
 20
-4.468485514322916
 30
0.0
  0
POLYLINE
  5
99
330
74
100
AcDbEntity
  8
Your Design Layer 1
 62
     1
420
 16711680
370
     5
100
AcDb2dPolyline
 66
     1
 10
0.0
 20
0.0
 30
0.0
  0
VERTEX
  5
9A
330
99
100
AcDbEntity
  8
Your Design Layer 1
 62
     1
420
 16711680
370
     5
100
AcDbVertex
100
AcDb2dVertex
 10
5.029629177517361
 20
-6.245964898003471
 30
0.0
  0
VERTEX
  5
9B
330
99
100
AcDbEntity
  8
Your Design Layer 1
 62
     1
420
 16711680
370
     5
100
AcDbVertex
100
AcDb2dVertex
 10
4.298380533854166
 20
-5.908847384982638
 30
0.0
  0
SEQEND
  5
9C
330
99
100
AcDbEntity
  8
Your Design Layer 1
370
     5
  0
POLYLINE
  5
9D
330
74
100
AcDbEntity
  8
Your Design Layer 1
 62
     1
420
 16711680
370
     5
100
AcDb2dPolyline
 66
     1
 10
0.0
 20
0.0
 30
0.0
  0
VERTEX
  5
9E
330
9D
100
AcDbEntity
  8
Your Design Layer 1
 62
     1
420
 16711680
370
     5
100
AcDbVertex
100
AcDb2dVertex
 10
4.298380533854166
 20
-5.908847384982638
 30
0.0
  0
VERTEX
  5
9F
330
9D
100
AcDbEntity
  8
Your Design Layer 1
 62
     1
420
 16711680
370
     5
100
AcDbVertex
100
AcDb2dVertex
 10
5.054741753472222
 20
-5.908847384982638
 30
0.0
  0
SEQEND
  5
A0
330
9D
100
AcDbEntity
  8
Your Design Layer 1
370
     5
  0
POLYLINE
  5
A1
330
74
100
AcDbEntity
  8
Your Design Layer 1
 62
     1
420
 16711680
370
     5
100
AcDb2dPolyline
 66
     1
 10
0.0
 20
0.0
 30
0.0
  0
VERTEX
  5
A2
330
A1
100
AcDbEntity
  8
Your Design Layer 1
 62
     1
420
 16711680
370
     5
100
AcDbVertex
100
AcDb2dVertex
 10
9.529622395833332
 20
-6.245964898003471
 30
0.0
  0
VERTEX
  5
A3
330
A1
100
AcDbEntity
  8
Your Design Layer 1
 62
     1
420
 16711680
370
     5
100
AcDbVertex
100
AcDb2dVertex
 10
10.26087782118056
 20
-6.583082411024305
 30
0.0
  0
SEQEND
  5
A4
330
A1
100
AcDbEntity
  8
Your Design Layer 1
370
     5
  0
POLYLINE
  5
A5
330
74
100
AcDbEntity
  8
Your Design Layer 1
 62
     1
420
 16711680
370
     5
100
AcDb2dPolyline
 66
     1
 10
0.0
 20
0.0
 30
0.0
  0
VERTEX
  5
A6
330
A5
100
AcDbEntity
  8
Your Design Layer 1
 62
     1
420
 16711680
370
     5
100
AcDbVertex
100
AcDb2dVertex
 10
10.26087782118056
 20
-6.583082411024305
 30
0.0
  0
VERTEX
  5
A7
330
A5
100
AcDbEntity
  8
Your Design Layer 1
 62
     1
420
 16711680
370
     5
100
AcDbVertex
100
AcDb2dVertex
 10
9.504503038194445
 20
-6.583082411024305
 30
0.0
  0
SEQEND
  5
A8
330
A5
100
AcDbEntity
  8
Your Design Layer 1
370
     5
  0
POLYLINE
  5
A9
330
74
100
AcDbEntity
  8
Your Design Layer 1
 62
     1
420
 16711680
370
     5
100
AcDb2dPolyline
 66
     1
 10
0.0
 20
0.0
 30
0.0
  0
VERTEX
  5
AA
330
A9
100
AcDbEntity
  8
Your Design Layer 1
 62
     1
420
 16711680
370
     5
100
AcDbVertex
100
AcDb2dVertex
 10
5.078789605034722
 20
-6.713765462239583
 30
0.0
  0
VERTEX
  5
AB
330
A9
100
AcDbEntity
  8
Your Design Layer 1
 62
     1
420
 16711680
370
     5
100
AcDbVertex
100
AcDb2dVertex
 10
4.293429904513888
 20
-6.536051432291666
 30
0.0
  0
SEQEND
  5
AC
330
A9
100
AcDbEntity
  8
Your Design Layer 1
370
     5
  0
POLYLINE
  5
AD
330
74
100
AcDbEntity
  8
Your Design Layer 1
 62
     1
420
 16711680
370
     5
100
AcDb2dPolyline
 66
     1
 10
0.0
 20
0.0
 30
0.0
  0
VERTEX
  5
AE
330
AD
100
AcDbEntity
  8
Your Design Layer 1
 62
     1
420
 16711680
370
     5
100
AcDbVertex
100
AcDb2dVertex
 10
4.293429904513888
 20
-6.536051432291666
 30
0.0
  0
VERTEX
  5
AF
330
AD
100
AcDbEntity
  8
Your Design Layer 1
 62
     1
420
 16711680
370
     5
100
AcDbVertex
100
AcDb2dVertex
 10
5.033270941840278
 20
-6.378790961371528
 30
0.0
  0
SEQEND
  5
B0
330
AD
100
AcDbEntity
  8
Your Design Layer 1
370
     5
  0
POLYLINE
  5
B1
330
74
100
AcDbEntity
  8
Your Design Layer 1
 62
     1
420
 16711680
370
     5
100
AcDb2dPolyline
 66
     1
 10
0.0
 20
0.0
 30
0.0
  0
VERTEX
  5
B2
330
B1
100
AcDbEntity
  8
Your Design Layer 1
 62
     1
420
 16711680
370
     5
100
AcDbVertex
100
AcDb2dVertex
 10
9.480441623263888
 20
-5.778164333767361
 30
0.0
  0
VERTEX
  5
B3
330
B1
100
AcDbEntity
  8
Your Design Layer 1
 62
     1
420
 16711680
370
     5
100
AcDbVertex
100
AcDb2dVertex
 10
10.26581488715278
 20
-5.955878363715278
 30
0.0
  0
SEQEND
  5
B4
330
B1
100
AcDbEntity
  8
Your Design Layer 1
370
     5
  0
POLYLINE
  5
B5
330
74
100
AcDbEntity
  8
Your Design Layer 1
 62
     1
420
 16711680
370
     5
100
AcDb2dPolyline
 66
     1
 10
0.0
 20
0.0
 30
0.0
  0
VERTEX
  5
B6
330
B5
100
AcDbEntity
  8
Your Design Layer 1
 62
     1
420
 16711680
370
     5
100
AcDbVertex
100
AcDb2dVertex
 10
10.26581488715278
 20
-5.955878363715278
 30
0.0
  0
VERTEX
  5
B7
330
B5
100
AcDbEntity
  8
Your Design Layer 1
 62
     1
420
 16711680
370
     5
100
AcDbVertex
100
AcDb2dVertex
 10
9.525973849826388
 20
-6.113138834635416
 30
0.0
  0
SEQEND
  5
B8
330
B5
100
AcDbEntity
  8
Your Design Layer 1
370
     5
  0
POLYLINE
  5
B9
330
74
100
AcDbEntity
  8
Your Design Layer 1
 62
     1
420
 16711680
370
     5
100
AcDb2dPolyline
 66
     1
 10
0.0
 20
0.0
 30
0.0
  0
VERTEX
  5
BA
330
B9
100
AcDbEntity
  8
Your Design Layer 1
 62
     1
420
 16711680
370
     5
100
AcDbVertex
100
AcDb2dVertex
 10
5.224134657118055
 20
-7.161119249131944
 30
0.0
  0
VERTEX
  5
BB
330
B9
100
AcDbEntity
  8
Your Design Layer 1
 62
     1
420
 16711680
370
     5
100
AcDbVertex
100
AcDb2dVertex
 10
4.418999565972222
 20
-7.150580512152778
 30
0.0
  0
SEQEND
  5
BC
330
B9
100
AcDbEntity
  8
Your Design Layer 1
370
     5
  0
POLYLINE
  5
BD
330
74
100
AcDbEntity
  8
Your Design Layer 1
 62
     1
420
 16711680
370
     5
100
AcDb2dPolyline
 66
     1
 10
0.0
 20
0.0
 30
0.0
  0
VERTEX
  5
BE
330
BD
100
AcDbEntity
  8
Your Design Layer 1
 62
     1
420
 16711680
370
     5
100
AcDbVertex
100
AcDb2dVertex
 10
4.418999565972222
 20
-7.150580512152778
 30
0.0
  0
VERTEX
  5
BF
330
BD
100
AcDbEntity
  8
Your Design Layer 1
 62
     1
420
 16711680
370
     5
100
AcDbVertex
100
AcDb2dVertex
 10
5.109971788194444
 20
-6.842929416232638
 30
0.0
  0
SEQEND
  5
C0
330
BD
100
AcDbEntity
  8
Your Design Layer 1
370
     5
  0
POLYLINE
  5
C1
330
74
100
AcDbEntity
  8
Your Design Layer 1
 62
     1
420
 16711680
370
     5
100
AcDb2dPolyline
 66
     1
 10
0.0
 20
0.0
 30
0.0
  0
VERTEX
  5
C2
330
C1
100
AcDbEntity
  8
Your Design Layer 1
 62
     1
420
 16711680
370
     5
100
AcDbVertex
100
AcDb2dVertex
 10
9.335069444444445
 20
-5.330810546875
 30
0.0
  0
VERTEX
  5
C3
330
C1
100
AcDbEntity
  8
Your Design Layer 1
 62
     1
420
 16711680
370
     5
100
AcDbVertex
100
AcDb2dVertex
 10
10.14024522569444
 20
-5.341349283854166
 30
0.0
  0
SEQEND
  5
C4
330
C1
100
AcDbEntity
  8
Your Design Layer 1
370
     5
  0
POLYLINE
  5
C5
330
74
100
AcDbEntity
  8
Your Design Layer 1
 62
     1
420
 16711680
370
     5
100
AcDb2dPolyline
 66
     1
 10
0.0
 20
0.0
 30
0.0
  0
VERTEX
  5
C6
330
C5
100
AcDbEntity
  8
Your Design Layer 1
 62
     1
420
 16711680
370
     5
100
AcDbVertex
100
AcDb2dVertex
 10
10.14024522569444
 20
-5.341349283854166
 30
0.0
  0
VERTEX
  5
C7
330
C5
100
AcDbEntity
  8
Your Design Layer 1
 62
     1
420
 16711680
370
     5
100
AcDbVertex
100
AcDb2dVertex
 10
9.449259440104166
 20
-5.648993598090278
 30
0.0
  0
SEQEND
  5
C8
330
C5
100
AcDbEntity
  8
Your Design Layer 1
370
     5
  0
POLYLINE
  5
C9
330
74
100
AcDbEntity
  8
Your Design Layer 1
 62
     1
420
 16711680
370
     5
100
AcDb2dPolyline
 66
     1
 10
0.0
 20
0.0
 30
0.0
  0
VERTEX
  5
CA
330
C9
100
AcDbEntity
  8
Your Design Layer 1
 62
     1
420
 16711680
370
     5
100
AcDbVertex
100
AcDb2dVertex
 10
5.459323459201388
 20
-7.5684814453125
 30
0.0
  0
VERTEX
  5
CB
330
C9
100
AcDbEntity
  8
Your Design Layer 1
 62
     1
420
 16711680
370
     5
100
AcDbVertex
100
AcDb2dVertex
 10
4.669582790798611
 20
-7.725572374131944
 30
0.0
  0
SEQEND
  5
CC
330
C9
100
AcDbEntity
  8
Your Design Layer 1
370
     5
  0
POLYLINE
  5
CD
330
74
100
AcDbEntity
  8
Your Design Layer 1
 62
     1
420
 16711680
370
     5
100
AcDb2dPolyline
 66
     1
 10
0.0
 20
0.0
 30
0.0
  0
VERTEX
  5
CE
330
CD
100
AcDbEntity
  8
Your Design Layer 1
 62
     1
420
 16711680
370
     5
100
AcDbVertex
100
AcDb2dVertex
 10
4.669582790798611
 20
-7.725572374131944
 30
0.0
  0
VERTEX
  5
CF
330
CD
100
AcDbEntity
  8
Your Design Layer 1
 62
     1
420
 16711680
370
     5
100
AcDbVertex
100
AcDb2dVertex
 10
5.281494140625
 20
-7.280978732638888
 30
0.0
  0
SEQEND
  5
D0
330
CD
100
AcDbEntity
  8
Your Design Layer 1
370
     5
  0
POLYLINE
  5
D1
330
74
100
AcDbEntity
  8
Your Design Layer 1
 62
     1
420
 16711680
370
     5
100
AcDb2dPolyline
 66
     1
 10
0.0
 20
0.0
 30
0.0
  0
VERTEX
  5
D2
330
D1
100
AcDbEntity
  8
Your Design Layer 1
 62
     1
420
 16711680
370
     5
100
AcDbVertex
100
AcDb2dVertex
 10
9.09988064236111
 20
-4.923455132378472
 30
0.0
  0
VERTEX
  5
D3
330
D1
100
AcDbEntity
  8
Your Design Layer 1
 62
     1
420
 16711680
370
     5
100
AcDbVertex
100
AcDb2dVertex
 10
9.8896484375
 20
-4.766357421875
 30
0.0
  0
SEQEND
  5
D4
330
D1
100
AcDbEntity
  8
Your Design Layer 1
370
     5
  0
POLYLINE
  5
D5
330
74
100
AcDbEntity
  8
Your Design Layer 1
 62
     1
420
 16711680
370
     5
100
AcDb2dPolyline
 66
     1
 10
0.0
 20
0.0
 30
0.0
  0
VERTEX
  5
D6
330
D5
100
AcDbEntity
  8
Your Design Layer 1
 62
     1
420
 16711680
370
     5
100
AcDbVertex
100
AcDb2dVertex
 10
9.8896484375
 20
-4.766357421875
 30
0.0
  0
VERTEX
  5
D7
330
D5
100
AcDbEntity
  8
Your Design Layer 1
 62
     1
420
 16711680
370
     5
100
AcDbVertex
100
AcDb2dVertex
 10
9.277723524305555
 20
-5.210944281684028
 30
0.0
  0
SEQEND
  5
D8
330
D5
100
AcDbEntity
  8
Your Design Layer 1
370
     5
  0
POLYLINE
  5
D9
330
74
100
AcDbEntity
  8
Your Design Layer 1
 62
     1
420
 16711680
370
     5
100
AcDb2dPolyline
 66
     1
 10
0.0
 20
0.0
 30
0.0
  0
VERTEX
  5
DA
330
D9
100
AcDbEntity
  8
Your Design Layer 1
 62
     1
420
 16711680
370
     5
100
AcDbVertex
100
AcDb2dVertex
 10
5.774061414930555
 20
-7.918043348524305
 30
0.0
  0
VERTEX
  5
DB
330
D9
100
AcDbEntity
  8
Your Design Layer 1
 62
     1
420
 16711680
370
     5
100
AcDbVertex
100
AcDb2dVertex
 10
5.034247504340278
 20
-8.23590087890625
 30
0.0
  0
SEQEND
  5
DC
330
D9
100
AcDbEntity
  8
Your Design Layer 1
370
     5
  0
POLYLINE
  5
DD
330
74
100
AcDbEntity
  8
Your Design Layer 1
 62
     1
420
 16711680
370
     5
100
AcDb2dPolyline
 66
     1
 10
0.0
 20
0.0
 30
0.0
  0
VERTEX
  5
DE
330
DD
100
AcDbEntity
  8
Your Design Layer 1
 62
     1
420
 16711680
370
     5
100
AcDbVertex
100
AcDb2dVertex
 10
5.034247504340278
 20
-8.23590087890625
 30
0.0
  0
VERTEX
  5
DF
330
DD
100
AcDbEntity
  8
Your Design Layer 1
 62
     1
420
 16711680
370
     5
100
AcDbVertex
100
AcDb2dVertex
 10
5.540337456597222
 20
-7.673794216579861
 30
0.0
  0
SEQEND
  5
E0
330
DD
100
AcDbEntity
  8
Your Design Layer 1
370
     5
  0
POLYLINE
  5
E1
330
74
100
AcDbEntity
  8
Your Design Layer 1
 62
     1
420
 16711680
370
     5
100
AcDb2dPolyline
 66
     1
 10
0.0
 20
0.0
 30
0.0
  0
VERTEX
  5
E2
330
E1
100
AcDbEntity
  8
Your Design Layer 1
 62
     1
420
 16711680
370
     5
100
AcDbVertex
100
AcDb2dVertex
 10
8.785142686631945
 20
-4.573900010850694
 30
0.0
  0
VERTEX
  5
E3
330
E1
100
AcDbEntity
  8
Your Design Layer 1
 62
     1
420
 16711680
370
     5
100
AcDbVertex
100
AcDb2dVertex
 10
9.524983723958332
 20
-4.256035698784722
 30
0.0
  0
SEQEND
  5
E4
330
E1
100
AcDbEntity
  8
Your Design Layer 1
370
     5
  0
POLYLINE
  5
E5
330
74
100
AcDbEntity
  8
Your Design Layer 1
 62
     1
420
 16711680
370
     5
100
AcDb2dPolyline
 66
     1
 10
0.0
 20
0.0
 30
0.0
  0
VERTEX
  5
E6
330
E5
100
AcDbEntity
  8
Your Design Layer 1
 62
     1
420
 16711680
370
     5
100
AcDbVertex
100
AcDb2dVertex
 10
9.524983723958332
 20
-4.256035698784722
 30
0.0
  0
VERTEX
  5
E7
330
E5
100
AcDbEntity
  8
Your Design Layer 1
 62
     1
420
 16711680
370
     5
100
AcDbVertex
100
AcDb2dVertex
 10
9.018866644965277
 20
-4.818135579427083
 30
0.0
  0
SEQEND
  5
E8
330
E5
100
AcDbEntity
  8
Your Design Layer 1
370
     5
  0
POLYLINE
  5
E9
330
74
100
AcDbEntity
  8
Your Design Layer 1
 62
     1
420
 16711680
370
     5
100
AcDb2dPolyline
 66
     1
 10
0.0
 20
0.0
 30
0.0
  0
VERTEX
  5
EA
330
E9
100
AcDbEntity
  8
Your Design Layer 1
 62
     1
420
 16711680
370
     5
100
AcDbVertex
100
AcDb2dVertex
 10
6.154595269097222
 20
-8.194532606336805
 30
0.0
  0
VERTEX
  5
EB
330
E9
100
AcDbEntity
  8
Your Design Layer 1
 62
     1
420
 16711680
370
     5
100
AcDbVertex
100
AcDb2dVertex
 10
5.497043185763888
 20
-8.659254286024305
 30
0.0
  0
SEQEND
  5
EC
330
E9
100
AcDbEntity
  8
Your Design Layer 1
370
     5
  0
POLYLINE
  5
ED
330
74
100
AcDbEntity
  8
Your Design Layer 1
 62
     1
420
 16711680
370
     5
100
AcDb2dPolyline
 66
     1
 10
0.0
 20
0.0
 30
0.0
  0
VERTEX
  5
EE
330
ED
100
AcDbEntity
  8
Your Design Layer 1
 62
     1
420
 16711680
370
     5
100
AcDbVertex
100
AcDb2dVertex
 10
5.497043185763888
 20
-8.659254286024305
 30
0.0
  0
VERTEX
  5
EF
330
ED
100
AcDbEntity
  8
Your Design Layer 1
 62
     1
420
 16711680
370
     5
100
AcDbVertex
100
AcDb2dVertex
 10
5.875203450520833
 20
-8.00421142578125
 30
0.0
  0
SEQEND
  5
F0
330
ED
100
AcDbEntity
  8
Your Design Layer 1
370
     5
  0
POLYLINE
  5
F1
330
74
100
AcDbEntity
  8
Your Design Layer 1
 62
     1
420
 16711680
370
     5
100
AcDb2dPolyline
 66
     1
 10
0.0
 20
0.0
 30
0.0
  0
VERTEX
  5
F2
330
F1
100
AcDbEntity
  8
Your Design Layer 1
 62
     1
420
 16711680
370
     5
100
AcDbVertex
100
AcDb2dVertex
 10
8.404595269097221
 20
-4.29742431640625
 30
0.0
  0
VERTEX
  5
F3
330
F1
100
AcDbEntity
  8
Your Design Layer 1
 62
     1
420
 16711680
370
     5
100
AcDbVertex
100
AcDb2dVertex
 10
9.062188042534721
 20
-3.832689073350694
 30
0.0
  0
SEQEND
  5
F4
330
F1
100
AcDbEntity
  8
Your Design Layer 1
370
     5
  0
POLYLINE
  5
F5
330
74
100
AcDbEntity
  8
Your Design Layer 1
 62
     1
420
 16711680
370
     5
100
AcDb2dPolyline
 66
     1
 10
0.0
 20
0.0
 30
0.0
  0
VERTEX
  5
F6
330
F5
100
AcDbEntity
  8
Your Design Layer 1
 62
     1
420
 16711680
370
     5
100
AcDbVertex
100
AcDb2dVertex
 10
9.062188042534721
 20
-3.832689073350694
 30
0.0
  0
VERTEX
  5
F7
330
F5
100
AcDbEntity
  8
Your Design Layer 1
 62
     1
420
 16711680
370
     5
100
AcDbVertex
100
AcDb2dVertex
 10
8.68398708767361
 20
-4.487725151909722
 30
0.0
  0
SEQEND
  5
F8
330
F5
100
AcDbEntity
  8
Your Design Layer 1
370
     5
  0
POLYLINE
  5
F9
330
74
100
AcDbEntity
  8
Your Design Layer 1
 62
     1
420
 16711680
370
     5
100
AcDb2dPolyline
 66
     1
 10
0.0
 20
0.0
 30
0.0
  0
VERTEX
  5
FA
330
F9
100
AcDbEntity
  8
Your Design Layer 1
 62
     1
420
 16711680
370
     5
100
AcDbVertex
100
AcDb2dVertex
 10
6.584309895833333
 20
-8.385857476128471
 30
0.0
  0
VERTEX
  5
FB
330
F9
100
AcDbEntity
  8
Your Design Layer 1
 62
     1
420
 16711680
370
     5
100
AcDbVertex
100
AcDb2dVertex
 10
6.037746853298611
 20
-8.97713894314236
 30
0.0
  0
SEQEND
  5
FC
330
F9
100
AcDbEntity
  8
Your Design Layer 1
370
     5
  0
POLYLINE
  5
FD
330
74
100
AcDbEntity
  8
Your Design Layer 1
 62
     1
420
 16711680
370
     5
100
AcDb2dPolyline
 66
     1
 10
0.0
 20
0.0
 30
0.0
  0
VERTEX
  5
FE
330
FD
100
AcDbEntity
  8
Your Design Layer 1
 62
     1
420
 16711680
370
     5
100
AcDbVertex
100
AcDb2dVertex
 10
6.037746853298611
 20
-8.97713894314236
 30
0.0
  0
VERTEX
  5
FF
330
FD
100
AcDbEntity
  8
Your Design Layer 1
 62
     1
420
 16711680
370
     5
100
AcDbVertex
100
AcDb2dVertex
 10
6.271443684895833
 20
-8.25777859157986
 30
0.0
  0
SEQEND
  5
100
330
FD
100
AcDbEntity
  8
Your Design Layer 1
370
     5
  0
POLYLINE
  5
101
330
74
100
AcDbEntity
  8
Your Design Layer 1
 62
     1
420
 16711680
370
     5
100
AcDb2dPolyline
 66
     1
 10
0.0
 20
0.0
 30
0.0
  0
VERTEX
  5
102
330
101
100
AcDbEntity
  8
Your Design Layer 1
 62
     1
420
 16711680
370
     5
100
AcDbVertex
100
AcDb2dVertex
 10
7.974880642361111
 20
-4.106106228298611
 30
0.0
  0
VERTEX
  5
103
330
101
100
AcDbEntity
  8
Your Design Layer 1
 62
     1
420
 16711680
370
     5
100
AcDbVertex
100
AcDb2dVertex
 10
8.521484375
 20
-3.514811197916667
 30
0.0
  0
SEQEND
  5
104
330
101
100
AcDbEntity
  8
Your Design Layer 1
370
     5
  0
POLYLINE
  5
105
330
74
100
AcDbEntity
  8
Your Design Layer 1
 62
     1
420
 16711680
370
     5
100
AcDb2dPolyline
 66
     1
 10
0.0
 20
0.0
 30
0.0
  0
VERTEX
  5
106
330
105
100
AcDbEntity
  8
Your Design Layer 1
 62
     1
420
 16711680
370
     5
100
AcDbVertex
100
AcDb2dVertex
 10
8.521484375
 20
-3.514811197916667
 30
0.0
  0
VERTEX
  5
107
330
105
100
AcDbEntity
  8
Your Design Layer 1
 62
     1
420
 16711680
370
     5
100
AcDbVertex
100
AcDb2dVertex
 10
8.287733289930555
 20
-4.234164767795138
 30
0.0
  0
SEQEND
  5
108
330
105
100
AcDbEntity
  8
Your Design Layer 1
370
     5
  0
POLYLINE
  5
109
330
74
100
AcDbEntity
  8
Your Design Layer 1
 62
     1
420
 16711680
370
     5
100
AcDb2dPolyline
 66
     1
 10
0.0
 20
0.0
 30
0.0
  0
VERTEX
  5
10A
330
109
100
AcDbEntity
  8
Your Design Layer 1
 62
     1
420
 16711680
370
     5
100
AcDbVertex
100
AcDb2dVertex
 10
7.044406467013888
 20
-8.483649359809027
 30
0.0
  0
VERTEX
  5
10B
330
109
100
AcDbEntity
  8
Your Design Layer 1
 62
     1
420
 16711680
370
     5
100
AcDbVertex
100
AcDb2dVertex
 10
6.632717556423611
 20
-9.175645616319445
 30
0.0
  0
SEQEND
  5
10C
330
109
100
AcDbEntity
  8
Your Design Layer 1
370
     5
  0
POLYLINE
  5
10D
330
74
100
AcDbEntity
  8
Your Design Layer 1
 62
     1
420
 16711680
370
     5
100
AcDb2dPolyline
 66
     1
 10
0.0
 20
0.0
 30
0.0
  0
VERTEX
  5
10E
330
10D
100
AcDbEntity
  8
Your Design Layer 1
 62
     1
420
 16711680
370
     5
100
AcDbVertex
100
AcDb2dVertex
 10
6.632717556423611
 20
-9.175645616319445
 30
0.0
  0
VERTEX
  5
10F
330
10D
100
AcDbEntity
  8
Your Design Layer 1
 62
     1
420
 16711680
370
     5
100
AcDbVertex
100
AcDb2dVertex
 10
6.711751302083333
 20
-8.42342800564236
 30
0.0
  0
SEQEND
  5
110
330
10D
100
AcDbEntity
  8
Your Design Layer 1
370
     5
  0
POLYLINE
  5
111
330
74
100
AcDbEntity
  8
Your Design Layer 1
 62
     1
420
 16711680
370
     5
100
AcDb2dPolyline
 66
     1
 10
0.0
 20
0.0
 30
0.0
  0
VERTEX
  5
112
330
111
100
AcDbEntity
  8
Your Design Layer 1
 62
     1
420
 16711680
370
     5
100
AcDbVertex
100
AcDb2dVertex
 10
7.514784071180555
 20
-4.008321126302083
 30
0.0
  0
VERTEX
  5
113
330
111
100
AcDbEntity
  8
Your Design Layer 1
 62
     1
420
 16711680
370
     5
100
AcDbVertex
100
AcDb2dVertex
 10
7.926500108506944
 20
-3.316297743055555
 30
0.0
  0
SEQEND
  5
114
330
111
100
AcDbEntity
  8
Your Design Layer 1
370
     5
  0
POLYLINE
  5
115
330
74
100
AcDbEntity
  8
Your Design Layer 1
 62
     1
420
 16711680
370
     5
100
AcDb2dPolyline
 66
     1
 10
0.0
 20
0.0
 30
0.0
  0
VERTEX
  5
116
330
115
100
AcDbEntity
  8
Your Design Layer 1
 62
     1
420
 16711680
370
     5
100
AcDbVertex
100
AcDb2dVertex
 10
7.926500108506944
 20
-3.316297743055555
 30
0.0
  0
VERTEX
  5
117
330
115
100
AcDbEntity
  8
Your Design Layer 1
 62
     1
420
 16711680
370
     5
100
AcDbVertex
100
AcDb2dVertex
 10
7.847425672743055
 20
-4.068528917100695
 30
0.0
  0
SEQEND
  5
118
330
115
100
AcDbEntity
  8
Your Design Layer 1
370
     5
  0
POLYLINE
  5
119
330
74
100
AcDbEntity
  8
Your Design Layer 1
 62
     1
420
 16711680
370
     5
100
AcDb2dPolyline
 66
     1
 10
0.0
 20
0.0
 30
0.0
  0
VERTEX
  5
11A
330
119
100
AcDbEntity
  8
Your Design Layer 1
 62
     1
420
 16711680
370
     5
100
AcDbVertex
100
AcDb2dVertex
 10
7.514784071180555
 20
-8.483662923177082
 30
0.0
  0
VERTEX
  5
11B
330
119
100
AcDbEntity
  8
Your Design Layer 1
 62
     1
420
 16711680
370
     5
100
AcDbVertex
100
AcDb2dVertex
 10
7.255967881944444
 20
-9.24612087673611
 30
0.0
  0
SEQEND
  5
11C
330
119
100
AcDbEntity
  8
Your Design Layer 1
370
     5
  0
POLYLINE
  5
11D
330
74
100
AcDbEntity
  8
Your Design Layer 1
 62
     1
420
 16711680
370
     5
100
AcDb2dPolyline
 66
     1
 10
0.0
 20
0.0
 30
0.0
  0
VERTEX
  5
11E
330
11D
100
AcDbEntity
  8
Your Design Layer 1
 62
     1
420
 16711680
370
     5
100
AcDbVertex
100
AcDb2dVertex
 10
7.255967881944444
 20
-9.24612087673611
 30
0.0
  0
VERTEX
  5
11F
330
11D
100
AcDbEntity
  8
Your Design Layer 1
 62
     1
420
 16711680
370
     5
100
AcDbVertex
100
AcDb2dVertex
 10
7.1768798828125
 20
-8.493916829427082
 30
0.0
  0
SEQEND
  5
120
330
11D
100
AcDbEntity
  8
Your Design Layer 1
370
     5
  0
POLYLINE
  5
121
330
74
100
AcDbEntity
  8
Your Design Layer 1
 62
     1
420
 16711680
370
     5
100
AcDb2dPolyline
 66
     1
 10
0.0
 20
0.0
 30
0.0
  0
VERTEX
  5
122
330
121
100
AcDbEntity
  8
Your Design Layer 1
 62
     1
420
 16711680
370
     5
100
AcDbVertex
100
AcDb2dVertex
 10
7.044406467013888
 20
-4.008327907986111
 30
0.0
  0
VERTEX
  5
123
330
121
100
AcDbEntity
  8
Your Design Layer 1
 62
     1
420
 16711680
370
     5
100
AcDbVertex
100
AcDb2dVertex
 10
7.303249782986111
 20
-3.245829264322917
 30
0.0
  0
SEQEND
  5
124
330
121
100
AcDbEntity
  8
Your Design Layer 1
370
     5
  0
POLYLINE
  5
125
330
74
100
AcDbEntity
  8
Your Design Layer 1
 62
     1
420
 16711680
370
     5
100
AcDb2dPolyline
 66
     1
 10
0.0
 20
0.0
 30
0.0
  0
VERTEX
  5
126
330
125
100
AcDbEntity
  8
Your Design Layer 1
 62
     1
420
 16711680
370
     5
100
AcDbVertex
100
AcDb2dVertex
 10
7.303249782986111
 20
-3.245829264322917
 30
0.0
  0
VERTEX
  5
127
330
125
100
AcDbEntity
  8
Your Design Layer 1
 62
     1
420
 16711680
370
     5
100
AcDbVertex
100
AcDb2dVertex
 10
7.382297092013888
 20
-3.998060438368055
 30
0.0
  0
SEQEND
  5
128
330
125
100
AcDbEntity
  8
Your Design Layer 1
370
     5
  0
POLYLINE
  5
129
330
74
100
AcDbEntity
  8
Your Design Layer 1
 62
     1
420
 16711680
370
     5
100
AcDb2dPolyline
 66
     1
 10
0.0
 20
0.0
 30
0.0
  0
VERTEX
  5
12A
330
129
100
AcDbEntity
  8
Your Design Layer 1
 62
     1
420
 16711680
370
     5
100
AcDbVertex
100
AcDb2dVertex
 10
7.974880642361111
 20
-8.385871039496527
 30
0.0
  0
VERTEX
  5
12B
330
129
100
AcDbEntity
  8
Your Design Layer 1
 62
     1
420
 16711680
370
     5
100
AcDbVertex
100
AcDb2dVertex
 10
7.8802490234375
 20
-9.185492621527777
 30
0.0
  0
SEQEND
  5
12C
330
129
100
AcDbEntity
  8
Your Design Layer 1
370
     5
  0
POLYLINE
  5
12D
330
74
100
AcDbEntity
  8
Your Design Layer 1
 62
     1
420
 16711680
370
     5
100
AcDb2dPolyline
 66
     1
 10
0.0
 20
0.0
 30
0.0
  0
VERTEX
  5
12E
330
12D
100
AcDbEntity
  8
Your Design Layer 1
 62
     1
420
 16711680
370
     5
100
AcDbVertex
100
AcDb2dVertex
 10
7.8802490234375
 20
-9.185492621527777
 30
0.0
  0
VERTEX
  5
12F
330
12D
100
AcDbEntity
  8
Your Design Layer 1
 62
     1
420
 16711680
370
     5
100
AcDbVertex
100
AcDb2dVertex
 10
7.646497938368055
 20
-8.46615261501736
 30
0.0
  0
SEQEND
  5
130
330
12D
100
AcDbEntity
  8
Your Design Layer 1
370
     5
  0
POLYLINE
  5
131
330
74
100
AcDbEntity
  8
Your Design Layer 1
 62
     1
420
 16711680
370
     5
100
AcDb2dPolyline
 66
     1
 10
0.0
 20
0.0
 30
0.0
  0
VERTEX
  5
132
330
131
100
AcDbEntity
  8
Your Design Layer 1
 62
     1
420
 16711680
370
     5
100
AcDbVertex
100
AcDb2dVertex
 10
6.584309895833333
 20
-4.106133355034722
 30
0.0
  0
VERTEX
  5
133
330
131
100
AcDbEntity
  8
Your Design Layer 1
 62
     1
420
 16711680
370
     5
100
AcDbVertex
100
AcDb2dVertex
 10
6.678955078125
 20
-3.306477864583333
 30
0.0
  0
SEQEND
  5
134
330
131
100
AcDbEntity
  8
Your Design Layer 1
370
     5
  0
POLYLINE
  5
135
330
74
100
AcDbEntity
  8
Your Design Layer 1
 62
     1
420
 16711680
370
     5
100
AcDb2dPolyline
 66
     1
 10
0.0
 20
0.0
 30
0.0
  0
VERTEX
  5
136
330
135
100
AcDbEntity
  8
Your Design Layer 1
 62
     1
420
 16711680
370
     5
100
AcDbVertex
100
AcDb2dVertex
 10
6.678955078125
 20
-3.306477864583333
 30
0.0
  0
VERTEX
  5
137
330
135
100
AcDbEntity
  8
Your Design Layer 1
 62
     1
420
 16711680
370
     5
100
AcDbVertex
100
AcDb2dVertex
 10
6.912679036458333
 20
-4.025838216145833
 30
0.0
  0
SEQEND
  5
138
330
135
100
AcDbEntity
  8
Your Design Layer 1
370
     5
  0
POLYLINE
  5
139
330
74
100
AcDbEntity
  8
Your Design Layer 1
 62
     1
420
 16711680
370
     5
100
AcDb2dPolyline
 66
     1
 10
0.0
 20
0.0
 30
0.0
  0
VERTEX
  5
13A
330
139
100
AcDbEntity
  8
Your Design Layer 1
 62
     1
420
 16711680
370
     5
100
AcDbVertex
100
AcDb2dVertex
 10
8.404595269097221
 20
-8.194559733072916
 30
0.0
  0
VERTEX
  5
13B
330
139
100
AcDbEntity
  8
Your Design Layer 1
 62
     1
420
 16711680
370
     5
100
AcDbVertex
100
AcDb2dVertex
 10
8.478271484375
 20
-8.996371799045138
 30
0.0
  0
SEQEND
  5
13C
330
139
100
AcDbEntity
  8
Your Design Layer 1
370
     5
  0
POLYLINE
  5
13D
330
74
100
AcDbEntity
  8
Your Design Layer 1
 62
     1
420
 16711680
370
     5
100
AcDb2dPolyline
 66
     1
 10
0.0
 20
0.0
 30
0.0
  0
VERTEX
  5
13E
330
13D
100
AcDbEntity
  8
Your Design Layer 1
 62
     1
420
 16711680
370
     5
100
AcDbVertex
100
AcDb2dVertex
 10
8.478271484375
 20
-8.996371799045138
 30
0.0
  0
VERTEX
  5
13F
330
13D
100
AcDbEntity
  8
Your Design Layer 1
 62
     1
420
 16711680
370
     5
100
AcDbVertex
100
AcDb2dVertex
 10
8.10007052951389
 20
-8.341356065538195
 30
0.0
  0
SEQEND
  5
140
330
13D
100
AcDbEntity
  8
Your Design Layer 1
370
     5
  0
POLYLINE
  5
141
330
74
100
AcDbEntity
  8
Your Design Layer 1
 62
     1
420
 16711680
370
     5
100
AcDb2dPolyline
 66
     1
 10
0.0
 20
0.0
 30
0.0
  0
VERTEX
  5
142
330
141
100
AcDbEntity
  8
Your Design Layer 1
 62
     1
420
 16711680
370
     5
100
AcDbVertex
100
AcDb2dVertex
 10
6.154608832465278
 20
-4.297458224826388
 30
0.0
  0
VERTEX
  5
143
330
141
100
AcDbEntity
  8
Your Design Layer 1
 62
     1
420
 16711680
370
     5
100
AcDbVertex
100
AcDb2dVertex
 10
6.080919053819444
 20
-3.495598687065972
 30
0.0
  0
SEQEND
  5
144
330
141
100
AcDbEntity
  8
Your Design Layer 1
370
     5
  0
POLYLINE
  5
145
330
74
100
AcDbEntity
  8
Your Design Layer 1
 62
     1
420
 16711680
370
     5
100
AcDb2dPolyline
 66
     1
 10
0.0
 20
0.0
 30
0.0
  0
VERTEX
  5
146
330
145
100
AcDbEntity
  8
Your Design Layer 1
 62
     1
420
 16711680
370
     5
100
AcDbVertex
100
AcDb2dVertex
 10
6.080919053819444
 20
-3.495598687065972
 30
0.0
  0
VERTEX
  5
147
330
145
100
AcDbEntity
  8
Your Design Layer 1
 62
     1
420
 16711680
370
     5
100
AcDbVertex
100
AcDb2dVertex
 10
6.4591064453125
 20
-4.150641547309028
 30
0.0
  0
SEQEND
  5
148
330
145
100
AcDbEntity
  8
Your Design Layer 1
370
     5
  0
POLYLINE
  5
149
330
74
100
AcDbEntity
  8
Your Design Layer 1
 62
     1
420
 16711680
370
     5
100
AcDb2dPolyline
 66
     1
 10
0.0
 20
0.0
 30
0.0
  0
VERTEX
  5
14A
330
149
100
AcDbEntity
  8
Your Design Layer 1
 62
     1
420
 16711680
370
     5
100
AcDbVertex
100
AcDb2dVertex
 10
8.785142686631945
 20
-7.918084038628471
 30
0.0
  0
VERTEX
  5
14B
330
149
100
AcDbEntity
  8
Your Design Layer 1
 62
     1
420
 16711680
370
     5
100
AcDbVertex
100
AcDb2dVertex
 10
9.023912217881945
 20
-8.687059190538195
 30
0.0
  0
SEQEND
  5
14C
330
149
100
AcDbEntity
  8
Your Design Layer 1
370
     5
  0
POLYLINE
  5
14D
330
74
100
AcDbEntity
  8
Your Design Layer 1
 62
     1
420
 16711680
370
     5
100
AcDb2dPolyline
 66
     1
 10
0.0
 20
0.0
 30
0.0
  0
VERTEX
  5
14E
330
14D
100
AcDbEntity
  8
Your Design Layer 1
 62
     1
420
 16711680
370
     5
100
AcDbVertex
100
AcDb2dVertex
 10
9.023912217881945
 20
-8.687059190538195
 30
0.0
  0
VERTEX
  5
14F
330
14D
100
AcDbEntity
  8
Your Design Layer 1
 62
     1
420
 16711680
370
     5
100
AcDbVertex
100
AcDb2dVertex
 10
8.51779513888889
 20
-8.124993218315971
 30
0.0
  0
SEQEND
  5
150
330
14D
100
AcDbEntity
  8
Your Design Layer 1
370
     5
  0
POLYLINE
  5
151
330
74
100
AcDbEntity
  8
Your Design Layer 1
 62
     1
420
 16711680
370
     5
100
AcDb2dPolyline
 66
     1
 10
0.0
 20
0.0
 30
0.0
  0
VERTEX
  5
152
330
151
100
AcDbEntity
  8
Your Design Layer 1
 62
     1
420
 16711680
370
     5
100
AcDbVertex
100
AcDb2dVertex
 10
5.774074978298611
 20
-4.573940700954861
 30
0.0
  0
VERTEX
  5
153
330
151
100
AcDbEntity
  8
Your Design Layer 1
 62
     1
420
 16711680
370
     5
100
AcDbVertex
100
AcDb2dVertex
 10
5.5352783203125
 20
-3.804924858940972
 30
0.0
  0
SEQEND
  5
154
330
151
100
AcDbEntity
  8
Your Design Layer 1
370
     5
  0
POLYLINE
  5
155
330
74
100
AcDbEntity
  8
Your Design Layer 1
 62
     1
420
 16711680
370
     5
100
AcDb2dPolyline
 66
     1
 10
0.0
 20
0.0
 30
0.0
  0
VERTEX
  5
156
330
155
100
AcDbEntity
  8
Your Design Layer 1
 62
     1
420
 16711680
370
     5
100
AcDbVertex
100
AcDb2dVertex
 10
5.5352783203125
 20
-3.804924858940972
 30
0.0
  0
VERTEX
  5
157
330
155
100
AcDbEntity
  8
Your Design Layer 1
 62
     1
420
 16711680
370
     5
100
AcDbVertex
100
AcDb2dVertex
 10
6.041395399305555
 20
-4.367024739583333
 30
0.0
  0
SEQEND
  5
158
330
155
100
AcDbEntity
  8
Your Design Layer 1
370
     5
  0
POLYLINE
  5
159
330
74
100
AcDbEntity
  8
Your Design Layer 1
 62
     1
420
 16711680
370
     5
100
AcDb2dPolyline
 66
     1
 10
0.0
 20
0.0
 30
0.0
  0
VERTEX
  5
15A
330
159
100
AcDbEntity
  8
Your Design Layer 1
 62
     1
420
 16711680
370
     5
100
AcDbVertex
100
AcDb2dVertex
 10
9.099894205729166
 20
-7.568528917100694
 30
0.0
  0
VERTEX
  5
15B
330
159
100
AcDbEntity
  8
Your Design Layer 1
 62
     1
420
 16711680
370
     5
100
AcDbVertex
100
AcDb2dVertex
 10
9.493326822916666
 20
-8.27105712890625
 30
0.0
  0
SEQEND
  5
15C
330
159
100
AcDbEntity
  8
Your Design Layer 1
370
     5
  0
POLYLINE
  5
15D
330
74
100
AcDbEntity
  8
Your Design Layer 1
 62
     1
420
 16711680
370
     5
100
AcDb2dPolyline
 66
     1
 10
0.0
 20
0.0
 30
0.0
  0
VERTEX
  5
15E
330
15D
100
AcDbEntity
  8
Your Design Layer 1
 62
     1
420
 16711680
370
     5
100
AcDbVertex
100
AcDb2dVertex
 10
9.493326822916666
 20
-8.27105712890625
 30
0.0
  0
VERTEX
  5
15F
330
15D
100
AcDbEntity
  8
Your Design Layer 1
 62
     1
420
 16711680
370
     5
100
AcDbVertex
100
AcDb2dVertex
 10
8.881401909722221
 20
-7.826490614149305
 30
0.0
  0
SEQEND
  5
160
330
15D
100
AcDbEntity
  8
Your Design Layer 1
370
     5
  0
POLYLINE
  5
161
330
74
100
AcDbEntity
  8
Your Design Layer 1
 62
     1
420
 16711680
370
     5
100
AcDb2dPolyline
 66
     1
 10
0.0
 20
0.0
 30
0.0
  0
VERTEX
  5
162
330
161
100
AcDbEntity
  8
Your Design Layer 1
 62
     1
420
 16711680
370
     5
100
AcDbVertex
100
AcDb2dVertex
 10
5.459337022569444
 20
-4.923495822482638
 30
0.0
  0
VERTEX
  5
163
330
161
100
AcDbEntity
  8
Your Design Layer 1
 62
     1
420
 16711680
370
     5
100
AcDbVertex
100
AcDb2dVertex
 10
5.065863715277778
 20
-4.220933702256945
 30
0.0
  0
SEQEND
  5
164
330
161
100
AcDbEntity
  8
Your Design Layer 1
370
     5
  0
POLYLINE
  5
165
330
74
100
AcDbEntity
  8
Your Design Layer 1
 62
     1
420
 16711680
370
     5
100
AcDb2dPolyline
 66
     1
 10
0.0
 20
0.0
 30
0.0
  0
VERTEX
  5
166
330
165
100
AcDbEntity
  8
Your Design Layer 1
 62
     1
420
 16711680
370
     5
100
AcDbVertex
100
AcDb2dVertex
 10
5.065863715277778
 20
-4.220933702256945
 30
0.0
  0
VERTEX
  5
167
330
165
100
AcDbEntity
  8
Your Design Layer 1
 62
     1
420
 16711680
370
     5
100
AcDbVertex
100
AcDb2dVertex
 10
5.677788628472222
 20
-4.66552734375
 30
0.0
  0
SEQEND
  5
168
330
165
100
AcDbEntity
  8
Your Design Layer 1
370
     5
  0
POLYLINE
  5
169
330
74
100
AcDbEntity
  8
Your Design Layer 1
 62
     1
420
 16711680
370
     5
100
AcDb2dPolyline
 66
     1
 10
0.0
 20
0.0
 30
0.0
  0
VERTEX
  5
16A
330
169
100
AcDbEntity
  8
Your Design Layer 1
 62
     1
420
 16711680
370
     5
100
AcDbVertex
100
AcDb2dVertex
 10
9.335096571180555
 20
-7.161173502604166
 30
0.0
  0
VERTEX
  5
16B
330
169
100
AcDbEntity
  8
Your Design Layer 1
 62
     1
420
 16711680
370
     5
100
AcDbVertex
100
AcDb2dVertex
 10
9.86599392361111
 20
-7.76654052734375
 30
0.0
  0
SEQEND
  5
16C
330
169
100
AcDbEntity
  8
Your Design Layer 1
370
     5
  0
POLYLINE
  5
16D
330
74
100
AcDbEntity
  8
Your Design Layer 1
 62
     1
420
 16711680
370
     5
100
AcDb2dPolyline
 66
     1
 10
0.0
 20
0.0
 30
0.0
  0
VERTEX
  5
16E
330
16D
100
AcDbEntity
  8
Your Design Layer 1
 62
     1
420
 16711680
370
     5
100
AcDbVertex
100
AcDb2dVertex
 10
9.86599392361111
 20
-7.76654052734375
 30
0.0
  0
VERTEX
  5
16F
330
16D
100
AcDbEntity
  8
Your Design Layer 1
 62
     1
420
 16711680
370
     5
100
AcDbVertex
100
AcDb2dVertex
 10
9.175008138020832
 20
-7.458936903211805
 30
0.0
  0
SEQEND
  5
170
330
16D
100
AcDbEntity
  8
Your Design Layer 1
370
     5
  0
POLYLINE
  5
171
330
74
100
AcDbEntity
  8
Your Design Layer 1
 62
     1
420
 16711680
370
     5
100
AcDb2dPolyline
 66
     1
 10
0.0
 20
0.0
 30
0.0
  0
VERTEX
  5
172
330
171
100
AcDbEntity
  8
Your Design Layer 1
 62
     1
420
 16711680
370
     5
100
AcDbVertex
100
AcDb2dVertex
 10
5.224148220486111
 20
-5.330858018663194
 30
0.0
  0
VERTEX
  5
173
330
171
100
AcDbEntity
  8
Your Design Layer 1
 62
     1
420
 16711680
370
     5
100
AcDbVertex
100
AcDb2dVertex
 10
4.693210177951388
 20
-4.725457085503472
 30
0.0
  0
SEQEND
  5
174
330
171
100
AcDbEntity
  8
Your Design Layer 1
370
     5
  0
POLYLINE
  5
175
330
74
100
AcDbEntity
  8
Your Design Layer 1
 62
     1
420
 16711680
370
     5
100
AcDb2dPolyline
 66
     1
 10
0.0
 20
0.0
 30
0.0
  0
VERTEX
  5
176
330
175
100
AcDbEntity
  8
Your Design Layer 1
 62
     1
420
 16711680
370
     5
100
AcDbVertex
100
AcDb2dVertex
 10
4.693210177951388
 20
-4.725457085503472
 30
0.0
  0
VERTEX
  5
177
330
175
100
AcDbEntity
  8
Your Design Layer 1
 62
     1
420
 16711680
370
     5
100
AcDbVertex
100
AcDb2dVertex
 10
5.384195963541666
 20
-5.033101399739583
 30
0.0
  0
SEQEND
  5
178
330
175
100
AcDbEntity
  8
Your Design Layer 1
370
     5
  0
POLYLINE
  5
179
330
74
100
AcDbEntity
  8
Your Design Layer 1
 62
     1
420
 16711680
370
     5
100
AcDb2dPolyline
 66
     1
 10
0.0
 20
0.0
 30
0.0
  0
VERTEX
  5
17A
330
179
100
AcDbEntity
  8
Your Design Layer 1
 62
     1
420
 16711680
370
     5
100
AcDbVertex
100
AcDb2dVertex
 10
9.48046875
 20
-6.713812934027778
 30
0.0
  0
VERTEX
  5
17B
330
179
100
AcDbEntity
  8
Your Design Layer 1
 62
     1
420
 16711680
370
     5
100
AcDbVertex
100
AcDb2dVertex
 10
10.1256103515625
 20
-7.195583767361111
 30
0.0
  0
SEQEND
  5
17C
330
179
100
AcDbEntity
  8
Your Design Layer 1
370
     5
  0
POLYLINE
  5
17D
330
74
100
AcDbEntity
  8
Your Design Layer 1
 62
     1
420
 16711680
370
     5
100
AcDb2dPolyline
 66
     1
 10
0.0
 20
0.0
 30
0.0
  0
VERTEX
  5
17E
330
17D
100
AcDbEntity
  8
Your Design Layer 1
 62
     1
420
 16711680
370
     5
100
AcDbVertex
100
AcDb2dVertex
 10
10.1256103515625
 20
-7.195583767361111
 30
0.0
  0
VERTEX
  5
17F
330
17D
100
AcDbEntity
  8
Your Design Layer 1
 62
     1
420
 16711680
370
     5
100
AcDbVertex
100
AcDb2dVertex
 10
9.385782877604166
 20
-7.038357204861111
 30
0.0
  0
SEQEND
  5
180
330
17D
100
AcDbEntity
  8
Your Design Layer 1
370
     5
  0
POLYLINE
  5
181
330
74
100
AcDbEntity
  8
Your Design Layer 1
 62
     1
420
 16711680
370
     5
100
AcDb2dPolyline
 66
     1
 10
0.0
 20
0.0
 30
0.0
  0
VERTEX
  5
182
330
181
100
AcDbEntity
  8
Your Design Layer 1
 62
     1
420
 16711680
370
     5
100
AcDbVertex
100
AcDb2dVertex
 10
5.078803168402778
 20
-5.778211805555555
 30
0.0
  0
VERTEX
  5
183
330
181
100
AcDbEntity
  8
Your Design Layer 1
 62
     1
420
 16711680
370
     5
100
AcDbVertex
100
AcDb2dVertex
 10
4.43359375
 20
-5.296427408854166
 30
0.0
  0
SEQEND
  5
184
330
181
100
AcDbEntity
  8
Your Design Layer 1
370
     5
  0
POLYLINE
  5
185
330
74
100
AcDbEntity
  8
Your Design Layer 1
 62
     1
420
 16711680
370
     5
100
AcDb2dPolyline
 66
     1
 10
0.0
 20
0.0
 30
0.0
  0
VERTEX
  5
186
330
185
100
AcDbEntity
  8
Your Design Layer 1
 62
     1
420
 16711680
370
     5
100
AcDbVertex
100
AcDb2dVertex
 10
4.43359375
 20
-5.296427408854166
 30
0.0
  0
VERTEX
  5
187
330
185
100
AcDbEntity
  8
Your Design Layer 1
 62
     1
420
 16711680
370
     5
100
AcDbVertex
100
AcDb2dVertex
 10
5.173448350694444
 20
-5.453687879774305
 30
0.0
  0
SEQEND
  5
188
330
185
100
AcDbEntity
  8
Your Design Layer 1
370
     5
  0
SPLINE
  5
189
330
74
100
AcDbEntity
  8
Your Design Layer 1
 62
     1
420
 16711680
370
     5
100
AcDbSpline
210
0.0
220
0.0
230
1.0
 70
    11
 71
     3
 72
    17
 73
    13
 74
     0
 42
0.0000000001
 43
0.0000000001
 40
0.0
 40
0.0
 40
0.0
 40
0.0
 40
1.0
 40
1.0
 40
1.0
 40
2.0
 40
2.0
 40
2.0
 40
3.0
 40
3.0
 40
3.0
 40
4.0
 40
4.0
 40
4.0
 40
4.0
 10
7.154622395833333
 20
-6.245964898003471
 30
0.0
 10
7.154622395833333
 20
-6.31500244140625
 30
0.0
 10
7.210584852430555
 20
-6.370964898003471
 30
0.0
 10
7.279622395833333
 20
-6.370964898003471
 30
0.0
 10
7.348653157552083
 20
-6.370964898003471
 30
0.0
 10
7.404622395833333
 20
-6.31500244140625
 30
0.0
 10
7.404622395833333
 20
-6.245964898003471
 30
0.0
 10
7.404622395833333
 20
-6.176927354600694
 30
0.0
 10
7.348653157552083
 20
-6.120964898003472
 30
0.0
 10
7.279622395833333
 20
-6.120964898003472
 30
0.0
 10
7.210584852430555
 20
-6.120964898003472
 30
0.0
 10
7.154622395833333
 20
-6.176927354600694
 30
0.0
 10
7.154622395833333
 20
-6.245964898003471
 30
0.0
  0
ENDBLK
  5
77
330
74
100
AcDbEntity
  8
0
100
AcDbBlockEnd
  0
BLOCK
  5
18C
330
18A
100
AcDbEntity
  8
0
100
AcDbBlockBegin
  2
block 4
 70
     0
 71
     0
 10
0.0
 20
0.0
 30
0.0
  3
block 4
  1

  0
POLYLINE
  5
18E
330
18A
100
AcDbEntity
  8
Your Design Layer 1
 62
     1
420
 16711680
370
     5
100
AcDb2dPolyline
 66
     1
 10
0.0
 20
0.0
 30
0.0
  0
VERTEX
  5
18F
330
18E
100
AcDbEntity
  8
Your Design Layer 1
 62
     1
420
 16711680
370
     5
100
AcDbVertex
100
AcDb2dVertex
 10
27.66681586371528
 20
-6.4234619140625
 30
0.0
  0
VERTEX
  5
190
330
18E
100
AcDbEntity
  8
Your Design Layer 1
 62
     1
420
 16711680
370
     5
100
AcDbVertex
100
AcDb2dVertex
 10
27.66681586371528
 20
-3.423455132378472
 30
0.0
  0
VERTEX
  5
191
330
18E
100
AcDbEntity
  8
Your Design Layer 1
 62
     1
420
 16711680
370
     5
100
AcDbVertex
100
AcDb2dVertex
 10
11.09815809461806
 20
-3.423455132378472
 30
0.0
  0
VERTEX
  5
192
330
18E
100
AcDbEntity
  8
Your Design Layer 1
 62
     1
420
 16711680
370
     5
100
AcDbVertex
100
AcDb2dVertex
 10
11.09815809461806
 20
-6.4234619140625
 30
0.0
  0
VERTEX
  5
193
330
18E
100
AcDbEntity
  8
Your Design Layer 1
 62
     1
420
 16711680
370
     5
100
AcDbVertex
100
AcDb2dVertex
 10
27.66681586371528
 20
-6.4234619140625
 30
0.0
  0
SEQEND
  5
194
330
18E
100
AcDbEntity
  8
Your Design Layer 1
370
     5
  0
SPLINE
  5
195
330
18A
100
AcDbEntity
  8
Your Design Layer 1
 62
     1
420
 16711680
370
     5
100
AcDbSpline
210
0.0
220
0.0
230
1.0
 70
    11
 71
     3
 72
    17
 73
    13
 74
     0
 42
0.0000000001
 43
0.0000000001
 40
0.0
 40
0.0
 40
0.0
 40
0.0
 40
1.0
 40
1.0
 40
1.0
 40
2.0
 40
2.0
 40
2.0
 40
3.0
 40
3.0
 40
3.0
 40
4.0
 40
4.0
 40
4.0
 40
4.0
 10
11.32529025607639
 20
-4.923455132378472
 30
0.0
 10
11.32529025607639
 20
-5.027011447482638
 30
0.0
 10
11.40924750434028
 20
-5.110955132378472
 30
0.0
 10
11.51279025607639
 20
-5.110955132378472
 30
0.0
 10
11.6163330078125
 20
-5.110955132378472
 30
0.0
 10
11.70029025607639
 20
-5.027011447482638
 30
0.0
 10
11.70029025607639
 20
-4.923455132378472
 30
0.0
 10
11.70029025607639
 20
-4.819898817274305
 30
0.0
 10
11.6163330078125
 20
-4.735955132378472
 30
0.0
 10
11.51279025607639
 20
-4.735955132378472
 30
0.0
 10
11.40924750434028
 20
-4.735955132378472
 30
0.0
 10
11.32529025607639
 20
-4.819898817274305
 30
0.0
 10
11.32529025607639
 20
-4.923455132378472
 30
0.0
  0
SPLINE
  5
196
330
18A
100
AcDbEntity
  8
Your Design Layer 1
 62
     1
420
 16711680
370
     5
100
AcDbSpline
210
0.0
220
0.0
230
1.0
 70
    11
 71
     3
 72
    17
 73
    13
 74
     0
 42
0.0000000001
 43
0.0000000001
 40
0.0
 40
0.0
 40
0.0
 40
0.0
 40
1.0
 40
1.0
 40
1.0
 40
2.0
 40
2.0
 40
2.0
 40
3.0
 40
3.0
 40
3.0
 40
4.0
 40
4.0
 40
4.0
 40
4.0
 10
15.62736002604167
 20
-4.923712836371528
 30
0.0
 10
15.62736002604167
 20
-4.992750379774305
 30
0.0
 10
15.68333604600694
 20
-5.048712836371528
 30
0.0
 10
15.75236002604167
 20
-5.048712836371528
 30
0.0
 10
15.82138400607639
 20
-5.048712836371528
 30
0.0
 10
15.87736002604167
 20
-4.992750379774305
 30
0.0
 10
15.87736002604167
 20
-4.923712836371528
 30
0.0
 10
15.87736002604167
 20
-4.85467529296875
 30
0.0
 10
15.82138400607639
 20
-4.798712836371528
 30
0.0
 10
15.75236002604167
 20
-4.798712836371528
 30
0.0
 10
15.68333604600694
 20
-4.798712836371528
 30
0.0
 10
15.62736002604167
 20
-4.85467529296875
 30
0.0
 10
15.62736002604167
 20
-4.923712836371528
 30
0.0
  0
SPLINE
  5
197
330
18A
100
AcDbEntity
  8
Your Design Layer 1
 62
     1
420
 16711680
370
     5
100
AcDbSpline
210
0.0
220
0.0
230
1.0
 70
    11
 71
     3
 72
    17
 73
    13
 74
     0
 42
0.0000000001
 43
0.0000000001
 40
0.0
 40
0.0
 40
0.0
 40
0.0
 40
1.0
 40
1.0
 40
1.0
 40
2.0
 40
2.0
 40
2.0
 40
3.0
 40
3.0
 40
3.0
 40
4.0
 40
4.0
 40
4.0
 40
4.0
 10
27.50014919704861
 20
-6.1773681640625
 30
0.0
 10
27.50014919704861
 20
-6.246405707465278
 30
0.0
 10
27.44418674045139
 20
-6.3023681640625
 30
0.0
 10
27.37514919704861
 20
-6.3023681640625
 30
0.0
 10
27.30611165364583
 20
-6.3023681640625
 30
0.0
 10
27.25014919704861
 20
-6.246405707465278
 30
0.0
 10
27.25014919704861
 20
-6.1773681640625
 30
0.0
 10
27.25014919704861
 20
-6.108330620659722
 30
0.0
 10
27.30611165364583
 20
-6.0523681640625
 30
0.0
 10
27.37514919704861
 20
-6.0523681640625
 30
0.0
 10
27.44418674045139
 20
-6.0523681640625
 30
0.0
 10
27.50014919704861
 20
-6.108330620659722
 30
0.0
 10
27.50014919704861
 20
-6.1773681640625
 30
0.0
  0
SPLINE
  5
198
330
18A
100
AcDbEntity
  8
Your Design Layer 1
 62
     1
420
 16711680
370
     5
100
AcDbSpline
210
0.0
220
0.0
230
1.0
 70
    11
 71
     3
 72
    17
 73
    13
 74
     0
 42
0.0000000001
 43
0.0000000001
 40
0.0
 40
0.0
 40
0.0
 40
0.0
 40
1.0
 40
1.0
 40
1.0
 40
2.0
 40
2.0
 40
2.0
 40
3.0
 40
3.0
 40
3.0
 40
4.0
 40
4.0
 40
4.0
 40
4.0
 10
27.50014919704861
 20
-3.678351508246528
 30
0.0
 10
27.50014919704861
 20
-3.747389051649305
 30
0.0
 10
27.44418674045139
 20
-3.803351508246528
 30
0.0
 10
27.37514919704861
 20
-3.803351508246528
 30
0.0
 10
27.30611165364583
 20
-3.803351508246528
 30
0.0
 10
27.25014919704861
 20
-3.747389051649305
 30
0.0
 10
27.25014919704861
 20
-3.678351508246528
 30
0.0
 10
27.25014919704861
 20
-3.60931396484375
 30
0.0
 10
27.30611165364583
 20
-3.553351508246528
 30
0.0
 10
27.37514919704861
 20
-3.553351508246528
 30
0.0
 10
27.44418674045139
 20
-3.553351508246528
 30
0.0
 10
27.50014919704861
 20
-3.60931396484375
 30
0.0
 10
27.50014919704861
 20
-3.678351508246528
 30
0.0
  0
SPLINE
  5
199
330
18A
100
AcDbEntity
  8
Your Design Layer 1
 62
     1
420
 16711680
370
     5
100
AcDbSpline
210
0.0
220
0.0
230
1.0
 70
    11
 71
     3
 72
    17
 73
    13
 74
     0
 42
0.0000000001
 43
0.0000000001
 40
0.0
 40
0.0
 40
0.0
 40
0.0
 40
1.0
 40
1.0
 40
1.0
 40
2.0
 40
2.0
 40
2.0
 40
3.0
 40
3.0
 40
3.0
 40
4.0
 40
4.0
 40
4.0
 40
4.0
 10
18.16034613715278
 20
-6.1732177734375
 30
0.0
 10
18.16034613715278
 20
-6.242255316840278
 30
0.0
 10
18.10438368055555
 20
-6.2982177734375
 30
0.0
 10
18.03534613715278
 20
-6.2982177734375
 30
0.0
 10
17.96630859375
 20
-6.2982177734375
 30
0.0
 10
17.91034613715278
 20
-6.242255316840278
 30
0.0
 10
17.91034613715278
 20
-6.1732177734375
 30
0.0
 10
17.91034613715278
 20
-6.104180230034722
 30
0.0
 10
17.96630859375
 20
-6.0482177734375
 30
0.0
 10
18.03534613715278
 20
-6.0482177734375
 30
0.0
 10
18.10438368055555
 20
-6.0482177734375
 30
0.0
 10
18.16034613715278
 20
-6.104180230034722
 30
0.0
 10
18.16034613715278
 20
-6.1732177734375
 30
0.0
  0
SPLINE
  5
19A
330
18A
100
AcDbEntity
  8
Your Design Layer 1
 62
     1
420
 16711680
370
     5
100
AcDbSpline
210
0.0
220
0.0
230
1.0
 70
    11
 71
     3
 72
    17
 73
    13
 74
     0
 42
0.0000000001
 43
0.0000000001
 40
0.0
 40
0.0
 40
0.0
 40
0.0
 40
1.0
 40
1.0
 40
1.0
 40
2.0
 40
2.0
 40
2.0
 40
3.0
 40
3.0
 40
3.0
 40
4.0
 40
4.0
 40
4.0
 40
4.0
 10
18.16034613715278
 20
-3.674201117621528
 30
0.0
 10
18.16034613715278
 20
-3.743238661024305
 30
0.0
 10
18.10438368055555
 20
-3.799201117621528
 30
0.0
 10
18.03534613715278
 20
-3.799201117621528
 30
0.0
 10
17.96630859375
 20
-3.799201117621528
 30
0.0
 10
17.91034613715278
 20
-3.743238661024305
 30
0.0
 10
17.91034613715278
 20
-3.674201117621528
 30
0.0
 10
17.91034613715278
 20
-3.60516357421875
 30
0.0
 10
17.96630859375
 20
-3.549201117621528
 30
0.0
 10
18.03534613715278
 20
-3.549201117621528
 30
0.0
 10
18.10438368055555
 20
-3.549201117621528
 30
0.0
 10
18.16034613715278
 20
-3.60516357421875
 30
0.0
 10
18.16034613715278
 20
-3.674201117621528
 30
0.0
  0
ENDBLK
  5
18D
330
18A
100
AcDbEntity
  8
0
100
AcDbBlockEnd
  0
BLOCK
  5
19D
330
19B
100
AcDbEntity
  8
0
100
AcDbBlockBegin
  2
block 5
 70
     0
 71
     0
 10
0.0
 20
0.0
 30
0.0
  3
block 5
  1

  0
POLYLINE
  5
19F
330
19B
100
AcDbEntity
  8
Your Design Layer 1
 62
     1
420
 16711680
370
     5
100
AcDb2dPolyline
 66
     1
 10
0.0
 20
0.0
 30
0.0
  0
VERTEX
  5
1A0
330
19F
100
AcDbEntity
  8
Your Design Layer 1
 62
     1
420
 16711680
370
     5
100
AcDbVertex
100
AcDb2dVertex
 10
27.62514919704861
 20
-9.632785373263888
 30
0.0
  0
VERTEX
  5
1A1
330
19F
100
AcDbEntity
  8
Your Design Layer 1
 62
     1
420
 16711680
370
     5
100
AcDbVertex
100
AcDb2dVertex
 10
27.62514919704861
 20
-6.632778591579861
 30
0.0
  0
VERTEX
  5
1A2
330
19F
100
AcDbEntity
  8
Your Design Layer 1
 62
     1
420
 16711680
370
     5
100
AcDbVertex
100
AcDb2dVertex
 10
11.05649142795139
 20
-6.632778591579861
 30
0.0
  0
VERTEX
  5
1A3
330
19F
100
AcDbEntity
  8
Your Design Layer 1
 62
     1
420
 16711680
370
     5
100
AcDbVertex
100
AcDb2dVertex
 10
11.05649142795139
 20
-9.632785373263888
 30
0.0
  0
VERTEX
  5
1A4
330
19F
100
AcDbEntity
  8
Your Design Layer 1
 62
     1
420
 16711680
370
     5
100
AcDbVertex
100
AcDb2dVertex
 10
27.62514919704861
 20
-9.632785373263888
 30
0.0
  0
SEQEND
  5
1A5
330
19F
100
AcDbEntity
  8
Your Design Layer 1
370
     5
  0
SPLINE
  5
1A6
330
19B
100
AcDbEntity
  8
Your Design Layer 1
 62
     1
420
 16711680
370
     5
100
AcDbSpline
210
0.0
220
0.0
230
1.0
 70
    11
 71
     3
 72
    17
 73
    13
 74
     0
 42
0.0000000001
 43
0.0000000001
 40
0.0
 40
0.0
 40
0.0
 40
0.0
 40
1.0
 40
1.0
 40
1.0
 40
2.0
 40
2.0
 40
2.0
 40
3.0
 40
3.0
 40
3.0
 40
4.0
 40
4.0
 40
4.0
 40
4.0
 10
11.28362358940972
 20
-8.13277859157986
 30
0.0
 10
11.28362358940972
 20
-8.236334906684027
 30
0.0
 10
11.36758083767361
 20
-8.32027859157986
 30
0.0
 10
11.47112358940972
 20
-8.32027859157986
 30
0.0
 10
11.57466634114583
 20
-8.32027859157986
 30
0.0
 10
11.65862358940972
 20
-8.236334906684027
 30
0.0
 10
11.65862358940972
 20
-8.13277859157986
 30
0.0
 10
11.65862358940972
 20
-8.029222276475695
 30
0.0
 10
11.57466634114583
 20
-7.945278591579861
 30
0.0
 10
11.47112358940972
 20
-7.945278591579861
 30
0.0
 10
11.36758083767361
 20
-7.945278591579861
 30
0.0
 10
11.28362358940972
 20
-8.029222276475695
 30
0.0
 10
11.28362358940972
 20
-8.13277859157986
 30
0.0
  0
SPLINE
  5
1A7
330
19B
100
AcDbEntity
  8
Your Design Layer 1
 62
     1
420
 16711680
370
     5
100
AcDbSpline
210
0.0
220
0.0
230
1.0
 70
    11
 71
     3
 72
    17
 73
    13
 74
     0
 42
0.0000000001
 43
0.0000000001
 40
0.0
 40
0.0
 40
0.0
 40
0.0
 40
1.0
 40
1.0
 40
1.0
 40
2.0
 40
2.0
 40
2.0
 40
3.0
 40
3.0
 40
3.0
 40
4.0
 40
4.0
 40
4.0
 40
4.0
 10
15.585693359375
 20
-8.133036295572916
 30
0.0
 10
15.585693359375
 20
-8.202073838975695
 30
0.0
 10
15.64166937934028
 20
-8.258036295572916
 30
0.0
 10
15.710693359375
 20
-8.258036295572916
 30
0.0
 10
15.77971733940972
 20
-8.258036295572916
 30
0.0
 10
15.835693359375
 20
-8.202073838975695
 30
0.0
 10
15.835693359375
 20
-8.133036295572916
 30
0.0
 10
15.835693359375
 20
-8.06399875217014
 30
0.0
 10
15.77971733940972
 20
-8.008036295572916
 30
0.0
 10
15.710693359375
 20
-8.008036295572916
 30
0.0
 10
15.64166937934028
 20
-8.008036295572916
 30
0.0
 10
15.585693359375
 20
-8.06399875217014
 30
0.0
 10
15.585693359375
 20
-8.133036295572916
 30
0.0
  0
SPLINE
  5
1A8
330
19B
100
AcDbEntity
  8
Your Design Layer 1
 62
     1
420
 16711680
370
     5
100
AcDbSpline
210
0.0
220
0.0
230
1.0
 70
    11
 71
     3
 72
    17
 73
    13
 74
     0
 42
0.0000000001
 43
0.0000000001
 40
0.0
 40
0.0
 40
0.0
 40
0.0
 40
1.0
 40
1.0
 40
1.0
 40
2.0
 40
2.0
 40
2.0
 40
3.0
 40
3.0
 40
3.0
 40
4.0
 40
4.0
 40
4.0
 40
4.0
 10
27.45848253038194
 20
-9.386691623263888
 30
0.0
 10
27.45848253038194
 20
-9.455729166666666
 30
0.0
 10
27.40252007378472
 20
-9.511691623263888
 30
0.0
 10
27.33348253038194
 20
-9.511691623263888
 30
0.0
 10
27.26444498697916
 20
-9.511691623263888
 30
0.0
 10
27.20848253038194
 20
-9.455729166666666
 30
0.0
 10
27.20848253038194
 20
-9.386691623263888
 30
0.0
 10
27.20848253038194
 20
-9.31765407986111
 30
0.0
 10
27.26444498697916
 20
-9.261691623263888
 30
0.0
 10
27.33348253038194
 20
-9.261691623263888
 30
0.0
 10
27.40252007378472
 20
-9.261691623263888
 30
0.0
 10
27.45848253038194
 20
-9.31765407986111
 30
0.0
 10
27.45848253038194
 20
-9.386691623263888
 30
0.0
  0
SPLINE
  5
1A9
330
19B
100
AcDbEntity
  8
Your Design Layer 1
 62
     1
420
 16711680
370
     5
100
AcDbSpline
210
0.0
220
0.0
230
1.0
 70
    11
 71
     3
 72
    17
 73
    13
 74
     0
 42
0.0000000001
 43
0.0000000001
 40
0.0
 40
0.0
 40
0.0
 40
0.0
 40
1.0
 40
1.0
 40
1.0
 40
2.0
 40
2.0
 40
2.0
 40
3.0
 40
3.0
 40
3.0
 40
4.0
 40
4.0
 40
4.0
 40
4.0
 10
27.45848253038194
 20
-6.887674967447916
 30
0.0
 10
27.45848253038194
 20
-6.956712510850694
 30
0.0
 10
27.40252007378472
 20
-7.012674967447916
 30
0.0
 10
27.33348253038194
 20
-7.012674967447916
 30
0.0
 10
27.26444498697916
 20
-7.012674967447916
 30
0.0
 10
27.20848253038194
 20
-6.956712510850694
 30
0.0
 10
27.20848253038194
 20
-6.887674967447916
 30
0.0
 10
27.20848253038194
 20
-6.818637424045138
 30
0.0
 10
27.26444498697916
 20
-6.762674967447916
 30
0.0
 10
27.33348253038194
 20
-6.762674967447916
 30
0.0
 10
27.40252007378472
 20
-6.762674967447916
 30
0.0
 10
27.45848253038194
 20
-6.818637424045138
 30
0.0
 10
27.45848253038194
 20
-6.887674967447916
 30
0.0
  0
SPLINE
  5
1AA
330
19B
100
AcDbEntity
  8
Your Design Layer 1
 62
     1
420
 16711680
370
     5
100
AcDbSpline
210
0.0
220
0.0
230
1.0
 70
    11
 71
     3
 72
    17
 73
    13
 74
     0
 42
0.0000000001
 43
0.0000000001
 40
0.0
 40
0.0
 40
0.0
 40
0.0
 40
1.0
 40
1.0
 40
1.0
 40
2.0
 40
2.0
 40
2.0
 40
3.0
 40
3.0
 40
3.0
 40
4.0
 40
4.0
 40
4.0
 40
4.0
 10
18.11867947048611
 20
-9.382541232638888
 30
0.0
 10
18.11867947048611
 20
-9.451578776041666
 30
0.0
 10
18.06271701388889
 20
-9.507541232638888
 30
0.0
 10
17.99367947048611
 20
-9.507541232638888
 30
0.0
 10
17.92464192708333
 20
-9.507541232638888
 30
0.0
 10
17.86867947048611
 20
-9.451578776041666
 30
0.0
 10
17.86867947048611
 20
-9.382541232638888
 30
0.0
 10
17.86867947048611
 20
-9.31350368923611
 30
0.0
 10
17.92464192708333
 20
-9.257541232638888
 30
0.0
 10
17.99367947048611
 20
-9.257541232638888
 30
0.0
 10
18.06271701388889
 20
-9.257541232638888
 30
0.0
 10
18.11867947048611
 20
-9.31350368923611
 30
0.0
 10
18.11867947048611
 20
-9.382541232638888
 30
0.0
  0
SPLINE
  5
1AB
330
19B
100
AcDbEntity
  8
Your Design Layer 1
 62
     1
420
 16711680
370
     5
100
AcDbSpline
210
0.0
220
0.0
230
1.0
 70
    11
 71
     3
 72
    17
 73
    13
 74
     0
 42
0.0000000001
 43
0.0000000001
 40
0.0
 40
0.0
 40
0.0
 40
0.0
 40
1.0
 40
1.0
 40
1.0
 40
2.0
 40
2.0
 40
2.0
 40
3.0
 40
3.0
 40
3.0
 40
4.0
 40
4.0
 40
4.0
 40
4.0
 10
18.11867947048611
 20
-6.883524576822916
 30
0.0
 10
18.11867947048611
 20
-6.952562120225694
 30
0.0
 10
18.06271701388889
 20
-7.008524576822916
 30
0.0
 10
17.99367947048611
 20
-7.008524576822916
 30
0.0
 10
17.92464192708333
 20
-7.008524576822916
 30
0.0
 10
17.86867947048611
 20
-6.952562120225694
 30
0.0
 10
17.86867947048611
 20
-6.883524576822916
 30
0.0
 10
17.86867947048611
 20
-6.814487033420138
 30
0.0
 10
17.92464192708333
 20
-6.758524576822916
 30
0.0
 10
17.99367947048611
 20
-6.758524576822916
 30
0.0
 10
18.06271701388889
 20
-6.758524576822916
 30
0.0
 10
18.11867947048611
 20
-6.814487033420138
 30
0.0
 10
18.11867947048611
 20
-6.883524576822916
 30
0.0
  0
ENDBLK
  5
19E
330
19B
100
AcDbEntity
  8
0
100
AcDbBlockEnd
  0
ENDSEC
  0
SECTION
  2
ENTITIES
  0
POLYLINE
  5
3E
330
1F
100
AcDbEntity
  8
Your Design Layer 1
 62
     1
420
 16711680
370
     5
100
AcDb2dPolyline
 66
     1
 10
0.0
 20
0.0
 30
0.0
  0
VERTEX
  5
3F
330
3E
100
AcDbEntity
  8
Your Design Layer 1
 62
     1
420
 16711680
370
     5
100
AcDbVertex
100
AcDb2dVertex
 10
10.09659152560764
 20
-3.715589735243055
 30
0.0
  0
VERTEX
  5
1AD
330
3E
100
AcDbEntity
  8
0
100
AcDbVertex
100
AcDb2dVertex
 10
10.09659152560764
 20
-3.715589735243055
 30
0.0
  0
SEQEND
  5
40
330
3E
100
AcDbEntity
  8
Your Design Layer 1
370
     5
  0
INSERT
  5
42
330
1F
100
AcDbEntity
  8
Your Design Layer 1
100
AcDbBlockReference
  2
block 2
 10
0.0
 20
0.0
 30
0.0
  0
INSERT
  5
75
330
1F
100
AcDbEntity
  8
Your Design Layer 1
100
AcDbBlockReference
  2
block 3
 10
0.0
 20
0.0
 30
0.0
  0
INSERT
  5
18B
330
1F
100
AcDbEntity
  8
Your Design Layer 1
100
AcDbBlockReference
  2
block 4
 10
0.0
 20
0.0
 30
0.0
  0
INSERT
  5
19C
330
1F
100
AcDbEntity
  8
Your Design Layer 1
100
AcDbBlockReference
  2
block 5
 10
0.0
 20
0.0
 30
0.0
  0
ENDSEC
  0
SECTION
  2
OBJECTS
  0
DICTIONARY
  5
C
330
0
100
AcDbDictionary
281
     1
  3
ACAD_GROUP
350
D
  3
ACAD_LAYOUT
350
1A
  3
ACAD_MLINESTYLE
350
17
  3
ACAD_PLOTSETTINGS
350
19
  3
ACAD_PLOTSTYLENAME
350
E
  3
ACAD_TABLESTYLE
350
1AE
  3
ACAD_VISUALSTYLE
350
2A
  0
DICTIONARY
  5
D
102
{ACAD_REACTORS
330
C
102
}
330
C
100
AcDbDictionary
281
     1
  0
DICTIONARY
  5
1A
102
{ACAD_REACTORS
330
C
102
}
330
C
100
AcDbDictionary
281
     1
  3
Layout1
350
1E
  3
Layout2
350
26
  3
Model
350
22
  0
DICTIONARY
  5
17
102
{ACAD_REACTORS
330
C
102
}
330
C
100
AcDbDictionary
281
     1
  3
Standard
350
18
  0
DICTIONARY
  5
19
102
{ACAD_REACTORS
330
C
102
}
330
C
100
AcDbDictionary
281
     1
  0
ACDBDICTIONARYWDFLT
  5
E
102
{ACAD_REACTORS
330
C
102
}
330
C
100
AcDbDictionary
281
     1
  3
Normal
350
F
100
AcDbDictionaryWithDefault
340
F
  0
DICTIONARY
  5
1AE
102
{ACAD_REACTORS
330
C
102
}
330
C
100
AcDbDictionary
281
     1
  0
DICTIONARY
  5
2A
102
{ACAD_REACTORS
330
C
102
}
330
C
100
AcDbDictionary
281
     1
  3
2dWireframe
350
2F
  3
3D Hidden
350
31
  3
3dWireframe
350
30
  3
Basic
350
32
  3
Brighten
350
36
  3
ColorChange
350
3A
  3
Conceptual
350
34
  3
Dim
350
35
  3
Facepattern
350
39
  3
Flat
350
2B
  3
FlatWithEdges
350
2C
  3
Gouraud
350
2D
  3
GouraudWithEdges
350
2E
  3
Linepattern
350
38
  3
Realistic
350
33
  3
Thicken
350
37
  0
LAYOUT
  5
1E
102
{ACAD_REACTORS
330
1A
102
}
330
1A
100
AcDbPlotSettings
  1

  2
none_device
  4

  6

 40
0.0
 41
0.0
 42
0.0
 43
0.0
 44
0.0
 45
0.0
 46
0.0
 47
0.0
 48
0.0
 49
0.0
140
0.0
141
0.0
142
1.0
143
1.0
 70
   688
 72
     0
 73
     0
 74
     5
  7

 75
    16
 76
     0
 77
     2
 78
   300
147
1.0
148
0.0
149
0.0
100
AcDbLayout
  1
Layout1
 70
     1
 71
     1
 10
0.0
 20
0.0
 11
12.0
 21
9.0
 12
0.0
 22
0.0
 32
0.0
 14
1.000000000000000E+20
 24
1.000000000000000E+20
 34
1.000000000000000E+20
 15
-1.000000000000000E+20
 25
-1.000000000000000E+20
 35
-1.000000000000000E+20
146
0.0
 13
0.0
 23
0.0
 33
0.0
 16
1.0
 26
0.0
 36
0.0
 17
0.0
 27
1.0
 37
0.0
 76
     0
330
1B
  0
LAYOUT
  5
26
102
{ACAD_REACTORS
330
1A
102
}
330
1A
100
AcDbPlotSettings
  1

  2
none_device
  4

  6

 40
0.0
 41
0.0
 42
0.0
 43
0.0
 44
0.0
 45
0.0
 46
0.0
 47
0.0
 48
0.0
 49
0.0
140
0.0
141
0.0
142
1.0
143
1.0
 70
   688
 72
     0
 73
     0
 74
     5
  7

 75
    16
 76
     0
 77
     2
 78
   300
147
1.0
148
0.0
149
0.0
100
AcDbLayout
  1
Layout2
 70
     1
 71
     2
 10
0.0
 20
0.0
 11
0.0
 21
0.0
 12
0.0
 22
0.0
 32
0.0
 14
0.0
 24
0.0
 34
0.0
 15
0.0
 25
0.0
 35
0.0
146
0.0
 13
0.0
 23
0.0
 33
0.0
 16
1.0
 26
0.0
 36
0.0
 17
0.0
 27
1.0
 37
0.0
 76
     0
330
23
  0
LAYOUT
  5
22
102
{ACAD_REACTORS
330
1A
102
}
330
1A
100
AcDbPlotSettings
  1

  2
none_device
  4

  6

 40
0.0
 41
0.0
 42
0.0
 43
0.0
 44
0.0
 45
0.0
 46
0.0
 47
0.0
 48
0.0
 49
0.0
140
0.0
141
0.0
142
1.0
143
1.0
 70
  1712
 72
     0
 73
     0
 74
     0
  7

 75
     0
 76
     0
 77
     2
 78
   300
147
1.0
148
0.0
149
0.0
100
AcDbLayout
  1
Model
 70
     1
 71
     0
 10
0.0
 20
0.0
 11
12.0
 21
9.0
 12
0.0
 22
0.0
 32
0.0
 14
1.000000000000000E+20
 24
1.000000000000000E+20
 34
1.000000000000000E+20
 15
-1.000000000000000E+20
 25
-1.000000000000000E+20
 35
-1.000000000000000E+20
146
0.0
 13
0.0
 23
0.0
 33
0.0
 16
1.0
 26
0.0
 36
0.0
 17
0.0
 27
1.0
 37
0.0
 76
     0
330
1F
331
29
  0
MLINESTYLE
  5
18
102
{ACAD_REACTORS
330
17
102
}
330
17
100
AcDbMlineStyle
  2
Standard
 70
     0
  3

 62
   256
 51
90.0
 52
90.0
 71
     2
 49
0.5
 62
   256
  6
BYLAYER
 49
-0.5
 62
   256
  6
BYLAYER
  0
ACDBPLACEHOLDER
  5
F
102
{ACAD_REACTORS
330
E
102
}
330
E
  0
VISUALSTYLE
  5
2F
102
{ACAD_REACTORS
330
2A
102
}
330
2A
100
AcDbVisualStyle
  2
2dWireframe
 70
     4
 71
     0
 72
     2
 73
     0
 90
        0
 40
-0.6
 41
-30.0
 62
     5
 63
     7
421
 16777215
 74
     1
 91
        4
 64
     7
 65
   257
 75
     1
175
     1
 42
1.0
 92
        0
 66
   257
 43
1.0
 76
     1
 77
     6
 78
     2
 67
     7
 79
     5
170
     0
171
     0
290
     0
174
     0
 93
        1
 44
0.0
173
     0
291
     0
 45
0.0
1001
ACAD
1000
AcDbSavedByObjectVersion
1070
     0
  0
VISUALSTYLE
  5
31
102
{ACAD_REACTORS
330
2A
102
}
330
2A
100
AcDbVisualStyle
  2
3D Hidden
 70
     6
 71
     1
 72
     2
 73
     2
 90
        0
 40
-0.6
 41
-30.0
 62
     5
 63
     7
421
 16777215
 74
     2
 91
        2
 64
     7
 65
   257
 75
     2
175
     1
 42
40.0
 92
        0
 66
   257
 43
1.0
 76
     1
 77
     6
 78
     2
 67
     7
 79
     3
170
     0
171
     0
290
     0
174
     0
 93
        1
 44
0.0
173
     0
291
     0
 45
0.0
1001
ACAD
1000
AcDbSavedByObjectVersion
1070
     0
  0
VISUALSTYLE
  5
30
102
{ACAD_REACTORS
330
2A
102
}
330
2A
100
AcDbVisualStyle
  2
3dWireframe
 70
     5
 71
     0
 72
     2
 73
     0
 90
        0
 40
-0.6
 41
-30.0
 62
     5
 63
     7
421
 16777215
 74
     1
 91
        4
 64
     7
 65
   257
 75
     1
175
     1
 42
1.0
 92
        0
 66
   257
 43
1.0
 76
     1
 77
     6
 78
     2
 67
     7
 79
     5
170
     0
171
     0
290
     0
174
     0
 93
        1
 44
0.0
173
     0
291
     0
 45
0.0
1001
ACAD
1000
AcDbSavedByObjectVersion
1070
     0
  0
VISUALSTYLE
  5
32
102
{ACAD_REACTORS
330
2A
102
}
330
2A
100
AcDbVisualStyle
  2
Basic
 70
     7
 71
     1
 72
     0
 73
     1
 90
        0
 40
-0.6
 41
-30.0
 62
     5
 63
     7
421
 16777215
 74
     0
 91
        4
 64
     7
 65
   257
 75
     1
175
     1
 42
1.0
 92
        8
 66
     7
 43
1.0
 76
     1
 77
     6
 78
     2
 67
     7
 79
     5
170
     0
171
     0
290
     0
174
     0
 93
        1
 44
0.0
173
     0
291
     1
 45
0.0
1001
ACAD
1000
AcDbSavedByObjectVersion
1070
     0
  0
VISUALSTYLE
  5
36
102
{ACAD_REACTORS
330
2A
102
}
330
2A
100
AcDbVisualStyle
  2
Brighten
 70
    12
 71
     2
 72
     2
 73
     0
 90
        0
 40
-0.6
 41
-30.0
 62
     5
 63
     7
421
 16777215
 74
     1
 91
        4
 64
     7
 65
   257
 75
     1
175
     1
 42
1.0
 92
        8
 66
     7
 43
1.0
 76
     1
 77
     6
 78
     2
 67
     7
 79
     5
170
     0
171
     0
290
     0
174
     0
 93
        1
 44
50.0
173
     0
291
     1
 45
0.0
1001
ACAD
1000
AcDbSavedByObjectVersion
1070
     0
  0
VISUALSTYLE
  5
3A
102
{ACAD_REACTORS
330
2A
102
}
330
2A
100
AcDbVisualStyle
  2
ColorChange
 70
    16
 71
     2
 72
     2
 73
     3
 90
        0
 40
-0.6
 41
-30.0
 62
     5
 63
     8
421
  8421504
 74
     1
 91
        4
 64
     7
 65
   257
 75
     1
175
     1
 42
1.0
 92
        8
 66
     8
424
  8421504
 43
1.0
 76
     1
 77
     6
 78
     2
 67
     7
 79
     5
170
     0
171
     0
290
     0
174
     0
 93
        1
 44
0.0
173
     0
291
     1
 45
0.0
1001
ACAD
1000
AcDbSavedByObjectVersion
1070
     0
  0
VISUALSTYLE
  5
34
102
{ACAD_REACTORS
330
2A
102
}
330
2A
100
AcDbVisualStyle
  2
Conceptual
 70
     9
 71
     3
 72
     2
 73
     0
 90
        0
 40
-0.6
 41
-30.0
 62
     5
 63
     7
421
 16777215
 74
     2
 91
        2
 64
     7
 65
   257
 75
     1
175
     1
 42
40.0
 92
        8
 66
     7
 43
1.0
 76
     1
 77
     6
 78
     2
 67
     7
 79
     3
170
     0
171
     0
290
     0
174
     0
 93
        1
 44
0.0
173
     0
291
     0
 45
0.0
1001
ACAD
1000
AcDbSavedByObjectVersion
1070
     0
  0
VISUALSTYLE
  5
35
102
{ACAD_REACTORS
330
2A
102
}
330
2A
100
AcDbVisualStyle
  2
Dim
 70
    11
 71
     2
 72
     2
 73
     0
 90
        0
 40
-0.6
 41
-30.0
 62
     5
 63
     7
421
 16777215
 74
     1
 91
        4
 64
     7
 65
   257
 75
     1
175
     1
 42
1.0
 92
        8
 66
     7
 43
1.0
 76
     1
 77
     6
 78
     2
 67
     7
 79
     5
170
     0
171
     0
290
     0
174
     0
 93
        1
 44
-50.0
173
     0
291
     1
 45
0.0
1001
ACAD
1000
AcDbSavedByObjectVersion
1070
     0
  0
VISUALSTYLE
  5
39
102
{ACAD_REACTORS
330
2A
102
}
330
2A
100
AcDbVisualStyle
  2
Facepattern
 70
    15
 71
     2
 72
     2
 73
     0
 90
        0
 40
-0.6
 41
-30.0
 62
     5
 63
     7
421
 16777215
 74
     1
 91
        4
 64
     7
 65
   257
 75
     1
175
     1
 42
1.0
 92
        8
 66
     7
 43
1.0
 76
     1
 77
     6
 78
     2
 67
     7
 79
     5
170
     0
171
     0
290
     0
174
     0
 93
        1
 44
0.0
173
     0
291
     1
 45
0.0
1001
ACAD
1000
AcDbSavedByObjectVersion
1070
     0
  0
VISUALSTYLE
  5
2B
102
{ACAD_REACTORS
330
2A
102
}
330
2A
100
AcDbVisualStyle
  2
Flat
 70
     0
 71
     2
 72
     1
 73
     1
 90
        2
 40
-0.6
 41
30.0
 62
     5
 63
     7
421
 16777215
 74
     0
 91
        4
 64
     7
 65
   257
 75
     1
175
     1
 42
1.0
 92
        8
 66
     7
 43
1.0
 76
     1
 77
     6
 78
     2
 67
     7
 79
     5
170
     0
171
     0
290
     0
174
     0
 93
       13
 44
0.0
173
     0
291
     1
 45
0.0
1001
ACAD
1000
AcDbSavedByObjectVersion
1070
     0
  0
VISUALSTYLE
  5
2C
102
{ACAD_REACTORS
330
2A
102
}
330
2A
100
AcDbVisualStyle
  2
FlatWithEdges
 70
     1
 71
     2
 72
     1
 73
     1
 90
        2
 40
-0.6
 41
30.0
 62
     5
 63
     7
421
 16777215
 74
     1
 91
        4
 64
     7
 65
   257
 75
     1
175
     1
 42
1.0
 92
        0
 66
   257
 43
1.0
 76
     1
 77
     6
 78
     2
 67
     7
 79
     5
170
     0
171
     0
290
     0
174
     0
 93
       13
 44
0.0
173
     0
291
     1
 45
0.0
1001
ACAD
1000
AcDbSavedByObjectVersion
1070
     0
  0
VISUALSTYLE
  5
2D
102
{ACAD_REACTORS
330
2A
102
}
330
2A
100
AcDbVisualStyle
  2
Gouraud
 70
     2
 71
     2
 72
     2
 73
     1
 90
        2
 40
-0.6
 41
30.0
 62
     5
 63
     7
421
 16777215
 74
     0
 91
        4
 64
     7
 65
   257
 75
     1
175
     1
 42
1.0
 92
        0
 66
     7
 43
1.0
 76
     1
 77
     6
 78
     2
 67
     7
 79
     5
170
     0
171
     0
290
     0
174
     0
 93
       13
 44
0.0
173
     0
291
     1
 45
0.0
1001
ACAD
1000
AcDbSavedByObjectVersion
1070
     0
  0
VISUALSTYLE
  5
2E
102
{ACAD_REACTORS
330
2A
102
}
330
2A
100
AcDbVisualStyle
  2
GouraudWithEdges
 70
     3
 71
     2
 72
     2
 73
     1
 90
        2
 40
-0.6
 41
30.0
 62
     5
 63
     7
421
 16777215
 74
     1
 91
        4
 64
     7
 65
   257
 75
     1
175
     1
 42
1.0
 92
        0
 66
   257
 43
1.0
 76
     1
 77
     6
 78
     2
 67
     7
 79
     5
170
     0
171
     0
290
     0
174
     0
 93
       13
 44
0.0
173
     0
291
     1
 45
0.0
1001
ACAD
1000
AcDbSavedByObjectVersion
1070
     0
  0
VISUALSTYLE
  5
38
102
{ACAD_REACTORS
330
2A
102
}
330
2A
100
AcDbVisualStyle
  2
Linepattern
 70
    14
 71
     2
 72
     2
 73
     0
 90
        0
 40
-0.6
 41
-30.0
 62
     5
 63
     7
421
 16777215
 74
     1
 91
        4
 64
     7
 65
   257
 75
     7
175
     7
 42
1.0
 92
        8
 66
     7
 43
1.0
 76
     1
 77
     6
 78
     2
 67
     7
 79
     5
170
     0
171
     0
290
     0
174
     0
 93
        1
 44
0.0
173
     0
291
     1
 45
0.0
1001
ACAD
1000
AcDbSavedByObjectVersion
1070
     0
  0
VISUALSTYLE
  5
33
102
{ACAD_REACTORS
330
2A
102
}
330
2A
100
AcDbVisualStyle
  2
Realistic
 70
     8
 71
     2
 72
     2
 73
     0
 90
        0
 40
-0.6
 41
-30.0
 62
     5
 63
     7
421
 16777215
 74
     1
 91
        0
 64
     7
 65
   257
 75
     1
175
     1
 42
1.0
 92
        8
 66
     8
424
  7895160
 43
1.0
 76
     1
 77
     6
 78
     2
 67
     7
 79
     5
170
     0
171
     0
290
     0
174
     0
 93
       13
 44
0.0
173
     0
291
     0
 45
0.0
1001
ACAD
1000
AcDbSavedByObjectVersion
1070
     0
  0
VISUALSTYLE
  5
37
102
{ACAD_REACTORS
330
2A
102
}
330
2A
100
AcDbVisualStyle
  2
Thicken
 70
    13
 71
     2
 72
     2
 73
     0
 90
        0
 40
-0.6
 41
-30.0
 62
     5
 63
     7
421
 16777215
 74
     1
 91
        4
 64
     7
 65
   257
 75
     1
175
     1
 42
1.0
 92
       12
 66
     7
 43
1.0
 76
     1
 77
     6
 78
     2
 67
     7
 79
     5
170
     0
171
     0
290
     0
174
     0
 93
        1
 44
0.0
173
     0
291
     1
 45
0.0
1001
ACAD
1000
AcDbSavedByObjectVersion
1070
     0
  0
ENDSEC
  0
EOF
