ISO-10303-21;
HEADER;
/* Generated by software containing ST-Developer
 * from STEP Tools, Inc. (www.steptools.com) 
 */

FILE_DESCRIPTION(
/* description */ (''),
/* implementation_level */ '2;1');

FILE_NAME(
/* name */ 
'C:\\Users\\Eddie the Computer\\Documents\\Course\\Third Year\\FYP\\3D
 Printing\\STEP Files\\Azimuth Assembly Cap.stp',
/* time_stamp */ '2018-04-22T20:05:28+01:00',
/* author */ ('Eddie the Computer'),
/* organization */ (''),
/* preprocessor_version */ 'ST-DEVELOPER v15.2',
/* originating_system */ 'Autodesk Inventor 2014',
/* authorisation */ '');

FILE_SCHEMA (('AUTOMOTIVE_DESIGN { 1 0 10303 214 3 1 1 }'));
ENDSEC;

DATA;
#10=SHAPE_REPRESENTATION_RELATIONSHIP('SRR','None',#325,#11);
#11=ADVANCED_BREP_SHAPE_REPRESENTATION($,(#162),#316);
#12=STYLED_ITEM($,(#333),#162);
#13=FACE_BOUND($,#49,.T.);
#14=CIRCLE($,#168,9.96446609406726);
#15=CIRCLE($,#169,11.5);
#16=CIRCLE($,#171,11.5);
#17=CIRCLE($,#174,14.);
#18=CIRCLE($,#175,11.);
#19=CIRCLE($,#177,14.);
#20=CONICAL_SURFACE($,#167,10.7322330470336,45.);
#21=CONICAL_SURFACE($,#173,12.5,45.);
#22=B_SPLINE_CURVE_WITH_KNOTS($,3,(#235,#236,#237,#238,#239,#240),
 .UNSPECIFIED.,.F.,.F.,(4,2,4),(0.,0.152101966690702,0.255730389695595),
 .UNSPECIFIED.);
#23=B_SPLINE_CURVE_WITH_KNOTS($,3,(#244,#245,#246,#247,#248,#249,#250,#251),
 .UNSPECIFIED.,.F.,.F.,(4,2,2,4),(-0.412404230224521,-0.303217025350495,
-0.151608512675247,0.),.UNSPECIFIED.);
#24=B_SPLINE_CURVE_WITH_KNOTS($,3,(#253,#254,#255,#256,#257,#258,#259,#260,
#261,#262),.UNSPECIFIED.,.F.,.F.,(4,2,2,2,4),(2.13937892209224,2.21151643788001,
2.33607589417149,2.46063535046297,2.53277286625074),.UNSPECIFIED.);
#25=B_SPLINE_CURVE_WITH_KNOTS($,3,(#263,#264,#265,#266,#267,#268,#269,#270),
 .UNSPECIFIED.,.F.,.F.,(4,2,2,4),(1.2127207037072,1.36432921638245,1.51593772905769,
1.62512493401159),.UNSPECIFIED.);
#26=B_SPLINE_CURVE_WITH_KNOTS($,3,(#272,#273,#274,#275,#276,#277),
 .UNSPECIFIED.,.F.,.F.,(4,2,4),(0.960747414575266,1.06437583758016,1.21647780427086),
 .UNSPECIFIED.);
#27=B_SPLINE_CURVE_WITH_KNOTS($,3,(#279,#280,#281,#282,#283,#284,#285,#286),
 .UNSPECIFIED.,.F.,.F.,(4,2,2,4),(0.548179002274698,0.667309247253294,0.786439492231889,
0.916167802733769),.UNSPECIFIED.);
#28=B_SPLINE_CURVE_WITH_KNOTS($,3,(#287,#288,#289,#290,#291,#292,#293,#294),
 .UNSPECIFIED.,.F.,.F.,(4,2,2,4),(0.180190201815627,0.309918512317508,0.429048757296103,
0.548179002274698),.UNSPECIFIED.);
#29=CYLINDRICAL_SURFACE($,#165,4.);
#30=CYLINDRICAL_SURFACE($,#170,11.5);
#31=CYLINDRICAL_SURFACE($,#176,14.);
#32=FACE_OUTER_BOUND($,#42,.T.);
#33=FACE_OUTER_BOUND($,#43,.T.);
#34=FACE_OUTER_BOUND($,#44,.T.);
#35=FACE_OUTER_BOUND($,#45,.T.);
#36=FACE_OUTER_BOUND($,#46,.T.);
#37=FACE_OUTER_BOUND($,#47,.T.);
#38=FACE_OUTER_BOUND($,#48,.T.);
#39=FACE_OUTER_BOUND($,#50,.T.);
#40=FACE_OUTER_BOUND($,#51,.T.);
#41=FACE_OUTER_BOUND($,#52,.T.);
#42=EDGE_LOOP($,(#104,#105,#106,#107));
#43=EDGE_LOOP($,(#108,#109,#110,#111,#112,#113,#114,#115,#116));
#44=EDGE_LOOP($,(#117,#118,#119,#120));
#45=EDGE_LOOP($,(#121,#122,#123,#124));
#46=EDGE_LOOP($,(#125,#126,#127,#128,#129,#130));
#47=EDGE_LOOP($,(#131));
#48=EDGE_LOOP($,(#132,#133));
#49=EDGE_LOOP($,(#134));
#50=EDGE_LOOP($,(#135,#136,#137,#138,#139,#140));
#51=EDGE_LOOP($,(#141));
#52=EDGE_LOOP($,(#142,#143,#144,#145));
#53=LINE($,#226,#61);
#54=LINE($,#228,#62);
#55=LINE($,#230,#63);
#56=LINE($,#231,#64);
#57=LINE($,#242,#65);
#58=LINE($,#297,#66);
#59=LINE($,#299,#67);
#60=LINE($,#300,#68);
#61=VECTOR($,#184,2.5);
#62=VECTOR($,#185,2.63447853857482);
#63=VECTOR($,#186,2.5);
#64=VECTOR($,#187,2.63447853857482);
#65=VECTOR($,#190,2.63447853857482);
#66=VECTOR($,#193,2.5);
#67=VECTOR($,#194,2.63447853857482);
#68=VECTOR($,#195,2.5);
#69=VERTEX_POINT($,#224);
#70=VERTEX_POINT($,#225);
#71=VERTEX_POINT($,#227);
#72=VERTEX_POINT($,#229);
#73=VERTEX_POINT($,#233);
#74=VERTEX_POINT($,#234);
#75=VERTEX_POINT($,#241);
#76=VERTEX_POINT($,#243);
#77=VERTEX_POINT($,#252);
#78=VERTEX_POINT($,#271);
#79=VERTEX_POINT($,#278);
#80=VERTEX_POINT($,#296);
#81=VERTEX_POINT($,#298);
#82=VERTEX_POINT($,#309);
#83=EDGE_CURVE($,#69,#70,#53,.T.);
#84=EDGE_CURVE($,#69,#71,#54,.T.);
#85=EDGE_CURVE($,#72,#71,#55,.T.);
#86=EDGE_CURVE($,#70,#72,#56,.T.);
#87=EDGE_CURVE($,#73,#74,#22,.T.);
#88=EDGE_CURVE($,#73,#75,#57,.T.);
#89=EDGE_CURVE($,#76,#75,#23,.T.);
#90=EDGE_CURVE($,#77,#76,#24,.T.);
#91=EDGE_CURVE($,#71,#77,#25,.T.);
#92=EDGE_CURVE($,#78,#69,#26,.T.);
#93=EDGE_CURVE($,#79,#78,#27,.T.);
#94=EDGE_CURVE($,#74,#79,#28,.T.);
#95=EDGE_CURVE($,#80,#73,#58,.T.);
#96=EDGE_CURVE($,#81,#80,#59,.T.);
#97=EDGE_CURVE($,#75,#81,#60,.T.);
#98=EDGE_CURVE($,#79,#79,#14,.T.);
#99=EDGE_CURVE($,#74,#78,#15,.T.);
#100=EDGE_CURVE($,#80,#70,#16,.T.);
#101=EDGE_CURVE($,#76,#77,#17,.T.);
#102=EDGE_CURVE($,#82,#82,#18,.T.);
#103=EDGE_CURVE($,#72,#81,#19,.T.);
#104=ORIENTED_EDGE($,*,*,#83,.F.);
#105=ORIENTED_EDGE($,*,*,#84,.T.);
#106=ORIENTED_EDGE($,*,*,#85,.F.);
#107=ORIENTED_EDGE($,*,*,#86,.F.);
#108=ORIENTED_EDGE($,*,*,#87,.F.);
#109=ORIENTED_EDGE($,*,*,#88,.T.);
#110=ORIENTED_EDGE($,*,*,#89,.F.);
#111=ORIENTED_EDGE($,*,*,#90,.F.);
#112=ORIENTED_EDGE($,*,*,#91,.F.);
#113=ORIENTED_EDGE($,*,*,#84,.F.);
#114=ORIENTED_EDGE($,*,*,#92,.F.);
#115=ORIENTED_EDGE($,*,*,#93,.F.);
#116=ORIENTED_EDGE($,*,*,#94,.F.);
#117=ORIENTED_EDGE($,*,*,#95,.F.);
#118=ORIENTED_EDGE($,*,*,#96,.F.);
#119=ORIENTED_EDGE($,*,*,#97,.F.);
#120=ORIENTED_EDGE($,*,*,#88,.F.);
#121=ORIENTED_EDGE($,*,*,#94,.T.);
#122=ORIENTED_EDGE($,*,*,#98,.F.);
#123=ORIENTED_EDGE($,*,*,#93,.T.);
#124=ORIENTED_EDGE($,*,*,#99,.F.);
#125=ORIENTED_EDGE($,*,*,#87,.T.);
#126=ORIENTED_EDGE($,*,*,#99,.T.);
#127=ORIENTED_EDGE($,*,*,#92,.T.);
#128=ORIENTED_EDGE($,*,*,#83,.T.);
#129=ORIENTED_EDGE($,*,*,#100,.F.);
#130=ORIENTED_EDGE($,*,*,#95,.T.);
#131=ORIENTED_EDGE($,*,*,#98,.T.);
#132=ORIENTED_EDGE($,*,*,#90,.T.);
#133=ORIENTED_EDGE($,*,*,#101,.T.);
#134=ORIENTED_EDGE($,*,*,#102,.T.);
#135=ORIENTED_EDGE($,*,*,#97,.T.);
#136=ORIENTED_EDGE($,*,*,#103,.F.);
#137=ORIENTED_EDGE($,*,*,#85,.T.);
#138=ORIENTED_EDGE($,*,*,#91,.T.);
#139=ORIENTED_EDGE($,*,*,#101,.F.);
#140=ORIENTED_EDGE($,*,*,#89,.T.);
#141=ORIENTED_EDGE($,*,*,#102,.F.);
#142=ORIENTED_EDGE($,*,*,#96,.T.);
#143=ORIENTED_EDGE($,*,*,#100,.T.);
#144=ORIENTED_EDGE($,*,*,#86,.T.);
#145=ORIENTED_EDGE($,*,*,#103,.T.);
#146=PLANE($,#164);
#147=PLANE($,#166);
#148=PLANE($,#172);
#149=PLANE($,#178);
#150=PLANE($,#179);
#151=ADVANCED_FACE($,(#32),#146,.F.);
#152=ADVANCED_FACE($,(#33),#29,.F.);
#153=ADVANCED_FACE($,(#34),#147,.F.);
#154=ADVANCED_FACE($,(#35),#20,.F.);
#155=ADVANCED_FACE($,(#36),#30,.F.);
#156=ADVANCED_FACE($,(#37),#148,.F.);
#157=ADVANCED_FACE($,(#38,#13),#21,.T.);
#158=ADVANCED_FACE($,(#39),#31,.T.);
#159=ADVANCED_FACE($,(#40),#149,.T.);
#160=ADVANCED_FACE($,(#41),#150,.F.);
#161=CLOSED_SHELL($,(#151,#152,#153,#154,#155,#156,#157,#158,#159,#160));
#162=MANIFOLD_SOLID_BREP('Solid1',#161);
#163=AXIS2_PLACEMENT_3D('placement',#222,#180,#181);
#164=AXIS2_PLACEMENT_3D($,#223,#182,#183);
#165=AXIS2_PLACEMENT_3D($,#232,#188,#189);
#166=AXIS2_PLACEMENT_3D($,#295,#191,#192);
#167=AXIS2_PLACEMENT_3D($,#301,#196,#197);
#168=AXIS2_PLACEMENT_3D($,#302,#198,#199);
#169=AXIS2_PLACEMENT_3D($,#303,#200,#201);
#170=AXIS2_PLACEMENT_3D($,#304,#202,#203);
#171=AXIS2_PLACEMENT_3D($,#305,#204,#205);
#172=AXIS2_PLACEMENT_3D($,#306,#206,#207);
#173=AXIS2_PLACEMENT_3D($,#307,#208,#209);
#174=AXIS2_PLACEMENT_3D($,#308,#210,#211);
#175=AXIS2_PLACEMENT_3D($,#310,#212,#213);
#176=AXIS2_PLACEMENT_3D($,#311,#214,#215);
#177=AXIS2_PLACEMENT_3D($,#312,#216,#217);
#178=AXIS2_PLACEMENT_3D($,#313,#218,#219);
#179=AXIS2_PLACEMENT_3D($,#314,#220,#221);
#180=DIRECTION('axis',(0.,0.,1.));
#181=DIRECTION('refdir',(1.,0.,0.));
#182=DIRECTION('center_axis',(1.,0.,0.));
#183=DIRECTION('ref_axis',(0.,-1.,0.));
#184=DIRECTION($,(0.,-1.,0.));
#185=DIRECTION($,(0.,0.,-1.));
#186=DIRECTION($,(0.,1.,0.));
#187=DIRECTION($,(0.,0.,-1.));
#188=DIRECTION('center_axis',(0.,0.,-1.));
#189=DIRECTION('ref_axis',(-1.,0.,0.));
#190=DIRECTION($,(0.,0.,-1.));
#191=DIRECTION('center_axis',(-1.,0.,0.));
#192=DIRECTION('ref_axis',(0.,1.,0.));
#193=DIRECTION($,(0.,1.,0.));
#194=DIRECTION($,(0.,0.,1.));
#195=DIRECTION($,(0.,-1.,0.));
#196=DIRECTION('center_axis',(0.,-1.,0.));
#197=DIRECTION('ref_axis',(1.,0.,0.));
#198=DIRECTION('center_axis',(0.,-1.,0.));
#199=DIRECTION('ref_axis',(1.,0.,0.));
#200=DIRECTION('center_axis',(0.,1.,0.));
#201=DIRECTION('ref_axis',(1.,0.,0.));
#202=DIRECTION('center_axis',(0.,1.,0.));
#203=DIRECTION('ref_axis',(1.,0.,0.));
#204=DIRECTION('center_axis',(0.,1.,0.));
#205=DIRECTION('ref_axis',(1.,0.,0.));
#206=DIRECTION('center_axis',(0.,1.,0.));
#207=DIRECTION('ref_axis',(0.,0.,1.));
#208=DIRECTION('center_axis',(0.,-1.,0.));
#209=DIRECTION('ref_axis',(1.,0.,0.));
#210=DIRECTION('center_axis',(0.,1.,0.));
#211=DIRECTION('ref_axis',(1.,0.,0.));
#212=DIRECTION('center_axis',(0.,-1.,0.));
#213=DIRECTION('ref_axis',(1.,0.,0.));
#214=DIRECTION('center_axis',(0.,1.,0.));
#215=DIRECTION('ref_axis',(1.,0.,0.));
#216=DIRECTION('center_axis',(0.,-1.,0.));
#217=DIRECTION('ref_axis',(1.,0.,0.));
#218=DIRECTION('center_axis',(0.,1.,0.));
#219=DIRECTION('ref_axis',(0.,0.,1.));
#220=DIRECTION('center_axis',(0.,1.,0.));
#221=DIRECTION('ref_axis',(0.,0.,1.));
#222=CARTESIAN_POINT('',(0.,0.,0.));
#223=CARTESIAN_POINT('Origin',(4.,2.5,0.));
#224=CARTESIAN_POINT('',(4.,2.5,-10.7819293264239));
#225=CARTESIAN_POINT('',(4.,0.,-10.7819293264239));
#226=CARTESIAN_POINT($,(4.,0.,-10.7819293264239));
#227=CARTESIAN_POINT('',(4.,2.5,-13.4164078649987));
#228=CARTESIAN_POINT($,(4.,2.5,0.));
#229=CARTESIAN_POINT('',(4.,0.,-13.4164078649987));
#230=CARTESIAN_POINT($,(4.,0.,-13.4164078649987));
#231=CARTESIAN_POINT($,(4.,0.,1.32169407693471E-016));
#232=CARTESIAN_POINT('Origin',(0.,2.5,0.));
#233=CARTESIAN_POINT('',(-4.,2.5,-10.7819293264239));
#234=CARTESIAN_POINT('',(-3.1506200772535,4.96446609406726,-11.0599996893674));
#235=CARTESIAN_POINT('Ctrl Pts',(-4.,2.5,-10.7819293264239));
#236=CARTESIAN_POINT('Ctrl Pts',(-4.,3.00700655563567,-10.7819293264239));
#237=CARTESIAN_POINT('Ctrl Pts',(-3.89780262964769,3.54457678855564,-10.8214540148248));
#238=CARTESIAN_POINT('Ctrl Pts',(-3.55359899801413,4.3718350088703,-10.9381728380084));
#239=CARTESIAN_POINT('Ctrl Pts',(-3.36768594474413,4.68696498263028,-10.9981649606685));
#240=CARTESIAN_POINT('Ctrl Pts',(-3.1506200772535,4.96446609406726,-11.0599996893674));
#241=CARTESIAN_POINT('',(-4.,2.5,-13.4164078649987));
#242=CARTESIAN_POINT($,(-4.,2.5,0.));
#243=CARTESIAN_POINT('',(-1.93649167310371,6.,-13.865424623862));
#244=CARTESIAN_POINT('Ctrl Pts',(-1.93649167310371,6.,-13.865424623862));
#245=CARTESIAN_POINT('Ctrl Pts',(-2.27081071722088,5.81502684425917,-13.8187325056864));
#246=CARTESIAN_POINT('Ctrl Pts',(-2.57376532371703,5.58308892577535,-13.7638419192405));
#247=CARTESIAN_POINT('Ctrl Pts',(-3.18202988373041,4.97482436576197,-13.6383665211317));
#248=CARTESIAN_POINT('Ctrl Pts',(-3.48936972802309,4.52694105570392,-13.5598399538045));
#249=CARTESIAN_POINT('Ctrl Pts',(-3.89842431119577,3.54234212349046,-13.4479459464521));
#250=CARTESIAN_POINT('Ctrl Pts',(-4.,3.00536170891749,-13.4164078649987));
#251=CARTESIAN_POINT('Ctrl Pts',(-4.,2.5,-13.4164078649987));
#252=CARTESIAN_POINT('',(1.93649167310371,6.,-13.865424623862));
#253=CARTESIAN_POINT('Ctrl Pts',(1.93649167310371,6.,-13.865424623862));
#254=CARTESIAN_POINT('Ctrl Pts',(1.72946544522587,6.11454416182843,-13.7786826933532));
#255=CARTESIAN_POINT('Ctrl Pts',(1.50318789425127,6.21520566617467,-13.70452877128));
#256=CARTESIAN_POINT('Ctrl Pts',(0.857474982349906,6.43072034005265,-13.5480067198175));
#257=CARTESIAN_POINT('Ctrl Pts',(0.415198187638262,6.5,-13.5));
#258=CARTESIAN_POINT('Ctrl Pts',(-0.41519818763826,6.5,-13.5));
#259=CARTESIAN_POINT('Ctrl Pts',(-0.857474982349903,6.43072034005265,-13.5480067198175));
#260=CARTESIAN_POINT('Ctrl Pts',(-1.50318789425127,6.21520566617467,-13.70452877128));
#261=CARTESIAN_POINT('Ctrl Pts',(-1.72946544522587,6.11454416182843,-13.7786826933532));
#262=CARTESIAN_POINT('Ctrl Pts',(-1.93649167310371,6.,-13.865424623862));
#263=CARTESIAN_POINT('Ctrl Pts',(4.,2.5,-13.4164078649987));
#264=CARTESIAN_POINT('Ctrl Pts',(4.,3.00536170891749,-13.4164078649987));
#265=CARTESIAN_POINT('Ctrl Pts',(3.89842431119577,3.54234212349046,-13.4479459464521));
#266=CARTESIAN_POINT('Ctrl Pts',(3.48936972802309,4.52694105570392,-13.5598399538045));
#267=CARTESIAN_POINT('Ctrl Pts',(3.18202988373041,4.97482436576197,-13.6383665211317));
#268=CARTESIAN_POINT('Ctrl Pts',(2.57376532353075,5.58308892596163,-13.7638419192789));
#269=CARTESIAN_POINT('Ctrl Pts',(2.27081071761046,5.81502684404363,-13.818732505632));
#270=CARTESIAN_POINT('Ctrl Pts',(1.93649167310371,6.,-13.865424623862));
#271=CARTESIAN_POINT('',(3.1506200772535,4.96446609406726,-11.0599996893674));
#272=CARTESIAN_POINT('Ctrl Pts',(3.1506200772535,4.96446609406726,-11.0599996893674));
#273=CARTESIAN_POINT('Ctrl Pts',(3.36768594474413,4.68696498263028,-10.9981649606685));
#274=CARTESIAN_POINT('Ctrl Pts',(3.55359899801413,4.3718350088703,-10.9381728380084));
#275=CARTESIAN_POINT('Ctrl Pts',(3.89780262964769,3.54457678855564,-10.8214540148248));
#276=CARTESIAN_POINT('Ctrl Pts',(4.,3.00700655563567,-10.7819293264239));
#277=CARTESIAN_POINT('Ctrl Pts',(4.,2.5,-10.7819293264239));
#278=CARTESIAN_POINT('',(0.,6.5,-9.96446609406726));
#279=CARTESIAN_POINT('Ctrl Pts',(-1.38777878078145E-016,6.5,-9.96446609406726));
#280=CARTESIAN_POINT('Ctrl Pts',(0.397100816595317,6.5,-9.96446609406726));
#281=CARTESIAN_POINT('Ctrl Pts',(0.822621490520146,6.43663110917499,-10.0014313281809));
#282=CARTESIAN_POINT('Ctrl Pts',(1.616638100366,6.18242478038706,-10.1614327518943));
#283=CARTESIAN_POINT('Ctrl Pts',(1.98503593372413,5.99214173683751,-10.2858331862153));
#284=CARTESIAN_POINT('Ctrl Pts',(2.61573059455913,5.552628626652,-10.5975542688991));
#285=CARTESIAN_POINT('Ctrl Pts',(2.91139540509837,5.27029544058606,-10.8101505476395));
#286=CARTESIAN_POINT('Ctrl Pts',(3.1506200772535,4.96446609406726,-11.0599996893674));
#287=CARTESIAN_POINT('Ctrl Pts',(-3.1506200772535,4.96446609406726,-11.0599996893674));
#288=CARTESIAN_POINT('Ctrl Pts',(-2.91139540509837,5.27029544058606,-10.8101505476395));
#289=CARTESIAN_POINT('Ctrl Pts',(-2.61573059455914,5.552628626652,-10.5975542688991));
#290=CARTESIAN_POINT('Ctrl Pts',(-1.98503593372413,5.99214173683751,-10.2858331862153));
#291=CARTESIAN_POINT('Ctrl Pts',(-1.616638100366,6.18242478038706,-10.1614327518943));
#292=CARTESIAN_POINT('Ctrl Pts',(-0.822621490520147,6.43663110917499,-10.0014313281809));
#293=CARTESIAN_POINT('Ctrl Pts',(-0.397100816595318,6.5,-9.96446609406726));
#294=CARTESIAN_POINT('Ctrl Pts',(-1.38777878078145E-016,6.5,-9.96446609406726));
#295=CARTESIAN_POINT('Origin',(-4.,0.,0.));
#296=CARTESIAN_POINT('',(-4.,0.,-10.7819293264239));
#297=CARTESIAN_POINT($,(-4.,0.,-10.7819293264239));
#298=CARTESIAN_POINT('',(-4.,0.,-13.4164078649987));
#299=CARTESIAN_POINT($,(-4.,0.,1.32169407693471E-016));
#300=CARTESIAN_POINT($,(-4.,0.,-13.4164078649987));
#301=CARTESIAN_POINT('Origin',(0.,5.73223304703363,0.));
#302=CARTESIAN_POINT('Origin',(0.,6.5,0.));
#303=CARTESIAN_POINT('Origin',(0.,4.96446609406726,0.));
#304=CARTESIAN_POINT('Origin',(0.,0.,0.));
#305=CARTESIAN_POINT('Origin',(0.,0.,0.));
#306=CARTESIAN_POINT('Origin',(6.71553090674409E-016,6.5,2.64338815386942E-016));
#307=CARTESIAN_POINT('Origin',(0.,7.5,0.));
#308=CARTESIAN_POINT('Origin',(0.,6.,0.));
#309=CARTESIAN_POINT('',(-11.,9.,-1.34711147906209E-015));
#310=CARTESIAN_POINT('Origin',(0.,9.,0.));
#311=CARTESIAN_POINT('Origin',(0.,0.,0.));
#312=CARTESIAN_POINT('Origin',(0.,0.,0.));
#313=CARTESIAN_POINT('Origin',(6.71553090674409E-016,9.,2.64338815386942E-016));
#314=CARTESIAN_POINT('Origin',(6.71553090674409E-016,0.,2.64338815386942E-016));
#315=UNCERTAINTY_MEASURE_WITH_UNIT(LENGTH_MEASURE(0.01),#317,
'DISTANCE_ACCURACY_VALUE',
'Maximum model space distance between geometric entities at asserted c
onnectivities');
#316=(
GEOMETRIC_REPRESENTATION_CONTEXT(3)
GLOBAL_UNCERTAINTY_ASSIGNED_CONTEXT((#315))
GLOBAL_UNIT_ASSIGNED_CONTEXT((#317,#320,#318))
REPRESENTATION_CONTEXT('','3D')
);
#317=(
LENGTH_UNIT()
NAMED_UNIT(*)
SI_UNIT(.MILLI.,.METRE.)
);
#318=(
NAMED_UNIT(*)
SI_UNIT($,.STERADIAN.)
SOLID_ANGLE_UNIT()
);
#319=DIMENSIONAL_EXPONENTS(0.,0.,0.,0.,0.,0.,0.);
#320=(
CONVERSION_BASED_UNIT('degree',#322)
NAMED_UNIT(#319)
PLANE_ANGLE_UNIT()
);
#321=(
NAMED_UNIT(*)
PLANE_ANGLE_UNIT()
SI_UNIT($,.RADIAN.)
);
#322=PLANE_ANGLE_MEASURE_WITH_UNIT(PLANE_ANGLE_MEASURE(0.01745329252),#321);
#323=SHAPE_DEFINITION_REPRESENTATION(#324,#325);
#324=PRODUCT_DEFINITION_SHAPE('',$,#327);
#325=SHAPE_REPRESENTATION('',(#163),#316);
#326=PRODUCT_DEFINITION_CONTEXT('3D Mechanical Parts',#330,'design');
#327=PRODUCT_DEFINITION('Cap','Cap',#328,#326);
#328=PRODUCT_DEFINITION_FORMATION('',$,#332);
#329=APPLICATION_PROTOCOL_DEFINITION('international standard',
'automotive_design',2009,#330);
#330=APPLICATION_CONTEXT(
'Core Data for Automotive Mechanical Design Process');
#331=PRODUCT_CONTEXT('3D Mechanical Parts',#330,'mechanical');
#332=PRODUCT('Cap','Cap',$,(#331));
#333=PRESENTATION_STYLE_ASSIGNMENT((#334));
#334=SURFACE_STYLE_USAGE(.BOTH.,#335);
#335=SURFACE_SIDE_STYLE($,(#336));
#336=SURFACE_STYLE_FILL_AREA(#337);
#337=FILL_AREA_STYLE($,(#338));
#338=FILL_AREA_STYLE_COLOUR($,#339);
#339=COLOUR_RGB('',0.749019607843137,0.749019607843137,0.749019607843137);
ENDSEC;
END-ISO-10303-21;
