  0
SECTION
  2
HEADER
  9
$ACADVER
  1
AC1014
  9
$HANDSEED
  5
FFFF
  9
$MEASUREMENT
 70
     1
  0
ENDSEC
  0
SECTION
  2
TABLES
  0
TABLE
  2
VPORT
  5
8
330
0
100
AcDbSymbolTable
 70
     4
  0
VPORT
  5
2E
330
8
100
AcDbSymbolTableRecord
100
AcDbViewportTableRecord
  2
*ACTIVE
 70
     0
 10
0.0
 20
0.0
 11
1.0
 21
1.0
 12
210.0
 22
148.5
 13
0.0
 23
0.0
 14
10.0
 24
10.0
 15
10.0
 25
10.0
 16
0.0
 26
0.0
 36
1.0
 17
0.0
 27
0.0
 37
0.0
 40
341.0
 41
1.24
 42
50.0
 43
0.0
 44
0.0
 50
0.0
 51
0.0
 71
     0
 72
   100
 73
     1
 74
     3
 75
     0
 76
     0
 77
     0
 78
     0
  0
ENDTAB
  0
TABLE
  2
LTYPE
  5
5
330
0
100
AcDbSymbolTable
 70
     1
  0
LTYPE
  5
14
330
5
100
AcDbSymbolTableRecord
100
AcDbLinetypeTableRecord
  2
BYBLOCK
 70
     0
  3

 72
    65
 73
     0
 40
0.0
  0
LTYPE
  5
15
330
5
100
AcDbSymbolTableRecord
100
AcDbLinetypeTableRecord
  2
BYLAYER
 70
     0
  3

 72
    65
 73
     0
 40
0.0
  0
LTYPE
  5
16
330
5
100
AcDbSymbolTableRecord
100
AcDbLinetypeTableRecord
  2
CONTINUOUS
 70
     0
  3
Solid line
 72
    65
 73
     0
 40
0.0
  0
ENDTAB
  0
TABLE
  2
LAYER
  5
2
100
AcDbSymbolTable
 70
2
  0
LAYER
  5
50
100
AcDbSymbolTableRecord
100
AcDbLayerTableRecord
  2
0
 70
0
  6
CONTINUOUS
  0
LAYER
  5
51
100
AcDbSymbolTableRecord
100
AcDbLayerTableRecord
  2
Layer_1
 70
0
  6
CONTINUOUS
  0
ENDTAB
  0
TABLE
  2
STYLE
  5
3
330
0
100
AcDbSymbolTable
 70
     1
  0
STYLE
  5
11
330
3
100
AcDbSymbolTableRecord
100
AcDbTextStyleTableRecord
  2
STANDARD
 70
     0
 40
0.0
 41
1.0
 50
0.0
 71
     0
 42
2.5
  3
txt
  4

  0
ENDTAB
  0
TABLE
  2
VIEW
  5
6
330
0
100
AcDbSymbolTable
 70
     0
  0
ENDTAB
  0
TABLE
  2
UCS
  5
7
330
0
100
AcDbSymbolTable
 70
     0
  0
ENDTAB
  0
TABLE
  2
APPID
  5
9
330
0
100
AcDbSymbolTable
 70
     2
  0
APPID
  5
12
330
9
100
AcDbSymbolTableRecord
100
AcDbRegAppTableRecord
  2
ACAD
 70
     0
  0
ENDTAB
  0
TABLE
  2
DIMSTYLE
  5
A
330
0
100
AcDbSymbolTable
 70
     1
  0
DIMSTYLE
105
27
330
A
100
AcDbSymbolTableRecord
100
AcDbDimStyleTableRecord
  2
ISO-25
 70
     0
  3

  4

  5

  6

  7

 40
1.0
 41
2.5
 42
0.625
 43
3.75
 44
1.25
 45
0.0
 46
0.0
 47
0.0
 48
0.0
140
2.5
141
2.5
142
0.0
143
0.03937007874016
144
1.0
145
0.0
146
1.0
147
0.625
 71
     0
 72
     0
 73
     0
 74
     0
 75
     0
 76
     0
 77
     1
 78
     8
170
     0
171
     3
172
     1
173
     0
174
     0
175
     0
176
     0
177
     0
178
     0
270
     2
271
     2
272
     2
273
     2
274
     3
340
11
275
     0
280
     0
281
     0
282
     0
283
     0
284
     8
285
     0
286
     0
287
     3
288
     0
  0
ENDTAB
  0
TABLE
  2
BLOCK_RECORD
  5
1
330
0
100
AcDbSymbolTable
 70
     1
  0
BLOCK_RECORD
  5
1F
330
1
100
AcDbSymbolTableRecord
100
AcDbBlockTableRecord
  2
*MODEL_SPACE
  0
BLOCK_RECORD
  5
1B
330
1
100
AcDbSymbolTableRecord
100
AcDbBlockTableRecord
  2
*PAPER_SPACE
  0
ENDTAB
  0
ENDSEC
  0
SECTION
  2
BLOCKS
  0
BLOCK
  5
20
330
1F
100
AcDbEntity
  8
0
100
AcDbBlockBegin
  2
*MODEL_SPACE
 70
     0
 10
0.0
 20
0.0
 30
0.0
  3
*MODEL_SPACE
  1

  0
ENDBLK
  5
21
330
1F
100
AcDbEntity
  8
0
100
AcDbBlockEnd
  0
BLOCK
  5
1C
330
1B
100
AcDbEntity
 67
     1
  8
0
100
AcDbBlockBegin
  2
*PAPER_SPACE
  1

  0
ENDBLK
  5
1D
330
1B
100
AcDbEntity
 67
     1
  8
0
100
AcDbBlockEnd
  0
ENDSEC
  0
SECTION
  2
ENTITIES
  0
LWPOLYLINE
  5
100
100
AcDbEntity
  8
Layer_1
 62
5
100
AcDbPolyline
 90
2
 70
1
 10
166.730864
 20
444.533852
 30
0.0
 10
453.040616
 20
444.533852
 30
0.0
  0
SPLINE
  5
101
100
AcDbEntity
  8
Layer_1
 62
5
100
AcDbSpline
 70
0
 71
3
 72
13
 73
9
 74
7
 40
0.000000
 40
0.000000
 40
0.000000
 40
0.000000
 40
0.438624
 40
0.863266
 40
1.301890
 40
1.740514
 40
2.165156
 40
2.603780
 40
2.603780
 40
2.603780
 40
2.603780
 10
453.040616
 20
444.533852
 30
0.0
 10
453.188544
 20
444.510987
 30
0.0
 10
453.479686
 20
444.465987
 30
0.0
 10
453.800435
 20
444.132440
 30
0.0
 10
453.918147
 20
443.695980
 30
0.0
 10
453.800435
 20
443.259520
 30
0.0
 10
453.479686
 20
442.925972
 30
0.0
 10
453.188544
 20
442.880972
 30
0.0
 10
453.040616
 20
442.858108
 30
0.0
 11
453.040616
 21
444.533852
 31
0.0
 11
453.464146
 21
444.419778
 31
0.0
 11
453.764414
 21
444.119510
 31
0.0
 11
453.878488
 21
443.695980
 31
0.0
 11
453.764414
 21
443.272450
 31
0.0
 11
453.464146
 21
442.972182
 31
0.0
 11
453.040616
 21
442.858108
 31
0.0
  0
LWPOLYLINE
  5
102
100
AcDbEntity
  8
Layer_1
 62
5
100
AcDbPolyline
 90
2
 70
1
 10
453.040616
 20
442.858108
 30
0.0
 10
166.730864
 20
442.858108
 30
0.0
  0
LWPOLYLINE
  5
103
100
AcDbEntity
  8
Layer_1
 62
5
100
AcDbPolyline
 90
2
 70
1
 10
166.730864
 20
444.533852
 30
0.0
 10
166.730864
 20
444.533852
 30
0.0
  0
SPLINE
  5
104
100
AcDbEntity
  8
Layer_1
 62
5
100
AcDbSpline
 70
0
 71
3
 72
13
 73
9
 74
7
 40
0.000000
 40
0.000000
 40
0.000000
 40
0.000000
 40
0.438620
 40
0.863264
 40
1.301888
 40
1.740512
 40
2.165156
 40
2.603777
 40
2.603777
 40
2.603777
 40
2.603777
 10
166.730864
 20
442.858108
 30
0.0
 10
166.582937
 20
442.880973
 30
0.0
 10
166.291797
 20
442.925974
 30
0.0
 10
165.971047
 20
443.259519
 30
0.0
 10
165.853332
 20
443.695980
 30
0.0
 10
165.971047
 20
444.132440
 30
0.0
 10
166.291797
 20
444.465986
 30
0.0
 10
166.582937
 20
444.510987
 30
0.0
 10
166.730864
 20
444.533852
 30
0.0
 11
166.730864
 21
442.858108
 31
0.0
 11
166.307337
 21
442.972182
 31
0.0
 11
166.007068
 21
443.272450
 31
0.0
 11
165.892992
 21
443.695980
 31
0.0
 11
166.007068
 21
444.119510
 31
0.0
 11
166.307337
 21
444.419778
 31
0.0
 11
166.730864
 21
444.533852
 31
0.0
  0
LWPOLYLINE
  5
105
100
AcDbEntity
  8
Layer_1
 62
7
100
AcDbPolyline
 90
2
 70
1
 10
152.478224
 20
500.169068
 30
0.0
 10
472.076056
 20
500.169068
 30
0.0
  0
SPLINE
  5
106
100
AcDbEntity
  8
Layer_1
 62
7
100
AcDbSpline
 70
0
 71
3
 72
10
 73
6
 74
4
 40
0.000000
 40
0.000000
 40
0.000000
 40
0.000000
 40
5.252857
 40
10.336076
 40
15.584325
 40
15.584325
 40
15.584325
 40
15.584325
 10
472.076056
 20
500.169068
 30
0.0
 10
473.837049
 20
499.895620
 30
0.0
 10
477.302164
 20
499.357556
 30
0.0
 10
481.297677
 20
495.367589
 30
0.0
 10
481.836984
 20
491.903892
 30
0.0
 10
482.110944
 20
490.144380
 30
0.0
 11
472.076056
 21
500.169068
 31
0.0
 11
477.148503
 21
498.804227
 31
0.0
 11
480.744711
 21
495.211679
 31
0.0
 11
482.110944
 21
490.144380
 31
0.0
  0
LWPOLYLINE
  5
107
100
AcDbEntity
  8
Layer_1
 62
7
100
AcDbPolyline
 90
2
 70
1
 10
482.110944
 20
490.144380
 30
0.0
 10
482.110944
 20
425.727476
 30
0.0
  0
SPLINE
  5
108
100
AcDbEntity
  8
Layer_1
 62
7
100
AcDbSpline
 70
0
 71
3
 72
10
 73
6
 74
4
 40
0.000000
 40
0.000000
 40
0.000000
 40
0.000000
 40
5.248245
 40
10.331466
 40
15.584323
 40
15.584323
 40
15.584323
 40
15.584323
 10
482.110944
 20
425.727476
 30
0.0
 10
481.836983
 20
423.967965
 30
0.0
 10
481.297676
 20
420.504269
 30
0.0
 10
477.302164
 20
416.514301
 30
0.0
 10
473.837049
 20
415.976236
 30
0.0
 10
472.076056
 20
415.702788
 30
0.0
 11
482.110944
 21
425.727476
 31
0.0
 11
480.744711
 21
420.660180
 31
0.0
 11
477.148503
 21
417.067630
 31
0.0
 11
472.076056
 21
415.702788
 31
0.0
  0
LWPOLYLINE
  5
109
100
AcDbEntity
  8
Layer_1
 62
7
100
AcDbPolyline
 90
2
 70
1
 10
472.076056
 20
415.702788
 30
0.0
 10
152.478224
 20
415.702788
 30
0.0
  0
SPLINE
  5
10a
100
AcDbEntity
  8
Layer_1
 62
7
100
AcDbSpline
 70
0
 71
3
 72
10
 73
6
 74
4
 40
0.000000
 40
0.000000
 40
0.000000
 40
0.000000
 40
5.252859
 40
10.336075
 40
15.584319
 40
15.584319
 40
15.584319
 40
15.584319
 10
152.478224
 20
415.702788
 30
0.0
 10
150.717230
 20
415.976235
 30
0.0
 10
147.252115
 20
416.514299
 30
0.0
 10
143.256608
 20
420.504271
 30
0.0
 10
142.717303
 20
423.967965
 30
0.0
 10
142.443344
 20
425.727476
 30
0.0
 11
152.478224
 21
415.702788
 31
0.0
 11
147.405776
 21
417.067630
 31
0.0
 11
143.809573
 21
420.660180
 31
0.0
 11
142.443344
 21
425.727476
 31
0.0
  0
LWPOLYLINE
  5
10b
100
AcDbEntity
  8
Layer_1
 62
7
100
AcDbPolyline
 90
2
 70
1
 10
142.443344
 20
425.727476
 30
0.0
 10
142.443344
 20
490.144380
 30
0.0
  0
SPLINE
  5
10c
100
AcDbEntity
  8
Layer_1
 62
7
100
AcDbSpline
 70
0
 71
3
 72
10
 73
6
 74
4
 40
0.000000
 40
0.000000
 40
0.000000
 40
0.000000
 40
5.248247
 40
10.331463
 40
15.584321
 40
15.584321
 40
15.584321
 40
15.584321
 10
142.443344
 20
490.144380
 30
0.0
 10
142.717303
 20
491.903892
 30
0.0
 10
143.256607
 20
495.367587
 30
0.0
 10
147.252115
 20
499.357558
 30
0.0
 10
150.717231
 20
499.895621
 30
0.0
 10
152.478224
 20
500.169068
 30
0.0
 11
142.443344
 21
490.144380
 31
0.0
 11
143.809573
 21
495.211679
 31
0.0
 11
147.405776
 21
498.804227
 31
0.0
 11
152.478224
 21
500.169068
 31
0.0
  0
SPLINE
  5
10d
100
AcDbEntity
  8
Layer_1
 62
5
100
AcDbSpline
 70
0
 71
3
 72
19
 73
15
 74
13
 40
0.000000
 40
0.000000
 40
0.000000
 40
0.000000
 40
0.693041
 40
1.365575
 40
2.058616
 40
2.751660
 40
3.424195
 40
4.117239
 40
4.810280
 40
5.482814
 40
6.175856
 40
6.868900
 40
7.541436
 40
8.234481
 40
8.234481
 40
8.234481
 40
8.234481
 10
157.309504
 20
484.550388
 30
0.0
 10
157.437839
 20
484.351774
 30
0.0
 10
157.690712
 20
483.960423
 30
0.0
 10
157.634905
 20
483.230971
 30
0.0
 10
157.247172
 20
482.632072
 30
0.0
 10
156.603861
 20
482.307800
 30
0.0
 10
155.888478
 20
482.346819
 30
0.0
 10
155.284860
 20
482.737422
 30
0.0
 10
154.960346
 20
483.378995
 30
0.0
 10
154.997268
 20
484.094487
 30
0.0
 10
155.387811
 20
484.699860
 30
0.0
 10
156.024386
 20
485.022024
 30
0.0
 10
156.755652
 20
485.000306
 30
0.0
 10
157.118038
 20
484.707427
 30
0.0
 10
157.301952
 20
484.558788
 30
0.0
 11
157.309504
 21
484.550388
 31
0.0
 11
157.619843
 21
483.930714
 31
0.0
 11
157.582056
 21
483.259243
 31
0.0
 11
157.204152
 21
482.678300
 31
0.0
 11
156.585139
 21
482.366640
 31
0.0
 11
155.913587
 21
482.402998
 31
0.0
 11
155.331840
 21
482.779668
 31
0.0
 11
155.018866
 21
483.398016
 31
0.0
 11
155.053795
 21
484.069642
 31
0.0
 11
155.429224
 21
484.652188
 31
0.0
 11
156.046906
 21
484.966480
 31
0.0
 11
156.718607
 21
484.932979
 31
0.0
 11
157.301952
 21
484.558788
 31
0.0
  0
SPLINE
  5
10e
100
AcDbEntity
  8
Layer_1
 62
5
100
AcDbSpline
 70
0
 71
3
 72
19
 73
15
 74
13
 40
0.000000
 40
0.000000
 40
0.000000
 40
0.000000
 40
0.693045
 40
1.365582
 40
2.058627
 40
2.751671
 40
3.424206
 40
4.117250
 40
4.810295
 40
5.482832
 40
6.175878
 40
6.868918
 40
7.541451
 40
8.234491
 40
8.234491
 40
8.234491
 40
8.234491
 10
157.207504
 20
467.369580
 30
0.0
 10
157.335841
 20
467.170965
 30
0.0
 10
157.588716
 20
466.779613
 30
0.0
 10
157.532909
 20
466.050156
 30
0.0
 10
157.145173
 20
465.451257
 30
0.0
 10
156.501861
 20
465.126984
 30
0.0
 10
155.786478
 20
465.166003
 30
0.0
 10
155.182859
 20
465.556607
 30
0.0
 10
154.858341
 20
466.198180
 30
0.0
 10
154.895264
 20
466.913677
 30
0.0
 10
155.285809
 20
467.519051
 30
0.0
 10
155.922384
 20
467.841212
 30
0.0
 10
156.653645
 20
467.819494
 30
0.0
 10
157.016030
 20
467.526617
 30
0.0
 10
157.199944
 20
467.377980
 30
0.0
 11
157.207504
 21
467.369580
 31
0.0
 11
157.517847
 21
466.749903
 31
0.0
 11
157.480060
 21
466.078429
 31
0.0
 11
157.102152
 21
465.497484
 31
0.0
 11
156.483139
 21
465.185824
 31
0.0
 11
155.811587
 21
465.222182
 31
0.0
 11
155.229840
 21
465.598852
 31
0.0
 11
154.916863
 21
466.217202
 31
0.0
 11
154.951792
 21
466.888831
 31
0.0
 11
155.327224
 21
467.471380
 31
0.0
 11
155.944904
 21
467.785668
 31
0.0
 11
156.616601
 21
467.752168
 31
0.0
 11
157.199944
 21
467.377980
 31
0.0
  0
SPLINE
  5
10f
100
AcDbEntity
  8
Layer_1
 62
5
100
AcDbSpline
 70
0
 71
3
 72
19
 73
15
 74
13
 40
0.000000
 40
0.000000
 40
0.000000
 40
0.000000
 40
0.693045
 40
1.365582
 40
2.058627
 40
2.751671
 40
3.424206
 40
4.117250
 40
4.810295
 40
5.482832
 40
6.175878
 40
6.868918
 40
7.541451
 40
8.234491
 40
8.234491
 40
8.234491
 40
8.234491
 10
157.207504
 20
450.444532
 30
0.0
 10
157.335841
 20
450.245917
 30
0.0
 10
157.588716
 20
449.854565
 30
0.0
 10
157.532909
 20
449.125108
 30
0.0
 10
157.145173
 20
448.526209
 30
0.0
 10
156.501861
 20
448.201936
 30
0.0
 10
155.786478
 20
448.240955
 30
0.0
 10
155.182859
 20
448.631559
 30
0.0
 10
154.858341
 20
449.273132
 30
0.0
 10
154.895264
 20
449.988629
 30
0.0
 10
155.285809
 20
450.594003
 30
0.0
 10
155.922384
 20
450.916164
 30
0.0
 10
156.653645
 20
450.894446
 30
0.0
 10
157.016030
 20
450.601569
 30
0.0
 10
157.199944
 20
450.452932
 30
0.0
 11
157.207504
 21
450.444532
 31
0.0
 11
157.517847
 21
449.824855
 31
0.0
 11
157.480060
 21
449.153381
 31
0.0
 11
157.102152
 21
448.572436
 31
0.0
 11
156.483139
 21
448.260776
 31
0.0
 11
155.811587
 21
448.297134
 31
0.0
 11
155.229840
 21
448.673804
 31
0.0
 11
154.916863
 21
449.292154
 31
0.0
 11
154.951792
 21
449.963783
 31
0.0
 11
155.327224
 21
450.546332
 31
0.0
 11
155.944904
 21
450.860620
 31
0.0
 11
156.616601
 21
450.827120
 31
0.0
 11
157.199944
 21
450.452932
 31
0.0
  0
SPLINE
  5
110
100
AcDbEntity
  8
Layer_1
 62
5
100
AcDbSpline
 70
0
 71
3
 72
19
 73
15
 74
13
 40
0.000000
 40
0.000000
 40
0.000000
 40
0.000000
 40
0.693045
 40
1.365582
 40
2.058627
 40
2.751671
 40
3.424206
 40
4.117250
 40
4.810295
 40
5.482832
 40
6.175878
 40
6.868922
 40
7.541458
 40
8.234502
 40
8.234502
 40
8.234502
 40
8.234502
 10
157.207488
 20
433.519484
 30
0.0
 10
157.335825
 20
433.320869
 30
0.0
 10
157.588700
 20
432.929517
 30
0.0
 10
157.532893
 20
432.200060
 30
0.0
 10
157.145157
 20
431.601161
 30
0.0
 10
156.501845
 20
431.276888
 30
0.0
 10
155.786462
 20
431.315907
 30
0.0
 10
155.182843
 20
431.706511
 30
0.0
 10
154.858326
 20
432.348084
 30
0.0
 10
154.895248
 20
433.063581
 30
0.0
 10
155.285794
 20
433.668955
 30
0.0
 10
155.922370
 20
433.991121
 30
0.0
 10
156.653636
 20
433.969402
 30
0.0
 10
157.016022
 20
433.676523
 30
0.0
 10
157.199936
 20
433.527884
 30
0.0
 11
157.207488
 21
433.519484
 31
0.0
 11
157.517831
 21
432.899807
 31
0.0
 11
157.480044
 21
432.228333
 31
0.0
 11
157.102136
 21
431.647388
 31
0.0
 11
156.483123
 21
431.335728
 31
0.0
 11
155.811571
 21
431.372086
 31
0.0
 11
155.229824
 21
431.748756
 31
0.0
 11
154.916847
 21
432.367106
 31
0.0
 11
154.951776
 21
433.038735
 31
0.0
 11
155.327208
 21
433.621284
 31
0.0
 11
155.944890
 21
433.935576
 31
0.0
 11
156.616591
 21
433.902075
 31
0.0
 11
157.199936
 21
433.527884
 31
0.0
  0
SPLINE
  5
111
100
AcDbEntity
  8
Layer_1
 62
5
100
AcDbSpline
 70
0
 71
3
 72
19
 73
15
 74
13
 40
0.000000
 40
0.000000
 40
0.000000
 40
0.000000
 40
0.693045
 40
1.365582
 40
2.058627
 40
2.751671
 40
3.424206
 40
4.117250
 40
4.810295
 40
5.482832
 40
6.175878
 40
6.868922
 40
7.541458
 40
8.234502
 40
8.234502
 40
8.234502
 40
8.234502
 10
466.833784
 20
484.090820
 30
0.0
 10
466.962121
 20
483.892205
 30
0.0
 10
467.214996
 20
483.500853
 30
0.0
 10
467.159189
 20
482.771396
 30
0.0
 10
466.771453
 20
482.172497
 30
0.0
 10
466.128141
 20
481.848224
 30
0.0
 10
465.412758
 20
481.887243
 30
0.0
 10
464.809139
 20
482.277847
 30
0.0
 10
464.484622
 20
482.919420
 30
0.0
 10
464.521544
 20
483.634917
 30
0.0
 10
464.912090
 20
484.240291
 30
0.0
 10
465.548666
 20
484.562457
 30
0.0
 10
466.279932
 20
484.540738
 30
0.0
 10
466.642318
 20
484.247859
 30
0.0
 10
466.826232
 20
484.099220
 30
0.0
 11
466.833784
 21
484.090820
 31
0.0
 11
467.144127
 21
483.471143
 31
0.0
 11
467.106340
 21
482.799669
 31
0.0
 11
466.728432
 21
482.218724
 31
0.0
 11
466.109419
 21
481.907064
 31
0.0
 11
465.437867
 21
481.943422
 31
0.0
 11
464.856120
 21
482.320092
 31
0.0
 11
464.543143
 21
482.938442
 31
0.0
 11
464.578072
 21
483.610071
 31
0.0
 11
464.953504
 21
484.192620
 31
0.0
 11
465.571186
 21
484.506912
 31
0.0
 11
466.242887
 21
484.473411
 31
0.0
 11
466.826232
 21
484.099220
 31
0.0
  0
SPLINE
  5
112
100
AcDbEntity
  8
Layer_1
 62
5
100
AcDbSpline
 70
0
 71
3
 72
19
 73
15
 74
13
 40
0.000000
 40
0.000000
 40
0.000000
 40
0.000000
 40
0.693045
 40
1.365582
 40
2.058627
 40
2.751671
 40
3.424206
 40
4.117250
 40
4.810295
 40
5.482832
 40
6.175877
 40
6.868921
 40
7.541457
 40
8.234502
 40
8.234502
 40
8.234502
 40
8.234502
 10
466.731784
 20
466.910012
 30
0.0
 10
466.860121
 20
466.711397
 30
0.0
 10
467.112996
 20
466.320045
 30
0.0
 10
467.057189
 20
465.590588
 30
0.0
 10
466.669453
 20
464.991689
 30
0.0
 10
466.026141
 20
464.667416
 30
0.0
 10
465.310758
 20
464.706435
 30
0.0
 10
464.707140
 20
465.097040
 30
0.0
 10
464.382619
 20
465.738611
 30
0.0
 10
464.419539
 20
466.454107
 30
0.0
 10
464.810082
 20
467.059484
 30
0.0
 10
465.446658
 20
467.381648
 30
0.0
 10
466.177924
 20
467.359930
 30
0.0
 10
466.540310
 20
467.067051
 30
0.0
 10
466.724224
 20
466.918412
 30
0.0
 11
466.731784
 21
466.910012
 31
0.0
 11
467.042127
 21
466.290335
 31
0.0
 11
467.004340
 21
465.618861
 31
0.0
 11
466.626432
 21
465.037916
 31
0.0
 11
466.007419
 21
464.726256
 31
0.0
 11
465.335867
 21
464.762614
 31
0.0
 11
464.754120
 21
465.139284
 31
0.0
 11
464.441140
 21
465.757633
 31
0.0
 11
464.476066
 21
466.429262
 31
0.0
 11
464.851496
 21
467.011812
 31
0.0
 11
465.469178
 21
467.326104
 31
0.0
 11
466.140879
 21
467.292603
 31
0.0
 11
466.724224
 21
466.918412
 31
0.0
  0
SPLINE
  5
113
100
AcDbEntity
  8
Layer_1
 62
5
100
AcDbSpline
 70
0
 71
3
 72
19
 73
15
 74
13
 40
0.000000
 40
0.000000
 40
0.000000
 40
0.000000
 40
0.693045
 40
1.365582
 40
2.058627
 40
2.751671
 40
3.424206
 40
4.117250
 40
4.810295
 40
5.482832
 40
6.175877
 40
6.868921
 40
7.541457
 40
8.234502
 40
8.234502
 40
8.234502
 40
8.234502
 10
466.731784
 20
449.984964
 30
0.0
 10
466.860121
 20
449.786349
 30
0.0
 10
467.112996
 20
449.394997
 30
0.0
 10
467.057189
 20
448.665540
 30
0.0
 10
466.669453
 20
448.066641
 30
0.0
 10
466.026141
 20
447.742368
 30
0.0
 10
465.310758
 20
447.781387
 30
0.0
 10
464.707140
 20
448.171992
 30
0.0
 10
464.382619
 20
448.813563
 30
0.0
 10
464.419539
 20
449.529059
 30
0.0
 10
464.810082
 20
450.134436
 30
0.0
 10
465.446658
 20
450.456600
 30
0.0
 10
466.177924
 20
450.434882
 30
0.0
 10
466.540310
 20
450.142003
 30
0.0
 10
466.724224
 20
449.993364
 30
0.0
 11
466.731784
 21
449.984964
 31
0.0
 11
467.042127
 21
449.365287
 31
0.0
 11
467.004340
 21
448.693813
 31
0.0
 11
466.626432
 21
448.112868
 31
0.0
 11
466.007419
 21
447.801208
 31
0.0
 11
465.335867
 21
447.837566
 31
0.0
 11
464.754120
 21
448.214236
 31
0.0
 11
464.441140
 21
448.832585
 31
0.0
 11
464.476066
 21
449.504214
 31
0.0
 11
464.851496
 21
450.086764
 31
0.0
 11
465.469178
 21
450.401056
 31
0.0
 11
466.140879
 21
450.367555
 31
0.0
 11
466.724224
 21
449.993364
 31
0.0
  0
LWPOLYLINE
  5
114
100
AcDbEntity
  8
Layer_1
 62
7
100
AcDbPolyline
 90
2
 70
1
 10
152.478224
 20
500.169068
 30
0.0
 10
152.478224
 20
500.169068
 30
0.0
  0
SPLINE
  5
115
100
AcDbEntity
  8
Layer_1
 62
5
100
AcDbSpline
 70
0
 71
3
 72
19
 73
15
 74
13
 40
0.000000
 40
0.000000
 40
0.000000
 40
0.000000
 40
0.693045
 40
1.365582
 40
2.058627
 40
2.751671
 40
3.424206
 40
4.117250
 40
4.810291
 40
5.482825
 40
6.175866
 40
6.868910
 40
7.541446
 40
8.234490
 40
8.234490
 40
8.234490
 40
8.234490
 10
466.731784
 20
433.059892
 30
0.0
 10
466.860121
 20
432.861277
 30
0.0
 10
467.112996
 20
432.469925
 30
0.0
 10
467.057189
 20
431.740468
 30
0.0
 10
466.669453
 20
431.141569
 30
0.0
 10
466.026141
 20
430.817296
 30
0.0
 10
465.310758
 20
430.856315
 30
0.0
 10
464.707140
 20
431.246919
 30
0.0
 10
464.382623
 20
431.888489
 30
0.0
 10
464.419543
 20
432.603981
 30
0.0
 10
464.810083
 20
433.209356
 30
0.0
 10
465.446657
 20
433.531523
 30
0.0
 10
466.177922
 20
433.509807
 30
0.0
 10
466.540309
 20
433.216930
 30
0.0
 10
466.724224
 20
433.068292
 30
0.0
 11
466.731784
 21
433.059892
 31
0.0
 11
467.042127
 21
432.440215
 31
0.0
 11
467.004340
 21
431.768741
 31
0.0
 11
466.626432
 21
431.187796
 31
0.0
 11
466.007419
 21
430.876136
 31
0.0
 11
465.335867
 21
430.912494
 31
0.0
 11
464.754120
 21
431.289164
 31
0.0
 11
464.441144
 21
431.907510
 31
0.0
 11
464.476070
 21
432.579136
 31
0.0
 11
464.851496
 21
433.161684
 31
0.0
 11
465.469177
 21
433.475978
 31
0.0
 11
466.140878
 21
433.442481
 31
0.0
 11
466.724224
 21
433.068292
 31
0.0
  0
LWPOLYLINE
  5
116
100
AcDbEntity
  8
Layer_1
 62
5
100
AcDbPolyline
 90
2
 70
1
 10
166.730864
 20
473.319332
 30
0.0
 10
453.040616
 20
473.319332
 30
0.0
  0
SPLINE
  5
117
100
AcDbEntity
  8
Layer_1
 62
5
100
AcDbSpline
 70
0
 71
3
 72
13
 73
9
 74
7
 40
0.000000
 40
0.000000
 40
0.000000
 40
0.000000
 40
0.438624
 40
0.863270
 40
1.301895
 40
1.740515
 40
2.165159
 40
2.603783
 40
2.603783
 40
2.603783
 40
2.603783
 10
453.040616
 20
473.319332
 30
0.0
 10
453.188544
 20
473.296467
 30
0.0
 10
453.479687
 20
473.251465
 30
0.0
 10
453.800434
 20
472.917914
 30
0.0
 10
453.918147
 20
472.481454
 30
0.0
 10
453.800433
 20
472.044994
 30
0.0
 10
453.479686
 20
471.711446
 30
0.0
 10
453.188544
 20
471.666445
 30
0.0
 10
453.040616
 20
471.643580
 30
0.0
 11
453.040616
 21
473.319332
 31
0.0
 11
453.464146
 21
473.205256
 31
0.0
 11
453.764414
 21
472.904984
 31
0.0
 11
453.878488
 21
472.481452
 31
0.0
 11
453.764414
 21
472.057925
 31
0.0
 11
453.464146
 21
471.757656
 31
0.0
 11
453.040616
 21
471.643580
 31
0.0
  0
LWPOLYLINE
  5
118
100
AcDbEntity
  8
Layer_1
 62
5
100
AcDbPolyline
 90
2
 70
1
 10
453.040616
 20
471.643580
 30
0.0
 10
166.730864
 20
471.643580
 30
0.0
  0
LWPOLYLINE
  5
119
100
AcDbEntity
  8
Layer_1
 62
5
100
AcDbPolyline
 90
2
 70
1
 10
166.730864
 20
473.319332
 30
0.0
 10
166.730864
 20
473.319332
 30
0.0
  0
SPLINE
  5
11a
100
AcDbEntity
  8
Layer_1
 62
5
100
AcDbSpline
 70
0
 71
3
 72
13
 73
9
 74
7
 40
0.000000
 40
0.000000
 40
0.000000
 40
0.000000
 40
0.438621
 40
0.863266
 40
1.301887
 40
1.740513
 40
2.165159
 40
2.603780
 40
2.603780
 40
2.603780
 40
2.603780
 10
166.730864
 20
471.643580
 30
0.0
 10
166.582937
 20
471.666445
 30
0.0
 10
166.291796
 20
471.711447
 30
0.0
 10
165.971049
 20
472.044994
 30
0.0
 10
165.853332
 20
472.481454
 30
0.0
 10
165.971048
 20
472.917914
 30
0.0
 10
166.291796
 20
473.251464
 30
0.0
 10
166.582937
 20
473.296466
 30
0.0
 10
166.730864
 20
473.319332
 30
0.0
 11
166.730864
 21
471.643580
 31
0.0
 11
166.307337
 21
471.757656
 31
0.0
 11
166.007068
 21
472.057925
 31
0.0
 11
165.892992
 21
472.481452
 31
0.0
 11
166.007068
 21
472.904984
 31
0.0
 11
166.307337
 21
473.205256
 31
0.0
 11
166.730864
 21
473.319332
 31
0.0
  0
LWPOLYLINE
  5
11b
100
AcDbEntity
  8
Layer_1
 62
5
100
AcDbPolyline
 90
5
 70
1
 10
101.130488
 20
548.944404
 30
0.0
 10
502.199432
 20
548.944404
 30
0.0
 10
502.199432
 20
390.730172
 30
0.0
 10
101.130488
 20
390.730172
 30
0.0
 10
101.130488
 20
548.944404
 30
0.0
  0
ENDSEC
  0
SECTION
  2
OBJECTS
  0
DICTIONARY
  5
C
330
0
100
AcDbDictionary
  3
ACAD_GROUP
350
D
  3
ACAD_MLINESTYLE
350
17
  0
DICTIONARY
  5
D
330
C
100
AcDbDictionary
  0
DICTIONARY
  5
1A
330
C
100
AcDbDictionary
  0
DICTIONARY
  5
17
330
C
100
AcDbDictionary
  3
STANDARD
350
18
  0
DICTIONARY
  5
19
330
C
100
AcDbDictionary
  0
ENDSEC
  0
EOF
