  0
SECTION
  2
HEADER
  9
$ACADVER
  1
AC1009
  9
$EXTMIN
 10
4.00012371
 20
3.99973196
 30
0.0
  9
$EXTMAX
 10
236.00030928
 20
192.76288660
 30
0.0
  0
ENDSEC
  0
SECTION
  2
TABLES
  0
TABLE
  2
LAYER
 70
1
 0
LAYER
 2
Default Layer
 70
0
 62
18
 6
CONTINUOUS
 0
ENDTAB
 0
ENDSEC
  0
SECTION
  2
ENTITIES
  0
POLYLINE
  8
Default Layer
 62
256
 66
   1
 39
0.000000
 70
    1
  0
VERTEX
  8
0
 10
117.32423942
 20
18.01516503
  0
VERTEX
  8
0
 10
117.33740478
 20
18.27588771
  0
VERTEX
  8
0
 10
117.37604635
 20
18.52907897
  0
VERTEX
  8
0
 10
117.43888237
 20
18.77345702
  0
VERTEX
  8
0
 10
117.52463106
 20
19.00774011
  0
VERTEX
  8
0
 10
117.63201065
 20
19.23064645
  0
VERTEX
  8
0
 10
117.75973937
 20
19.44089428
  0
VERTEX
  8
0
 10
117.90653545
 20
19.63720182
  0
VERTEX
  8
0
 10
118.07111713
 20
19.81828732
  0
VERTEX
  8
0
 10
118.25220262
 20
19.98286899
  0
VERTEX
  8
0
 10
118.44851017
 20
20.12966508
  0
VERTEX
  8
0
 10
118.65875800
 20
20.25739380
  0
VERTEX
  8
0
 10
118.88166434
 20
20.36477339
  0
VERTEX
  8
0
 10
119.11594742
 20
20.45052208
  0
VERTEX
  8
0
 10
119.36032547
 20
20.51335809
  0
VERTEX
  8
0
 10
119.61351673
 20
20.55199967
  0
VERTEX
  8
0
 10
119.87423942
 20
20.56516503
  0
VERTEX
  8
0
 10
120.13496210
 20
20.55199967
  0
VERTEX
  8
0
 10
120.38815336
 20
20.51335809
  0
VERTEX
  8
0
 10
120.63253141
 20
20.45052208
  0
VERTEX
  8
0
 10
120.86681450
 20
20.36477339
  0
VERTEX
  8
0
 10
121.08972084
 20
20.25739380
  0
VERTEX
  8
0
 10
121.29996867
 20
20.12966508
  0
VERTEX
  8
0
 10
121.49627621
 20
19.98286899
  0
VERTEX
  8
0
 10
121.67736171
 20
19.81828732
  0
VERTEX
  8
0
 10
121.84194338
 20
19.63720182
  0
VERTEX
  8
0
 10
121.98873947
 20
19.44089428
  0
VERTEX
  8
0
 10
122.11646819
 20
19.23064645
  0
VERTEX
  8
0
 10
122.22384778
 20
19.00774011
  0
VERTEX
  8
0
 10
122.30959646
 20
18.77345702
  0
VERTEX
  8
0
 10
122.37243248
 20
18.52907897
  0
VERTEX
  8
0
 10
122.41107405
 20
18.27588771
  0
VERTEX
  8
0
 10
122.42423942
 20
18.01516503
  0
VERTEX
  8
0
 10
122.41107405
 20
17.75444234
  0
VERTEX
  8
0
 10
122.37243248
 20
17.50125109
  0
VERTEX
  8
0
 10
122.30959646
 20
17.25687303
  0
VERTEX
  8
0
 10
122.22384778
 20
17.02258995
  0
VERTEX
  8
0
 10
122.11646819
 20
16.79968361
  0
VERTEX
  8
0
 10
121.98873947
 20
16.58943578
  0
VERTEX
  8
0
 10
121.84194338
 20
16.39312823
  0
VERTEX
  8
0
 10
121.67736171
 20
16.21204274
  0
VERTEX
  8
0
 10
121.49627621
 20
16.04746106
  0
VERTEX
  8
0
 10
121.29996867
 20
15.90066498
  0
VERTEX
  8
0
 10
121.08972084
 20
15.77293626
  0
VERTEX
  8
0
 10
120.86681450
 20
15.66555667
  0
VERTEX
  8
0
 10
120.63253141
 20
15.57980798
  0
VERTEX
  8
0
 10
120.38815336
 20
15.51697196
  0
VERTEX
  8
0
 10
120.13496210
 20
15.47833039
  0
VERTEX
  8
0
 10
119.87423942
 20
15.46516503
  0
VERTEX
  8
0
 10
119.61351673
 20
15.47833039
  0
VERTEX
  8
0
 10
119.36032547
 20
15.51697196
  0
VERTEX
  8
0
 10
119.11594742
 20
15.57980798
  0
VERTEX
  8
0
 10
118.88166434
 20
15.66555667
  0
VERTEX
  8
0
 10
118.65875800
 20
15.77293626
  0
VERTEX
  8
0
 10
118.44851017
 20
15.90066498
  0
VERTEX
  8
0
 10
118.25220262
 20
16.04746106
  0
VERTEX
  8
0
 10
118.07111713
 20
16.21204274
  0
VERTEX
  8
0
 10
117.90653545
 20
16.39312823
  0
VERTEX
  8
0
 10
117.75973937
 20
16.58943578
  0
VERTEX
  8
0
 10
117.63201065
 20
16.79968361
  0
VERTEX
  8
0
 10
117.52463106
 20
17.02258995
  0
VERTEX
  8
0
 10
117.43888237
 20
17.25687303
  0
VERTEX
  8
0
 10
117.37604635
 20
17.50125109
  0
VERTEX
  8
0
 10
117.33740478
 20
17.75444234
  0
VERTEX
  8
0
 10
117.32423942
 20
18.01516503
  0
SEQEND
  0
POLYLINE
  8
Default Layer
 62
256
 66
   1
 39
0.000000
 70
    1
  0
VERTEX
  8
0
 10
113.87423942
 20
18.01516503
  0
VERTEX
  8
0
 10
113.88204658
 20
18.32392423
  0
VERTEX
  8
0
 10
113.90521674
 20
18.62863017
  0
VERTEX
  8
0
 10
113.94337291
 20
18.92890586
  0
VERTEX
  8
0
 10
113.99613809
 20
19.22437430
  0
VERTEX
  8
0
 10
114.14398754
 20
19.79938149
  0
VERTEX
  8
0
 10
114.34574916
 20
20.35063580
  0
VERTEX
  8
0
 10
114.59840702
 20
20.87512131
  0
VERTEX
  8
0
 10
114.89894518
 20
21.36982208
  0
VERTEX
  8
0
 10
115.24434773
 20
21.83172220
  0
VERTEX
  8
0
 10
115.63159873
 20
22.25780572
  0
VERTEX
  8
0
 10
116.05768225
 20
22.64505671
  0
VERTEX
  8
0
 10
116.51958236
 20
22.99045926
  0
VERTEX
  8
0
 10
117.01428314
 20
23.29099743
  0
VERTEX
  8
0
 10
117.53876864
 20
23.54365529
  0
VERTEX
  8
0
 10
118.09002296
 20
23.74541690
  0
VERTEX
  8
0
 10
118.66503014
 20
23.89326635
  0
VERTEX
  8
0
 10
118.96049858
 20
23.94603154
  0
VERTEX
  8
0
 10
119.26077427
 20
23.98418770
  0
VERTEX
  8
0
 10
119.56548021
 20
24.00735787
  0
VERTEX
  8
0
 10
119.87423942
 20
24.01516503
  0
VERTEX
  8
0
 10
120.18299862
 20
24.00735787
  0
VERTEX
  8
0
 10
120.48770456
 20
23.98418770
  0
VERTEX
  8
0
 10
120.78798025
 20
23.94603154
  0
VERTEX
  8
0
 10
121.08344869
 20
23.89326635
  0
VERTEX
  8
0
 10
121.65845588
 20
23.74541690
  0
VERTEX
  8
0
 10
122.20971019
 20
23.54365529
  0
VERTEX
  8
0
 10
122.73419570
 20
23.29099743
  0
VERTEX
  8
0
 10
123.22889647
 20
22.99045926
  0
VERTEX
  8
0
 10
123.69079658
 20
22.64505671
  0
VERTEX
  8
0
 10
124.11688010
 20
22.25780572
  0
VERTEX
  8
0
 10
124.50413110
 20
21.83172220
  0
VERTEX
  8
0
 10
124.84953365
 20
21.36982208
  0
VERTEX
  8
0
 10
125.15007182
 20
20.87512131
  0
VERTEX
  8
0
 10
125.40272967
 20
20.35063580
  0
VERTEX
  8
0
 10
125.60449129
 20
19.79938149
  0
VERTEX
  8
0
 10
125.75234074
 20
19.22437430
  0
VERTEX
  8
0
 10
125.80510593
 20
18.92890586
  0
VERTEX
  8
0
 10
125.84326209
 20
18.62863017
  0
VERTEX
  8
0
 10
125.86643225
 20
18.32392423
  0
VERTEX
  8
0
 10
125.87423942
 20
18.01516503
  0
VERTEX
  8
0
 10
125.86643225
 20
17.70640582
  0
VERTEX
  8
0
 10
125.84326209
 20
17.40169988
  0
VERTEX
  8
0
 10
125.80510593
 20
17.10142419
  0
VERTEX
  8
0
 10
125.75234074
 20
16.80595575
  0
VERTEX
  8
0
 10
125.60449129
 20
16.23094857
  0
VERTEX
  8
0
 10
125.40272967
 20
15.67969426
  0
VERTEX
  8
0
 10
125.15007182
 20
15.15520875
  0
VERTEX
  8
0
 10
124.84953365
 20
14.66050797
  0
VERTEX
  8
0
 10
124.50413110
 20
14.19860786
  0
VERTEX
  8
0
 10
124.11688010
 20
13.77252434
  0
VERTEX
  8
0
 10
123.69079658
 20
13.38527334
  0
VERTEX
  8
0
 10
123.22889647
 20
13.03987079
  0
VERTEX
  8
0
 10
122.73419570
 20
12.73933263
  0
VERTEX
  8
0
 10
122.20971019
 20
12.48667477
  0
VERTEX
  8
0
 10
121.65845588
 20
12.28491315
  0
VERTEX
  8
0
 10
121.08344869
 20
12.13706370
  0
VERTEX
  8
0
 10
120.78798025
 20
12.08429852
  0
VERTEX
  8
0
 10
120.48770456
 20
12.04614235
  0
VERTEX
  8
0
 10
120.18299862
 20
12.02297219
  0
VERTEX
  8
0
 10
119.87423942
 20
12.01516503
  0
VERTEX
  8
0
 10
119.56548021
 20
12.02297219
  0
VERTEX
  8
0
 10
119.26077427
 20
12.04614235
  0
VERTEX
  8
0
 10
118.96049858
 20
12.08429852
  0
VERTEX
  8
0
 10
118.66503014
 20
12.13706370
  0
VERTEX
  8
0
 10
118.09002296
 20
12.28491315
  0
VERTEX
  8
0
 10
117.53876864
 20
12.48667477
  0
VERTEX
  8
0
 10
117.01428314
 20
12.73933263
  0
VERTEX
  8
0
 10
116.51958236
 20
13.03987079
  0
VERTEX
  8
0
 10
116.05768225
 20
13.38527334
  0
VERTEX
  8
0
 10
115.63159873
 20
13.77252434
  0
VERTEX
  8
0
 10
115.24434773
 20
14.19860786
  0
VERTEX
  8
0
 10
114.89894518
 20
14.66050797
  0
VERTEX
  8
0
 10
114.59840702
 20
15.15520875
  0
VERTEX
  8
0
 10
114.34574916
 20
15.67969426
  0
VERTEX
  8
0
 10
114.14398754
 20
16.23094857
  0
VERTEX
  8
0
 10
113.99613809
 20
16.80595575
  0
VERTEX
  8
0
 10
113.94337291
 20
17.10142419
  0
VERTEX
  8
0
 10
113.90521674
 20
17.40169988
  0
VERTEX
  8
0
 10
113.88204658
 20
17.70640582
  0
VERTEX
  8
0
 10
113.87423942
 20
18.01516503
  0
SEQEND
  0
POLYLINE
  8
Default Layer
 62
256
 66
   1
 39
0.000000
 70
    1
  0
VERTEX
  8
0
 10
117.56643152
 20
111.20959651
  0
VERTEX
  8
0
 10
121.81255479
 20
111.20959651
  0
VERTEX
  8
0
 10
121.88281969
 20
111.10803436
  0
VERTEX
  8
0
 10
121.97454191
 20
110.95020900
  0
VERTEX
  8
0
 10
122.05635813
 20
110.78834626
  0
VERTEX
  8
0
 10
122.12533324
 20
110.62061094
  0
VERTEX
  8
0
 10
122.18256791
 20
110.44847120
  0
VERTEX
  8
0
 10
122.22842902
 20
110.27229406
  0
VERTEX
  8
0
 10
122.26144902
 20
110.09428174
  0
VERTEX
  8
0
 10
122.28126102
 20
109.91370018
  0
VERTEX
  8
0
 10
122.29006635
 20
109.73311861
  0
VERTEX
  8
0
 10
122.28566369
 20
109.55106890
  0
VERTEX
  8
0
 10
122.26841991
 20
109.37048734
  0
VERTEX
  8
0
 10
122.23833502
 20
109.19100688
  0
VERTEX
  8
0
 10
122.19540902
 20
109.01482974
  0
VERTEX
  8
0
 10
122.14110947
 20
108.84122185
  0
VERTEX
  8
0
 10
122.07506947
 20
108.67201839
  0
VERTEX
  8
0
 10
121.99618835
 20
108.50868751
  0
VERTEX
  8
0
 10
121.90740124
 20
108.35086215
  0
VERTEX
  8
0
 10
121.81394399
 20
108.20959651
  0
VERTEX
  8
0
 10
117.56872043
 20
108.20959651
  0
VERTEX
  8
0
 10
117.49739680
 20
108.31232341
  0
VERTEX
  8
0
 10
117.40567458
 20
108.46868062
  0
VERTEX
  8
0
 10
117.32422524
 20
108.63201150
  0
VERTEX
  8
0
 10
117.25525013
 20
108.79974682
  0
VERTEX
  8
0
 10
117.19654791
 20
108.97188656
  0
VERTEX
  8
0
 10
117.15215435
 20
109.14659556
  0
VERTEX
  8
0
 10
117.11913435
 20
109.32607602
  0
VERTEX
  8
0
 10
117.09748791
 20
109.50665758
  0
VERTEX
  8
0
 10
117.09051702
 20
109.68723915
  0
VERTEX
  8
0
 10
117.09491969
 20
109.86928886
  0
VERTEX
  8
0
 10
117.11179658
 20
110.04987042
  0
VERTEX
  8
0
 10
117.14224835
 20
110.22935088
  0
VERTEX
  8
0
 10
117.18517435
 20
110.40552802
  0
VERTEX
  8
0
 10
117.23947391
 20
110.57766777
  0
VERTEX
  8
0
 10
117.30551391
 20
110.74687122
  0
VERTEX
  8
0
 10
117.38439502
 20
110.91167026
  0
VERTEX
  8
0
 10
117.47318213
 20
111.06949561
  0
VERTEX
  8
0
 10
117.56643152
 20
111.20959651
  0
SEQEND
  0
POLYLINE
  8
Default Layer
 62
256
 66
   1
 39
0.000000
 70
    1
  0
VERTEX
  8
0
 10
108.36259164
 20
115.18086266
  0
VERTEX
  8
0
 10
110.21467497
 20
115.46484877
  0
VERTEX
  8
0
 10
111.43846108
 20
115.32832377
  0
VERTEX
  8
0
 10
111.98561942
 20
115.11489321
  0
VERTEX
  8
0
 10
112.81535275
 20
114.50423488
  0
VERTEX
  8
0
 10
113.69447497
 20
114.44779044
  0
VERTEX
  8
0
 10
114.95248053
 20
115.70614877
  0
VERTEX
  8
0
 10
114.89603608
 20
116.58527099
  0
VERTEX
  8
0
 10
114.28573053
 20
117.41465155
  0
VERTEX
  8
0
 10
114.07194719
 20
117.96180988
  0
VERTEX
  8
0
 10
113.93542219
 20
119.18559599
  0
VERTEX
  8
0
 10
114.21799719
 20
121.03767932
  0
VERTEX
  8
0
 10
114.30760275
 20
121.24299599
  0
VERTEX
  8
0
 10
114.81736664
 20
121.47300710
  0
VERTEX
  8
0
 10
115.34124164
 20
121.67020988
  0
VERTEX
  8
0
 10
115.54938053
 20
121.58871821
  0
VERTEX
  8
0
 10
117.05962219
 20
120.47817377
  0
VERTEX
  8
0
 10
117.82832497
 20
119.51755988
  0
VERTEX
  8
0
 10
118.06398053
 20
118.97886821
  0
VERTEX
  8
0
 10
118.21990830
 20
117.96180988
  0
VERTEX
  8
0
 10
118.79987497
 20
117.29894044
  0
VERTEX
  8
0
 10
120.57893330
 20
117.29894044
  0
VERTEX
  8
0
 10
121.16066386
 20
117.96180988
  0
VERTEX
  8
0
 10
121.31623886
 20
118.97886821
  0
VERTEX
  8
0
 10
121.55189442
 20
119.51755988
  0
VERTEX
  8
0
 10
122.32094997
 20
120.47817377
  0
VERTEX
  8
0
 10
123.83119164
 20
121.58871821
  0
VERTEX
  8
0
 10
124.03933053
 20
121.67020988
  0
VERTEX
  8
0
 10
124.56285275
 20
121.47300710
  0
VERTEX
  8
0
 10
125.07155830
 20
121.24299599
  0
VERTEX
  8
0
 10
125.16116386
 20
121.03767932
  0
VERTEX
  8
0
 10
125.44338608
 20
119.18559599
  0
VERTEX
  8
0
 10
125.30862497
 20
117.96180988
  0
VERTEX
  8
0
 10
125.09484164
 20
117.41465155
  0
VERTEX
  8
0
 10
124.48453608
 20
116.58527099
  0
VERTEX
  8
0
 10
124.42809164
 20
115.70614877
  0
VERTEX
  8
0
 10
125.68609719
 20
114.44779044
  0
VERTEX
  8
0
 10
126.56380830
 20
114.50423488
  0
VERTEX
  8
0
 10
127.39495275
 20
115.11489321
  0
VERTEX
  8
0
 10
127.94175830
 20
115.32832377
  0
VERTEX
  8
0
 10
129.16554442
 20
115.46484877
  0
VERTEX
  8
0
 10
131.01762775
 20
115.18086266
  0
VERTEX
  8
0
 10
131.22294442
 20
115.09125710
  0
VERTEX
  8
0
 10
131.45330830
 20
114.58290432
  0
VERTEX
  8
0
 10
131.65015830
 20
114.05938210
  0
VERTEX
  8
0
 10
131.56901942
 20
113.85124321
  0
VERTEX
  8
0
 10
130.45812219
 20
112.34100155
  0
VERTEX
  8
0
 10
129.49786108
 20
111.57194599
  0
VERTEX
  8
0
 10
128.95881664
 20
111.33629044
  0
VERTEX
  8
0
 10
127.94175830
 20
111.18036266
  0
VERTEX
  8
0
 10
127.27924164
 20
110.59898488
  0
VERTEX
  8
0
 10
127.27924164
 20
108.81992655
  0
VERTEX
  8
0
 10
127.94175830
 20
108.23995988
  0
VERTEX
  8
0
 10
128.95881664
 20
108.08403210
  0
VERTEX
  8
0
 10
129.49786108
 20
107.84837655
  0
VERTEX
  8
0
 10
130.45812219
 20
107.07932099
  0
VERTEX
  8
0
 10
131.56901942
 20
105.56907932
  0
VERTEX
  8
0
 10
131.65015830
 20
105.36094044
  0
VERTEX
  8
0
 10
131.45330830
 20
104.83741821
  0
VERTEX
  8
0
 10
131.22294442
 20
104.32765432
  0
VERTEX
  8
0
 10
131.01762775
 20
104.23804877
  0
VERTEX
  8
0
 10
129.16554442
 20
103.95547377
  0
VERTEX
  8
0
 10
127.94175830
 20
104.09199877
  0
VERTEX
  8
0
 10
127.39495275
 20
104.30542932
  0
VERTEX
  8
0
 10
126.56380830
 20
104.91608766
  0
VERTEX
  8
0
 10
125.68609719
 20
104.97253210
  0
VERTEX
  8
0
 10
124.42809164
 20
103.71417377
  0
VERTEX
  8
0
 10
124.48453608
 20
102.83505155
  0
VERTEX
  8
0
 10
125.09484164
 20
102.00567099
  0
VERTEX
  8
0
 10
125.30862497
 20
101.45851266
  0
VERTEX
  8
0
 10
125.44338608
 20
100.23472655
  0
VERTEX
  8
0
 10
125.16116386
 20
98.38264321
  0
VERTEX
  8
0
 10
125.07155830
 20
98.17732655
  0
VERTEX
  8
0
 10
124.56285275
 20
97.94731544
  0
VERTEX
  8
0
 10
124.03933053
 20
97.75011266
  0
VERTEX
  8
0
 10
123.83119164
 20
97.83160432
  0
VERTEX
  8
0
 10
122.32094997
 20
98.94073766
  0
VERTEX
  8
0
 10
121.55189442
 20
99.90276266
  0
VERTEX
  8
0
 10
121.31623886
 20
100.44004321
  0
VERTEX
  8
0
 10
121.16066386
 20
101.45851266
  0
VERTEX
  8
0
 10
120.57893330
 20
102.11997099
  0
VERTEX
  8
0
 10
118.79987497
 20
102.11997099
  0
VERTEX
  8
0
 10
118.21990830
 20
101.45851266
  0
VERTEX
  8
0
 10
118.06398053
 20
100.44004321
  0
VERTEX
  8
0
 10
117.82832497
 20
99.90276266
  0
VERTEX
  8
0
 10
117.05962219
 20
98.94073766
  0
VERTEX
  8
0
 10
115.54938053
 20
97.83160432
  0
VERTEX
  8
0
 10
115.34124164
 20
97.75011266
  0
VERTEX
  8
0
 10
114.81736664
 20
97.94731544
  0
VERTEX
  8
0
 10
114.30760275
 20
98.17732655
  0
VERTEX
  8
0
 10
114.21799719
 20
98.38264321
  0
VERTEX
  8
0
 10
113.93542219
 20
100.23472655
  0
VERTEX
  8
0
 10
114.07194719
 20
101.45851266
  0
VERTEX
  8
0
 10
114.28573053
 20
102.00567099
  0
VERTEX
  8
0
 10
114.89603608
 20
102.83505155
  0
VERTEX
  8
0
 10
114.95248053
 20
103.71417377
  0
VERTEX
  8
0
 10
113.69447497
 20
104.97253210
  0
VERTEX
  8
0
 10
112.81535275
 20
104.91608766
  0
VERTEX
  8
0
 10
111.98561942
 20
104.30542932
  0
VERTEX
  8
0
 10
111.43846108
 20
104.09199877
  0
VERTEX
  8
0
 10
110.21467497
 20
103.95547377
  0
VERTEX
  8
0
 10
108.36259164
 20
104.23804877
  0
VERTEX
  8
0
 10
108.15727497
 20
104.32765432
  0
VERTEX
  8
0
 10
107.92726386
 20
104.83741821
  0
VERTEX
  8
0
 10
107.73006108
 20
105.36094044
  0
VERTEX
  8
0
 10
107.81155275
 20
105.56907932
  0
VERTEX
  8
0
 10
108.92068608
 20
107.07932099
  0
VERTEX
  8
0
 10
109.88271108
 20
107.84837655
  0
VERTEX
  8
0
 10
110.41999164
 20
108.08403210
  0
VERTEX
  8
0
 10
111.43846108
 20
108.23995988
  0
VERTEX
  8
0
 10
112.09991942
 20
108.81992655
  0
VERTEX
  8
0
 10
112.09991942
 20
110.59898488
  0
VERTEX
  8
0
 10
111.43846108
 20
111.18036266
  0
VERTEX
  8
0
 10
110.41999164
 20
111.33629044
  0
VERTEX
  8
0
 10
109.88271108
 20
111.57194599
  0
VERTEX
  8
0
 10
108.92068608
 20
112.34100155
  0
VERTEX
  8
0
 10
107.81155275
 20
113.85124321
  0
VERTEX
  8
0
 10
107.73006108
 20
114.05938210
  0
VERTEX
  8
0
 10
107.92726386
 20
114.58290432
  0
VERTEX
  8
0
 10
108.15727497
 20
115.09125710
  0
VERTEX
  8
0
 10
108.36259164
 20
115.18086266
  0
SEQEND
  0
POLYLINE
  8
Default Layer
 62
256
 66
   1
 39
0.000000
 70
    1
  0
VERTEX
  8
0
 10
17.08691753
 20
150.76288660
  0
VERTEX
  8
0
 10
17.10513424
 20
151.48332474
  0
VERTEX
  8
0
 10
17.15919795
 20
152.19430527
  0
VERTEX
  8
0
 10
17.24822901
 20
152.89494854
  0
VERTEX
  8
0
 10
17.37134777
 20
153.58437491
  0
VERTEX
  8
0
 10
17.52767459
 20
154.26170472
  0
VERTEX
  8
0
 10
17.71632982
 20
154.92605834
  0
VERTEX
  8
0
 10
17.93643381
 20
155.57655612
  0
VERTEX
  8
0
 10
18.18710692
 20
156.21231840
  0
VERTEX
  8
0
 10
18.46746951
 20
156.83246555
  0
VERTEX
  8
0
 10
18.77664193
 20
157.43611792
  0
VERTEX
  8
0
 10
19.11374452
 20
158.02239586
  0
VERTEX
  8
0
 10
19.47789765
 20
158.59041973
  0
VERTEX
  8
0
 10
19.86822167
 20
159.13930987
  0
VERTEX
  8
0
 10
20.28383693
 20
159.66818665
  0
VERTEX
  8
0
 10
20.72386378
 20
160.17617042
  0
VERTEX
  8
0
 10
21.18742259
 20
160.66238153
  0
VERTEX
  8
0
 10
21.67363370
 20
161.12594034
  0
VERTEX
  8
0
 10
22.18161747
 20
161.56596720
  0
VERTEX
  8
0
 10
22.71049425
 20
161.98158246
  0
VERTEX
  8
0
 10
23.25938440
 20
162.37190648
  0
VERTEX
  8
0
 10
23.82740826
 20
162.73605960
  0
VERTEX
  8
0
 10
24.41368620
 20
163.07316220
  0
VERTEX
  8
0
 10
25.01733857
 20
163.38233461
  0
VERTEX
  8
0
 10
25.63748572
 20
163.66269720
  0
VERTEX
  8
0
 10
26.27324801
 20
163.91337031
  0
VERTEX
  8
0
 10
26.92374578
 20
164.13347431
  0
VERTEX
  8
0
 10
27.58809940
 20
164.32212954
  0
VERTEX
  8
0
 10
28.26542921
 20
164.47845636
  0
VERTEX
  8
0
 10
28.95485558
 20
164.60157512
  0
VERTEX
  8
0
 10
29.65549885
 20
164.69060618
  0
VERTEX
  8
0
 10
30.36647938
 20
164.74466988
  0
VERTEX
  8
0
 10
31.08691753
 20
164.76288660
  0
VERTEX
  8
0
 10
31.80735567
 20
164.74466988
  0
VERTEX
  8
0
 10
32.51833620
 20
164.69060618
  0
VERTEX
  8
0
 10
33.21897947
 20
164.60157512
  0
VERTEX
  8
0
 10
33.90840584
 20
164.47845636
  0
VERTEX
  8
0
 10
34.58573565
 20
164.32212954
  0
VERTEX
  8
0
 10
35.25008927
 20
164.13347431
  0
VERTEX
  8
0
 10
35.90058704
 20
163.91337031
  0
VERTEX
  8
0
 10
36.53634933
 20
163.66269720
  0
VERTEX
  8
0
 10
37.15649648
 20
163.38233461
  0
VERTEX
  8
0
 10
37.76014885
 20
163.07316220
  0
VERTEX
  8
0
 10
38.34642679
 20
162.73605960
  0
VERTEX
  8
0
 10
38.91445065
 20
162.37190648
  0
VERTEX
  8
0
 10
39.46334080
 20
161.98158246
  0
VERTEX
  8
0
 10
39.99221758
 20
161.56596720
  0
VERTEX
  8
0
 10
40.50020135
 20
161.12594034
  0
VERTEX
  8
0
 10
40.98641246
 20
160.66238153
  0
VERTEX
  8
0
 10
41.44997127
 20
160.17617042
  0
VERTEX
  8
0
 10
41.88999813
 20
159.66818665
  0
VERTEX
  8
0
 10
42.30561339
 20
159.13930987
  0
VERTEX
  8
0
 10
42.69593740
 20
158.59041973
  0
VERTEX
  8
0
 10
43.06009053
 20
158.02239586
  0
VERTEX
  8
0
 10
43.39719313
 20
157.43611792
  0
VERTEX
  8
0
 10
43.70636554
 20
156.83246555
  0
VERTEX
  8
0
 10
43.98672813
 20
156.21231840
  0
VERTEX
  8
0
 10
44.23740124
 20
155.57655612
  0
VERTEX
  8
0
 10
44.45750524
 20
154.92605834
  0
VERTEX
  8
0
 10
44.64616047
 20
154.26170472
  0
VERTEX
  8
0
 10
44.80248728
 20
153.58437491
  0
VERTEX
  8
0
 10
44.92560605
 20
152.89494854
  0
VERTEX
  8
0
 10
45.01463710
 20
152.19430527
  0
VERTEX
  8
0
 10
45.06870081
 20
151.48332474
  0
VERTEX
  8
0
 10
45.08691753
 20
150.76288660
  0
VERTEX
  8
0
 10
45.06870081
 20
150.04244845
  0
VERTEX
  8
0
 10
45.01463710
 20
149.33146792
  0
VERTEX
  8
0
 10
44.92560605
 20
148.63082465
  0
VERTEX
  8
0
 10
44.80248728
 20
147.94139829
  0
VERTEX
  8
0
 10
44.64616047
 20
147.26406847
  0
VERTEX
  8
0
 10
44.45750524
 20
146.59971485
  0
VERTEX
  8
0
 10
44.23740124
 20
145.94921708
  0
VERTEX
  8
0
 10
43.98672813
 20
145.31345479
  0
VERTEX
  8
0
 10
43.70636554
 20
144.69330764
  0
VERTEX
  8
0
 10
43.39719313
 20
144.08965528
  0
VERTEX
  8
0
 10
43.06009053
 20
143.50337734
  0
VERTEX
  8
0
 10
42.69593740
 20
142.93535347
  0
VERTEX
  8
0
 10
42.30561339
 20
142.38646332
  0
VERTEX
  8
0
 10
41.88999813
 20
141.85758654
  0
VERTEX
  8
0
 10
41.44997127
 20
141.34960277
  0
VERTEX
  8
0
 10
40.98641246
 20
140.86339166
  0
VERTEX
  8
0
 10
40.50020135
 20
140.39983285
  0
VERTEX
  8
0
 10
39.99221758
 20
139.95980600
  0
VERTEX
  8
0
 10
39.46334080
 20
139.54419074
  0
VERTEX
  8
0
 10
38.91445065
 20
139.15386672
  0
VERTEX
  8
0
 10
38.34642679
 20
138.78971359
  0
VERTEX
  8
0
 10
37.76014885
 20
138.45261100
  0
VERTEX
  8
0
 10
37.15649648
 20
138.14343858
  0
VERTEX
  8
0
 10
36.53634933
 20
137.86307600
  0
VERTEX
  8
0
 10
35.90058704
 20
137.61240288
  0
VERTEX
  8
0
 10
35.25008927
 20
137.39229889
  0
VERTEX
  8
0
 10
34.58573565
 20
137.20364366
  0
VERTEX
  8
0
 10
33.90840584
 20
137.04731684
  0
VERTEX
  8
0
 10
33.21897947
 20
136.92419808
  0
VERTEX
  8
0
 10
32.51833620
 20
136.83516702
  0
VERTEX
  8
0
 10
31.80735567
 20
136.78110331
  0
VERTEX
  8
0
 10
31.08691753
 20
136.76288660
  0
VERTEX
  8
0
 10
30.36647938
 20
136.78110331
  0
VERTEX
  8
0
 10
29.65549885
 20
136.83516702
  0
VERTEX
  8
0
 10
28.95485558
 20
136.92419808
  0
VERTEX
  8
0
 10
28.26542921
 20
137.04731684
  0
VERTEX
  8
0
 10
27.58809940
 20
137.20364366
  0
VERTEX
  8
0
 10
26.92374578
 20
137.39229889
  0
VERTEX
  8
0
 10
26.27324801
 20
137.61240288
  0
VERTEX
  8
0
 10
25.63748572
 20
137.86307600
  0
VERTEX
  8
0
 10
25.01733857
 20
138.14343858
  0
VERTEX
  8
0
 10
24.41368620
 20
138.45261100
  0
VERTEX
  8
0
 10
23.82740826
 20
138.78971359
  0
VERTEX
  8
0
 10
23.25938440
 20
139.15386672
  0
VERTEX
  8
0
 10
22.71049425
 20
139.54419074
  0
VERTEX
  8
0
 10
22.18161747
 20
139.95980600
  0
VERTEX
  8
0
 10
21.67363370
 20
140.39983285
  0
VERTEX
  8
0
 10
21.18742259
 20
140.86339166
  0
VERTEX
  8
0
 10
20.72386378
 20
141.34960277
  0
VERTEX
  8
0
 10
20.28383693
 20
141.85758654
  0
VERTEX
  8
0
 10
19.86822167
 20
142.38646332
  0
VERTEX
  8
0
 10
19.47789765
 20
142.93535347
  0
VERTEX
  8
0
 10
19.11374452
 20
143.50337734
  0
VERTEX
  8
0
 10
18.77664193
 20
144.08965528
  0
VERTEX
  8
0
 10
18.46746951
 20
144.69330764
  0
VERTEX
  8
0
 10
18.18710692
 20
145.31345479
  0
VERTEX
  8
0
 10
17.93643381
 20
145.94921708
  0
VERTEX
  8
0
 10
17.71632982
 20
146.59971485
  0
VERTEX
  8
0
 10
17.52767459
 20
147.26406847
  0
VERTEX
  8
0
 10
17.37134777
 20
147.94139829
  0
VERTEX
  8
0
 10
17.24822901
 20
148.63082465
  0
VERTEX
  8
0
 10
17.15919795
 20
149.33146792
  0
VERTEX
  8
0
 10
17.10513424
 20
150.04244845
  0
VERTEX
  8
0
 10
17.08691753
 20
150.76288660
  0
SEQEND
  0
POLYLINE
  8
Default Layer
 62
256
 66
   1
 39
0.000000
 70
    1
  0
VERTEX
  8
0
 10
39.08668550
 20
131.28297030
  0
VERTEX
  8
0
 10
38.88219711
 20
131.29329608
  0
VERTEX
  8
0
 10
38.68361574
 20
131.32360319
  0
VERTEX
  8
0
 10
38.49194668
 20
131.37288634
  0
VERTEX
  8
0
 10
38.30819524
 20
131.44014022
  0
VERTEX
  8
0
 10
38.13336674
 20
131.52435950
  0
VERTEX
  8
0
 10
37.96846648
 20
131.62453889
  0
VERTEX
  8
0
 10
37.81449977
 20
131.73967307
  0
VERTEX
  8
0
 10
37.67247193
 20
131.86875674
  0
VERTEX
  8
0
 10
37.54338827
 20
132.01078458
  0
VERTEX
  8
0
 10
37.42825409
 20
132.16475128
  0
VERTEX
  8
0
 10
37.32807470
 20
132.32965154
  0
VERTEX
  8
0
 10
37.24385541
 20
132.50448005
  0
VERTEX
  8
0
 10
37.17660154
 20
132.68823148
  0
VERTEX
  8
0
 10
37.12731839
 20
132.87990054
  0
VERTEX
  8
0
 10
37.09701127
 20
133.07848192
  0
VERTEX
  8
0
 10
37.08668550
 20
133.28297030
  0
VERTEX
  8
0
 10
37.09701127
 20
133.48745868
  0
VERTEX
  8
0
 10
37.12731839
 20
133.68604006
  0
VERTEX
  8
0
 10
37.17660154
 20
133.87770912
  0
VERTEX
  8
0
 10
37.24385541
 20
134.06146056
  0
VERTEX
  8
0
 10
37.32807470
 20
134.23628906
  0
VERTEX
  8
0
 10
37.42825409
 20
134.40118932
  0
VERTEX
  8
0
 10
37.54338827
 20
134.55515603
  0
VERTEX
  8
0
 10
37.67247193
 20
134.69718387
  0
VERTEX
  8
0
 10
37.81449977
 20
134.82626753
  0
VERTEX
  8
0
 10
37.96846648
 20
134.94140171
  0
VERTEX
  8
0
 10
38.13336674
 20
135.04158110
  0
VERTEX
  8
0
 10
38.30819524
 20
135.12580039
  0
VERTEX
  8
0
 10
38.49194668
 20
135.19305426
  0
VERTEX
  8
0
 10
38.68361574
 20
135.24233741
  0
VERTEX
  8
0
 10
38.88219711
 20
135.27264453
  0
VERTEX
  8
0
 10
39.08668550
 20
135.28297030
  0
VERTEX
  8
0
 10
39.29117388
 20
135.27264453
  0
VERTEX
  8
0
 10
39.48975526
 20
135.24233741
  0
VERTEX
  8
0
 10
39.68142432
 20
135.19305426
  0
VERTEX
  8
0
 10
39.86517575
 20
135.12580039
  0
VERTEX
  8
0
 10
40.04000426
 20
135.04158110
  0
VERTEX
  8
0
 10
40.20490451
 20
134.94140171
  0
VERTEX
  8
0
 10
40.35887122
 20
134.82626753
  0
VERTEX
  8
0
 10
40.50089906
 20
134.69718387
  0
VERTEX
  8
0
 10
40.62998272
 20
134.55515603
  0
VERTEX
  8
0
 10
40.74511691
 20
134.40118932
  0
VERTEX
  8
0
 10
40.84529630
 20
134.23628906
  0
VERTEX
  8
0
 10
40.92951558
 20
134.06146056
  0
VERTEX
  8
0
 10
40.99676945
 20
133.87770912
  0
VERTEX
  8
0
 10
41.04605260
 20
133.68604006
  0
VERTEX
  8
0
 10
41.07635972
 20
133.48745868
  0
VERTEX
  8
0
 10
41.08668550
 20
133.28297030
  0
VERTEX
  8
0
 10
41.07635972
 20
133.07848192
  0
VERTEX
  8
0
 10
41.04605260
 20
132.87990054
  0
VERTEX
  8
0
 10
40.99676945
 20
132.68823148
  0
VERTEX
  8
0
 10
40.92951558
 20
132.50448005
  0
VERTEX
  8
0
 10
40.84529630
 20
132.32965154
  0
VERTEX
  8
0
 10
40.74511691
 20
132.16475128
  0
VERTEX
  8
0
 10
40.62998272
 20
132.01078458
  0
VERTEX
  8
0
 10
40.50089906
 20
131.86875674
  0
VERTEX
  8
0
 10
40.35887122
 20
131.73967307
  0
VERTEX
  8
0
 10
40.20490451
 20
131.62453889
  0
VERTEX
  8
0
 10
40.04000426
 20
131.52435950
  0
VERTEX
  8
0
 10
39.86517575
 20
131.44014022
  0
VERTEX
  8
0
 10
39.68142432
 20
131.37288634
  0
VERTEX
  8
0
 10
39.48975526
 20
131.32360319
  0
VERTEX
  8
0
 10
39.29117388
 20
131.29329608
  0
VERTEX
  8
0
 10
39.08668550
 20
131.28297030
  0
SEQEND
  0
POLYLINE
  8
Default Layer
 62
256
 66
   1
 39
0.000000
 70
    1
  0
VERTEX
  8
0
 10
39.08668550
 20
166.28297030
  0
VERTEX
  8
0
 10
38.88219711
 20
166.29329608
  0
VERTEX
  8
0
 10
38.68361574
 20
166.32360319
  0
VERTEX
  8
0
 10
38.49194668
 20
166.37288634
  0
VERTEX
  8
0
 10
38.30819524
 20
166.44014022
  0
VERTEX
  8
0
 10
38.13336674
 20
166.52435950
  0
VERTEX
  8
0
 10
37.96846648
 20
166.62453889
  0
VERTEX
  8
0
 10
37.81449977
 20
166.73967307
  0
VERTEX
  8
0
 10
37.67247193
 20
166.86875674
  0
VERTEX
  8
0
 10
37.54338827
 20
167.01078458
  0
VERTEX
  8
0
 10
37.42825409
 20
167.16475128
  0
VERTEX
  8
0
 10
37.32807470
 20
167.32965154
  0
VERTEX
  8
0
 10
37.24385541
 20
167.50448005
  0
VERTEX
  8
0
 10
37.17660154
 20
167.68823148
  0
VERTEX
  8
0
 10
37.12731839
 20
167.87990054
  0
VERTEX
  8
0
 10
37.09701127
 20
168.07848192
  0
VERTEX
  8
0
 10
37.08668550
 20
168.28297030
  0
VERTEX
  8
0
 10
37.09701127
 20
168.48745868
  0
VERTEX
  8
0
 10
37.12731839
 20
168.68604006
  0
VERTEX
  8
0
 10
37.17660154
 20
168.87770912
  0
VERTEX
  8
0
 10
37.24385541
 20
169.06146056
  0
VERTEX
  8
0
 10
37.32807470
 20
169.23628906
  0
VERTEX
  8
0
 10
37.42825409
 20
169.40118932
  0
VERTEX
  8
0
 10
37.54338827
 20
169.55515603
  0
VERTEX
  8
0
 10
37.67247193
 20
169.69718387
  0
VERTEX
  8
0
 10
37.81449977
 20
169.82626753
  0
VERTEX
  8
0
 10
37.96846648
 20
169.94140171
  0
VERTEX
  8
0
 10
38.13336674
 20
170.04158110
  0
VERTEX
  8
0
 10
38.30819524
 20
170.12580039
  0
VERTEX
  8
0
 10
38.49194668
 20
170.19305426
  0
VERTEX
  8
0
 10
38.68361574
 20
170.24233741
  0
VERTEX
  8
0
 10
38.88219711
 20
170.27264453
  0
VERTEX
  8
0
 10
39.08668550
 20
170.28297030
  0
VERTEX
  8
0
 10
39.29117388
 20
170.27264453
  0
VERTEX
  8
0
 10
39.48975526
 20
170.24233741
  0
VERTEX
  8
0
 10
39.68142432
 20
170.19305426
  0
VERTEX
  8
0
 10
39.86517575
 20
170.12580039
  0
VERTEX
  8
0
 10
40.04000426
 20
170.04158110
  0
VERTEX
  8
0
 10
40.20490451
 20
169.94140171
  0
VERTEX
  8
0
 10
40.35887122
 20
169.82626753
  0
VERTEX
  8
0
 10
40.50089906
 20
169.69718387
  0
VERTEX
  8
0
 10
40.62998272
 20
169.55515603
  0
VERTEX
  8
0
 10
40.74511691
 20
169.40118932
  0
VERTEX
  8
0
 10
40.84529630
 20
169.23628906
  0
VERTEX
  8
0
 10
40.92951558
 20
169.06146056
  0
VERTEX
  8
0
 10
40.99676945
 20
168.87770912
  0
VERTEX
  8
0
 10
41.04605260
 20
168.68604006
  0
VERTEX
  8
0
 10
41.07635972
 20
168.48745868
  0
VERTEX
  8
0
 10
41.08668550
 20
168.28297030
  0
VERTEX
  8
0
 10
41.07635972
 20
168.07848192
  0
VERTEX
  8
0
 10
41.04605260
 20
167.87990054
  0
VERTEX
  8
0
 10
40.99676945
 20
167.68823148
  0
VERTEX
  8
0
 10
40.92951558
 20
167.50448005
  0
VERTEX
  8
0
 10
40.84529630
 20
167.32965154
  0
VERTEX
  8
0
 10
40.74511691
 20
167.16475128
  0
VERTEX
  8
0
 10
40.62998272
 20
167.01078458
  0
VERTEX
  8
0
 10
40.50089906
 20
166.86875674
  0
VERTEX
  8
0
 10
40.35887122
 20
166.73967307
  0
VERTEX
  8
0
 10
40.20490451
 20
166.62453889
  0
VERTEX
  8
0
 10
40.04000426
 20
166.52435950
  0
VERTEX
  8
0
 10
39.86517575
 20
166.44014022
  0
VERTEX
  8
0
 10
39.68142432
 20
166.37288634
  0
VERTEX
  8
0
 10
39.48975526
 20
166.32360319
  0
VERTEX
  8
0
 10
39.29117388
 20
166.29329608
  0
VERTEX
  8
0
 10
39.08668550
 20
166.28297030
  0
SEQEND
  0
POLYLINE
  8
Default Layer
 62
256
 66
   1
 39
0.000000
 70
    1
  0
VERTEX
  8
0
 10
63.41391753
 20
150.76288660
  0
VERTEX
  8
0
 10
63.42450144
 20
150.97248719
  0
VERTEX
  8
0
 10
63.45556624
 20
151.17603310
  0
VERTEX
  8
0
 10
63.50608147
 20
151.37249389
  0
VERTEX
  8
0
 10
63.57501669
 20
151.56083911
  0
VERTEX
  8
0
 10
63.66134146
 20
151.74003833
  0
VERTEX
  8
0
 10
63.76402533
 20
151.90906109
  0
VERTEX
  8
0
 10
63.88203787
 20
152.06687696
  0
VERTEX
  8
0
 10
64.01434862
 20
152.21245550
  0
VERTEX
  8
0
 10
64.15992716
 20
152.34476626
  0
VERTEX
  8
0
 10
64.31774303
 20
152.46277879
  0
VERTEX
  8
0
 10
64.48676580
 20
152.56546267
  0
VERTEX
  8
0
 10
64.66596501
 20
152.65178744
  0
VERTEX
  8
0
 10
64.85431023
 20
152.72072266
  0
VERTEX
  8
0
 10
65.05077102
 20
152.77123788
  0
VERTEX
  8
0
 10
65.25431693
 20
152.80230268
  0
VERTEX
  8
0
 10
65.46391753
 20
152.81288660
  0
VERTEX
  8
0
 10
65.67351812
 20
152.80230268
  0
VERTEX
  8
0
 10
65.87706403
 20
152.77123788
  0
VERTEX
  8
0
 10
66.07352482
 20
152.72072266
  0
VERTEX
  8
0
 10
66.26187004
 20
152.65178744
  0
VERTEX
  8
0
 10
66.44106926
 20
152.56546267
  0
VERTEX
  8
0
 10
66.61009202
 20
152.46277879
  0
VERTEX
  8
0
 10
66.76790789
 20
152.34476626
  0
VERTEX
  8
0
 10
66.91348643
 20
152.21245550
  0
VERTEX
  8
0
 10
67.04579719
 20
152.06687696
  0
VERTEX
  8
0
 10
67.16380972
 20
151.90906109
  0
VERTEX
  8
0
 10
67.26649360
 20
151.74003833
  0
VERTEX
  8
0
 10
67.35281836
 20
151.56083911
  0
VERTEX
  8
0
 10
67.42175358
 20
151.37249389
  0
VERTEX
  8
0
 10
67.47226881
 20
151.17603310
  0
VERTEX
  8
0
 10
67.50333361
 20
150.97248719
  0
VERTEX
  8
0
 10
67.51391753
 20
150.76288660
  0
VERTEX
  8
0
 10
67.50333361
 20
150.55328601
  0
VERTEX
  8
0
 10
67.47226881
 20
150.34974010
  0
VERTEX
  8
0
 10
67.42175358
 20
150.15327931
  0
VERTEX
  8
0
 10
67.35281836
 20
149.96493408
  0
VERTEX
  8
0
 10
67.26649360
 20
149.78573487
  0
VERTEX
  8
0
 10
67.16380972
 20
149.61671210
  0
VERTEX
  8
0
 10
67.04579719
 20
149.45889623
  0
VERTEX
  8
0
 10
66.91348643
 20
149.31331770
  0
VERTEX
  8
0
 10
66.76790789
 20
149.18100694
  0
VERTEX
  8
0
 10
66.61009202
 20
149.06299440
  0
VERTEX
  8
0
 10
66.44106926
 20
148.96031053
  0
VERTEX
  8
0
 10
66.26187004
 20
148.87398576
  0
VERTEX
  8
0
 10
66.07352482
 20
148.80505054
  0
VERTEX
  8
0
 10
65.87706403
 20
148.75453531
  0
VERTEX
  8
0
 10
65.67351812
 20
148.72347052
  0
VERTEX
  8
0
 10
65.46391753
 20
148.71288660
  0
VERTEX
  8
0
 10
65.25431693
 20
148.72347052
  0
VERTEX
  8
0
 10
65.05077102
 20
148.75453531
  0
VERTEX
  8
0
 10
64.85431023
 20
148.80505054
  0
VERTEX
  8
0
 10
64.66596501
 20
148.87398576
  0
VERTEX
  8
0
 10
64.48676580
 20
148.96031053
  0
VERTEX
  8
0
 10
64.31774303
 20
149.06299440
  0
VERTEX
  8
0
 10
64.15992716
 20
149.18100694
  0
VERTEX
  8
0
 10
64.01434862
 20
149.31331770
  0
VERTEX
  8
0
 10
63.88203787
 20
149.45889623
  0
VERTEX
  8
0
 10
63.76402533
 20
149.61671210
  0
VERTEX
  8
0
 10
63.66134146
 20
149.78573487
  0
VERTEX
  8
0
 10
63.57501669
 20
149.96493408
  0
VERTEX
  8
0
 10
63.50608147
 20
150.15327931
  0
VERTEX
  8
0
 10
63.45556624
 20
150.34974010
  0
VERTEX
  8
0
 10
63.42450144
 20
150.55328601
  0
VERTEX
  8
0
 10
63.41391753
 20
150.76288660
  0
SEQEND
  0
POLYLINE
  8
Default Layer
 62
256
 66
   1
 39
0.000000
 70
    1
  0
VERTEX
  8
0
 10
8.96373874
 20
114.76296023
  0
VERTEX
  8
0
 10
8.97664595
 20
115.01857071
  0
VERTEX
  8
0
 10
9.01452985
 20
115.26679743
  0
VERTEX
  8
0
 10
9.07613379
 20
115.50638376
  0
VERTEX
  8
0
 10
9.16020113
 20
115.73607306
  0
VERTEX
  8
0
 10
9.26547524
 20
115.95460868
  0
VERTEX
  8
0
 10
9.39069947
 20
116.16073401
  0
VERTEX
  8
0
 10
9.53461720
 20
116.35319239
  0
VERTEX
  8
0
 10
9.69597178
 20
116.53072719
  0
VERTEX
  8
0
 10
9.87350658
 20
116.69208177
  0
VERTEX
  8
0
 10
10.06596496
 20
116.83599950
  0
VERTEX
  8
0
 10
10.27209029
 20
116.96122373
  0
VERTEX
  8
0
 10
10.49062591
 20
117.06649784
  0
VERTEX
  8
0
 10
10.72031521
 20
117.15056518
  0
VERTEX
  8
0
 10
10.95990154
 20
117.21216912
  0
VERTEX
  8
0
 10
11.20812826
 20
117.25005302
  0
VERTEX
  8
0
 10
11.46373874
 20
117.26296023
  0
VERTEX
  8
0
 10
11.71934921
 20
117.25005302
  0
VERTEX
  8
0
 10
11.96757594
 20
117.21216912
  0
VERTEX
  8
0
 10
12.20716226
 20
117.15056518
  0
VERTEX
  8
0
 10
12.43685156
 20
117.06649784
  0
VERTEX
  8
0
 10
12.65538719
 20
116.96122373
  0
VERTEX
  8
0
 10
12.86151251
 20
116.83599950
  0
VERTEX
  8
0
 10
13.05397089
 20
116.69208177
  0
VERTEX
  8
0
 10
13.23150569
 20
116.53072719
  0
VERTEX
  8
0
 10
13.39286027
 20
116.35319239
  0
VERTEX
  8
0
 10
13.53677800
 20
116.16073401
  0
VERTEX
  8
0
 10
13.66200224
 20
115.95460868
  0
VERTEX
  8
0
 10
13.76727634
 20
115.73607306
  0
VERTEX
  8
0
 10
13.85134368
 20
115.50638376
  0
VERTEX
  8
0
 10
13.91294762
 20
115.26679743
  0
VERTEX
  8
0
 10
13.95083152
 20
115.01857071
  0
VERTEX
  8
0
 10
13.96373874
 20
114.76296023
  0
VERTEX
  8
0
 10
13.95083152
 20
114.50734976
  0
VERTEX
  8
0
 10
13.91294762
 20
114.25912304
  0
VERTEX
  8
0
 10
13.85134368
 20
114.01953671
  0
VERTEX
  8
0
 10
13.76727634
 20
113.78984741
  0
VERTEX
  8
0
 10
13.66200224
 20
113.57131178
  0
VERTEX
  8
0
 10
13.53677800
 20
113.36518646
  0
VERTEX
  8
0
 10
13.39286027
 20
113.17272808
  0
VERTEX
  8
0
 10
13.23150569
 20
112.99519328
  0
VERTEX
  8
0
 10
13.05397089
 20
112.83383870
  0
VERTEX
  8
0
 10
12.86151251
 20
112.68992097
  0
VERTEX
  8
0
 10
12.65538719
 20
112.56469673
  0
VERTEX
  8
0
 10
12.43685156
 20
112.45942263
  0
VERTEX
  8
0
 10
12.20716226
 20
112.37535529
  0
VERTEX
  8
0
 10
11.96757594
 20
112.31375135
  0
VERTEX
  8
0
 10
11.71934921
 20
112.27586745
  0
VERTEX
  8
0
 10
11.46373874
 20
112.26296023
  0
VERTEX
  8
0
 10
11.20812826
 20
112.27586745
  0
VERTEX
  8
0
 10
10.95990154
 20
112.31375135
  0
VERTEX
  8
0
 10
10.72031521
 20
112.37535529
  0
VERTEX
  8
0
 10
10.49062591
 20
112.45942263
  0
VERTEX
  8
0
 10
10.27209029
 20
112.56469673
  0
VERTEX
  8
0
 10
10.06596496
 20
112.68992097
  0
VERTEX
  8
0
 10
9.87350658
 20
112.83383870
  0
VERTEX
  8
0
 10
9.69597178
 20
112.99519328
  0
VERTEX
  8
0
 10
9.53461720
 20
113.17272808
  0
VERTEX
  8
0
 10
9.39069947
 20
113.36518646
  0
VERTEX
  8
0
 10
9.26547524
 20
113.57131178
  0
VERTEX
  8
0
 10
9.16020113
 20
113.78984741
  0
VERTEX
  8
0
 10
9.07613379
 20
114.01953671
  0
VERTEX
  8
0
 10
9.01452985
 20
114.25912304
  0
VERTEX
  8
0
 10
8.97664595
 20
114.50734976
  0
VERTEX
  8
0
 10
8.96373874
 20
114.76296023
  0
SEQEND
  0
POLYLINE
  8
Default Layer
 62
256
 66
   1
 39
0.000000
 70
    1
  0
VERTEX
  8
0
 10
8.96373475
 20
186.76303008
  0
VERTEX
  8
0
 10
8.97664197
 20
187.01864056
  0
VERTEX
  8
0
 10
9.01452587
 20
187.26686728
  0
VERTEX
  8
0
 10
9.07612981
 20
187.50645360
  0
VERTEX
  8
0
 10
9.16019715
 20
187.73614290
  0
VERTEX
  8
0
 10
9.26547125
 20
187.95467853
  0
VERTEX
  8
0
 10
9.39069549
 20
188.16080385
  0
VERTEX
  8
0
 10
9.53461322
 20
188.35326223
  0
VERTEX
  8
0
 10
9.69596780
 20
188.53079703
  0
VERTEX
  8
0
 10
9.87350260
 20
188.69215161
  0
VERTEX
  8
0
 10
10.06596098
 20
188.83606934
  0
VERTEX
  8
0
 10
10.27208630
 20
188.96129358
  0
VERTEX
  8
0
 10
10.49062193
 20
189.06656769
  0
VERTEX
  8
0
 10
10.72031123
 20
189.15063503
  0
VERTEX
  8
0
 10
10.95989756
 20
189.21223896
  0
VERTEX
  8
0
 10
11.20812428
 20
189.25012286
  0
VERTEX
  8
0
 10
11.46373475
 20
189.26303008
  0
VERTEX
  8
0
 10
11.71934523
 20
189.25012286
  0
VERTEX
  8
0
 10
11.96757195
 20
189.21223896
  0
VERTEX
  8
0
 10
12.20715828
 20
189.15063503
  0
VERTEX
  8
0
 10
12.43684758
 20
189.06656769
  0
VERTEX
  8
0
 10
12.65538320
 20
188.96129358
  0
VERTEX
  8
0
 10
12.86150853
 20
188.83606934
  0
VERTEX
  8
0
 10
13.05396691
 20
188.69215161
  0
VERTEX
  8
0
 10
13.23150171
 20
188.53079703
  0
VERTEX
  8
0
 10
13.39285629
 20
188.35326223
  0
VERTEX
  8
0
 10
13.53677402
 20
188.16080385
  0
VERTEX
  8
0
 10
13.66199825
 20
187.95467853
  0
VERTEX
  8
0
 10
13.76727236
 20
187.73614290
  0
VERTEX
  8
0
 10
13.85133970
 20
187.50645360
  0
VERTEX
  8
0
 10
13.91294364
 20
187.26686728
  0
VERTEX
  8
0
 10
13.95082754
 20
187.01864056
  0
VERTEX
  8
0
 10
13.96373475
 20
186.76303008
  0
VERTEX
  8
0
 10
13.95082754
 20
186.50741960
  0
VERTEX
  8
0
 10
13.91294364
 20
186.25919288
  0
VERTEX
  8
0
 10
13.85133970
 20
186.01960655
  0
VERTEX
  8
0
 10
13.76727236
 20
185.78991726
  0
VERTEX
  8
0
 10
13.66199825
 20
185.57138163
  0
VERTEX
  8
0
 10
13.53677402
 20
185.36525630
  0
VERTEX
  8
0
 10
13.39285629
 20
185.17279792
  0
VERTEX
  8
0
 10
13.23150171
 20
184.99526312
  0
VERTEX
  8
0
 10
13.05396691
 20
184.83390854
  0
VERTEX
  8
0
 10
12.86150853
 20
184.68999081
  0
VERTEX
  8
0
 10
12.65538320
 20
184.56476658
  0
VERTEX
  8
0
 10
12.43684758
 20
184.45949247
  0
VERTEX
  8
0
 10
12.20715828
 20
184.37542513
  0
VERTEX
  8
0
 10
11.96757195
 20
184.31382119
  0
VERTEX
  8
0
 10
11.71934523
 20
184.27593730
  0
VERTEX
  8
0
 10
11.46373475
 20
184.26303008
  0
VERTEX
  8
0
 10
11.20812428
 20
184.27593730
  0
VERTEX
  8
0
 10
10.95989756
 20
184.31382119
  0
VERTEX
  8
0
 10
10.72031123
 20
184.37542513
  0
VERTEX
  8
0
 10
10.49062193
 20
184.45949247
  0
VERTEX
  8
0
 10
10.27208630
 20
184.56476658
  0
VERTEX
  8
0
 10
10.06596098
 20
184.68999081
  0
VERTEX
  8
0
 10
9.87350260
 20
184.83390854
  0
VERTEX
  8
0
 10
9.69596780
 20
184.99526312
  0
VERTEX
  8
0
 10
9.53461322
 20
185.17279792
  0
VERTEX
  8
0
 10
9.39069549
 20
185.36525630
  0
VERTEX
  8
0
 10
9.26547125
 20
185.57138163
  0
VERTEX
  8
0
 10
9.16019715
 20
185.78991726
  0
VERTEX
  8
0
 10
9.07612981
 20
186.01960655
  0
VERTEX
  8
0
 10
9.01452587
 20
186.25919288
  0
VERTEX
  8
0
 10
8.97664197
 20
186.50741960
  0
VERTEX
  8
0
 10
8.96373475
 20
186.76303008
  0
SEQEND
  0
POLYLINE
  8
Default Layer
 62
256
 66
   1
 39
0.000000
 70
    1
  0
VERTEX
  8
0
 10
9.50778315
 20
108.76288660
 42
-0.41405297
  0
VERTEX
  8
0
 10
5.50778375
 20
112.76069335
  0
VERTEX
  8
0
 10
5.46611198
 20
188.76069335
 42
-0.41437417
  0
VERTEX
  8
0
 10
9.46611138
 20
192.76288660
  0
VERTEX
  8
0
 10
15.46391753
 20
192.76288660
 42
-0.12310563
  0
VERTEX
  8
0
 10
19.22862341
 20
191.82171013
  0
VERTEX
  8
0
 10
71.11097635
 20
164.15112189
 42
-0.27698396
  0
VERTEX
  8
0
 10
77.46391753
 20
153.56288660
  0
VERTEX
  8
0
 10
77.46391753
 20
147.96288660
 42
-0.27698396
  0
VERTEX
  8
0
 10
71.11097635
 20
137.37465130
  0
VERTEX
  8
0
 10
19.22862341
 20
109.70406307
 42
-0.12310563
  0
VERTEX
  8
0
 10
15.46391753
 20
108.76288660
  0
VERTEX
  8
0
 10
9.50778315
 20
108.76288660
  0
SEQEND
  0
POLYLINE
  8
Default Layer
 62
256
 66
   1
 39
0.000000
 70
    1
  0
VERTEX
  8
0
 10
132.44397075
 20
132.34241467
  0
VERTEX
  8
0
 10
132.44397075
 20
128.64204953
 42
0.41421356
  0
VERTEX
  8
0
 10
138.44397075
 20
122.64204953
  0
VERTEX
  8
0
 10
151.13246892
 20
122.64204953
  0
VERTEX
  8
0
 10
170.09125574
 20
132.75340251
 42
0.27698396
  0
VERTEX
  8
0
 10
176.44419692
 20
143.34163780
  0
VERTEX
  8
0
 10
176.44419692
 20
148.94163780
 42
0.27698396
  0
VERTEX
  8
0
 10
170.09125574
 20
159.52987309
  0
VERTEX
  8
0
 10
151.13092492
 20
169.64204953
  0
VERTEX
  8
0
 10
138.44397075
 20
169.64204953
 42
0.41421356
  0
VERTEX
  8
0
 10
132.44397075
 20
163.64204953
  0
VERTEX
  8
0
 10
132.44397075
 20
159.93998551
  0
VERTEX
  8
0
 10
133.05798856
 20
159.82076019
  0
VERTEX
  8
0
 10
133.66213682
 20
159.67509538
  0
VERTEX
  8
0
 10
134.25578445
 20
159.50362222
  0
VERTEX
  8
0
 10
134.83830038
 20
159.30697183
  0
VERTEX
  8
0
 10
135.40905353
 20
159.08577535
  0
VERTEX
  8
0
 10
135.96741282
 20
158.84066392
  0
VERTEX
  8
0
 10
136.51274719
 20
158.57226865
  0
VERTEX
  8
0
 10
137.04442554
 20
158.28122068
  0
VERTEX
  8
0
 10
137.56181682
 20
157.96815114
  0
VERTEX
  8
0
 10
138.06428993
 20
157.63369117
  0
VERTEX
  8
0
 10
138.55121380
 20
157.27847189
  0
VERTEX
  8
0
 10
139.02195736
 20
156.90312443
  0
VERTEX
  8
0
 10
139.47588954
 20
156.50827993
  0
VERTEX
  8
0
 10
139.91237924
 20
156.09456952
  0
VERTEX
  8
0
 10
140.33079541
 20
155.66262432
  0
VERTEX
  8
0
 10
140.73050696
 20
155.21307547
  0
VERTEX
  8
0
 10
141.11088281
 20
154.74655410
  0
VERTEX
  8
0
 10
141.47129189
 20
154.26369134
  0
VERTEX
  8
0
 10
141.81110313
 20
153.76511832
  0
VERTEX
  8
0
 10
142.12968544
 20
153.25146617
  0
VERTEX
  8
0
 10
142.42640775
 20
152.72336603
  0
VERTEX
  8
0
 10
142.70063898
 20
152.18144902
  0
VERTEX
  8
0
 10
142.95174807
 20
151.62634628
  0
VERTEX
  8
0
 10
143.17910392
 20
151.05868893
  0
VERTEX
  8
0
 10
143.38207547
 20
150.47910810
  0
VERTEX
  8
0
 10
143.56003164
 20
149.88823494
  0
VERTEX
  8
0
 10
143.71234135
 20
149.28670056
  0
VERTEX
  8
0
 10
143.83837353
 20
148.67513611
  0
VERTEX
  8
0
 10
143.93749709
 20
148.05417270
  0
VERTEX
  8
0
 10
144.00908097
 20
147.42444147
  0
VERTEX
  8
0
 10
144.05249409
 20
146.78657356
  0
VERTEX
  8
0
 10
144.06710537
 20
146.14120009
  0
VERTEX
  8
0
 10
144.05250085
 20
145.49597877
  0
VERTEX
  8
0
 10
144.00910714
 20
144.85825915
  0
VERTEX
  8
0
 10
143.93755401
 20
144.22867177
  0
VERTEX
  8
0
 10
143.83847123
 20
143.60784716
  0
VERTEX
  8
0
 10
143.71248856
 20
142.99641585
  0
VERTEX
  8
0
 10
143.56023576
 20
142.39500838
  0
VERTEX
  8
0
 10
143.38234262
 20
141.80425529
  0
VERTEX
  8
0
 10
143.17943890
 20
141.22478711
  0
VERTEX
  8
0
 10
142.95215436
 20
140.65723437
  0
VERTEX
  8
0
 10
142.70111877
 20
140.10222762
  0
VERTEX
  8
0
 10
142.42696190
 20
139.56039738
  0
VERTEX
  8
0
 10
142.13031352
 20
139.03237419
  0
VERTEX
  8
0
 10
141.81180339
 20
138.51878858
  0
VERTEX
  8
0
 10
141.47206129
 20
138.02027110
  0
VERTEX
  8
0
 10
141.11171698
 20
137.53745226
  0
VERTEX
  8
0
 10
140.73140022
 20
137.07096262
  0
VERTEX
  8
0
 10
140.33174080
 20
136.62143271
  0
VERTEX
  8
0
 10
139.91336847
 20
136.18949305
  0
VERTEX
  8
0
 10
139.47691300
 20
135.77577419
  0
VERTEX
  8
0
 10
139.02300416
 20
135.38090666
  0
VERTEX
  8
0
 10
138.55227172
 20
135.00552099
  0
VERTEX
  8
0
 10
138.06534545
 20
134.65024772
  0
VERTEX
  8
0
 10
137.56285511
 20
134.31571738
  0
VERTEX
  8
0
 10
137.04543047
 20
134.00256052
  0
VERTEX
  8
0
 10
136.51370130
 20
133.71140766
  0
VERTEX
  8
0
 10
135.96829737
 20
133.44288933
  0
VERTEX
  8
0
 10
135.40984844
 20
133.19763608
  0
VERTEX
  8
0
 10
134.83898429
 20
132.97627845
  0
VERTEX
  8
0
 10
134.25633467
 20
132.77944695
  0
VERTEX
  8
0
 10
133.66252937
 20
132.60777213
  0
VERTEX
  8
0
 10
133.05819814
 20
132.46188453
  0
VERTEX
  8
0
 10
132.44397075
 20
132.34241467
  0
SEQEND
  0
POLYLINE
  8
Default Layer
 62
256
 66
   1
 39
0.000000
 70
    1
  0
VERTEX
  8
0
 10
138.06696489
 20
126.66172150
  0
VERTEX
  8
0
 10
137.86247651
 20
126.67204728
  0
VERTEX
  8
0
 10
137.66389513
 20
126.70235440
  0
VERTEX
  8
0
 10
137.47222607
 20
126.75163755
  0
VERTEX
  8
0
 10
137.28847463
 20
126.81889142
  0
VERTEX
  8
0
 10
137.11364613
 20
126.90311070
  0
VERTEX
  8
0
 10
136.94874587
 20
127.00329009
  0
VERTEX
  8
0
 10
136.79477917
 20
127.11842428
  0
VERTEX
  8
0
 10
136.65275133
 20
127.24750794
  0
VERTEX
  8
0
 10
136.52366766
 20
127.38953578
  0
VERTEX
  8
0
 10
136.40853348
 20
127.54350249
  0
VERTEX
  8
0
 10
136.30835409
 20
127.70840274
  0
VERTEX
  8
0
 10
136.22413480
 20
127.88323125
  0
VERTEX
  8
0
 10
136.15688093
 20
128.06698268
  0
VERTEX
  8
0
 10
136.10759778
 20
128.25865175
  0
VERTEX
  8
0
 10
136.07729067
 20
128.45723312
  0
VERTEX
  8
0
 10
136.06696489
 20
128.66172150
  0
VERTEX
  8
0
 10
136.07729067
 20
128.86620989
  0
VERTEX
  8
0
 10
136.10759778
 20
129.06479126
  0
VERTEX
  8
0
 10
136.15688093
 20
129.25646033
  0
VERTEX
  8
0
 10
136.22413480
 20
129.44021176
  0
VERTEX
  8
0
 10
136.30835409
 20
129.61504026
  0
VERTEX
  8
0
 10
136.40853348
 20
129.77994052
  0
VERTEX
  8
0
 10
136.52366766
 20
129.93390723
  0
VERTEX
  8
0
 10
136.65275133
 20
130.07593507
  0
VERTEX
  8
0
 10
136.79477917
 20
130.20501873
  0
VERTEX
  8
0
 10
136.94874587
 20
130.32015292
  0
VERTEX
  8
0
 10
137.11364613
 20
130.42033230
  0
VERTEX
  8
0
 10
137.28847463
 20
130.50455159
  0
VERTEX
  8
0
 10
137.47222607
 20
130.57180546
  0
VERTEX
  8
0
 10
137.66389513
 20
130.62108861
  0
VERTEX
  8
0
 10
137.86247651
 20
130.65139573
  0
VERTEX
  8
0
 10
138.06696489
 20
130.66172150
  0
VERTEX
  8
0
 10
138.27145327
 20
130.65139573
  0
VERTEX
  8
0
 10
138.47003465
 20
130.62108861
  0
VERTEX
  8
0
 10
138.66170371
 20
130.57180546
  0
VERTEX
  8
0
 10
138.84545515
 20
130.50455159
  0
VERTEX
  8
0
 10
139.02028365
 20
130.42033230
  0
VERTEX
  8
0
 10
139.18518391
 20
130.32015292
  0
VERTEX
  8
0
 10
139.33915061
 20
130.20501873
  0
VERTEX
  8
0
 10
139.48117845
 20
130.07593507
  0
VERTEX
  8
0
 10
139.61026212
 20
129.93390723
  0
VERTEX
  8
0
 10
139.72539630
 20
129.77994052
  0
VERTEX
  8
0
 10
139.82557569
 20
129.61504026
  0
VERTEX
  8
0
 10
139.90979498
 20
129.44021176
  0
VERTEX
  8
0
 10
139.97704885
 20
129.25646033
  0
VERTEX
  8
0
 10
140.02633200
 20
129.06479126
  0
VERTEX
  8
0
 10
140.05663912
 20
128.86620989
  0
VERTEX
  8
0
 10
140.06696489
 20
128.66172150
  0
VERTEX
  8
0
 10
140.05663912
 20
128.45723312
  0
VERTEX
  8
0
 10
140.02633200
 20
128.25865175
  0
VERTEX
  8
0
 10
139.97704885
 20
128.06698268
  0
VERTEX
  8
0
 10
139.90979498
 20
127.88323125
  0
VERTEX
  8
0
 10
139.82557569
 20
127.70840274
  0
VERTEX
  8
0
 10
139.72539630
 20
127.54350249
  0
VERTEX
  8
0
 10
139.61026212
 20
127.38953578
  0
VERTEX
  8
0
 10
139.48117845
 20
127.24750794
  0
VERTEX
  8
0
 10
139.33915061
 20
127.11842428
  0
VERTEX
  8
0
 10
139.18518391
 20
127.00329009
  0
VERTEX
  8
0
 10
139.02028365
 20
126.90311070
  0
VERTEX
  8
0
 10
138.84545515
 20
126.81889142
  0
VERTEX
  8
0
 10
138.66170371
 20
126.75163755
  0
VERTEX
  8
0
 10
138.47003465
 20
126.70235440
  0
VERTEX
  8
0
 10
138.27145327
 20
126.67204728
  0
VERTEX
  8
0
 10
138.06696489
 20
126.66172150
  0
SEQEND
  0
POLYLINE
  8
Default Layer
 62
256
 66
   1
 39
0.000000
 70
    1
  0
VERTEX
  8
0
 10
138.06696489
 20
161.66172150
  0
VERTEX
  8
0
 10
137.86247651
 20
161.67204728
  0
VERTEX
  8
0
 10
137.66389513
 20
161.70235440
  0
VERTEX
  8
0
 10
137.47222607
 20
161.75163755
  0
VERTEX
  8
0
 10
137.28847463
 20
161.81889142
  0
VERTEX
  8
0
 10
137.11364613
 20
161.90311070
  0
VERTEX
  8
0
 10
136.94874587
 20
162.00329009
  0
VERTEX
  8
0
 10
136.79477917
 20
162.11842428
  0
VERTEX
  8
0
 10
136.65275133
 20
162.24750794
  0
VERTEX
  8
0
 10
136.52366766
 20
162.38953578
  0
VERTEX
  8
0
 10
136.40853348
 20
162.54350249
  0
VERTEX
  8
0
 10
136.30835409
 20
162.70840274
  0
VERTEX
  8
0
 10
136.22413480
 20
162.88323125
  0
VERTEX
  8
0
 10
136.15688093
 20
163.06698268
  0
VERTEX
  8
0
 10
136.10759778
 20
163.25865175
  0
VERTEX
  8
0
 10
136.07729067
 20
163.45723312
  0
VERTEX
  8
0
 10
136.06696489
 20
163.66172150
  0
VERTEX
  8
0
 10
136.07729067
 20
163.86620989
  0
VERTEX
  8
0
 10
136.10759778
 20
164.06479126
  0
VERTEX
  8
0
 10
136.15688093
 20
164.25646033
  0
VERTEX
  8
0
 10
136.22413480
 20
164.44021176
  0
VERTEX
  8
0
 10
136.30835409
 20
164.61504026
  0
VERTEX
  8
0
 10
136.40853348
 20
164.77994052
  0
VERTEX
  8
0
 10
136.52366766
 20
164.93390723
  0
VERTEX
  8
0
 10
136.65275133
 20
165.07593507
  0
VERTEX
  8
0
 10
136.79477917
 20
165.20501873
  0
VERTEX
  8
0
 10
136.94874587
 20
165.32015292
  0
VERTEX
  8
0
 10
137.11364613
 20
165.42033230
  0
VERTEX
  8
0
 10
137.28847463
 20
165.50455159
  0
VERTEX
  8
0
 10
137.47222607
 20
165.57180546
  0
VERTEX
  8
0
 10
137.66389513
 20
165.62108861
  0
VERTEX
  8
0
 10
137.86247651
 20
165.65139573
  0
VERTEX
  8
0
 10
138.06696489
 20
165.66172150
  0
VERTEX
  8
0
 10
138.27145327
 20
165.65139573
  0
VERTEX
  8
0
 10
138.47003465
 20
165.62108861
  0
VERTEX
  8
0
 10
138.66170371
 20
165.57180546
  0
VERTEX
  8
0
 10
138.84545515
 20
165.50455159
  0
VERTEX
  8
0
 10
139.02028365
 20
165.42033230
  0
VERTEX
  8
0
 10
139.18518391
 20
165.32015292
  0
VERTEX
  8
0
 10
139.33915061
 20
165.20501873
  0
VERTEX
  8
0
 10
139.48117845
 20
165.07593507
  0
VERTEX
  8
0
 10
139.61026212
 20
164.93390723
  0
VERTEX
  8
0
 10
139.72539630
 20
164.77994052
  0
VERTEX
  8
0
 10
139.82557569
 20
164.61504026
  0
VERTEX
  8
0
 10
139.90979498
 20
164.44021176
  0
VERTEX
  8
0
 10
139.97704885
 20
164.25646033
  0
VERTEX
  8
0
 10
140.02633200
 20
164.06479126
  0
VERTEX
  8
0
 10
140.05663912
 20
163.86620989
  0
VERTEX
  8
0
 10
140.06696489
 20
163.66172150
  0
VERTEX
  8
0
 10
140.05663912
 20
163.45723312
  0
VERTEX
  8
0
 10
140.02633200
 20
163.25865175
  0
VERTEX
  8
0
 10
139.97704885
 20
163.06698268
  0
VERTEX
  8
0
 10
139.90979498
 20
162.88323125
  0
VERTEX
  8
0
 10
139.82557569
 20
162.70840274
  0
VERTEX
  8
0
 10
139.72539630
 20
162.54350249
  0
VERTEX
  8
0
 10
139.61026212
 20
162.38953578
  0
VERTEX
  8
0
 10
139.48117845
 20
162.24750794
  0
VERTEX
  8
0
 10
139.33915061
 20
162.11842428
  0
VERTEX
  8
0
 10
139.18518391
 20
162.00329009
  0
VERTEX
  8
0
 10
139.02028365
 20
161.90311070
  0
VERTEX
  8
0
 10
138.84545515
 20
161.81889142
  0
VERTEX
  8
0
 10
138.66170371
 20
161.75163755
  0
VERTEX
  8
0
 10
138.47003465
 20
161.70235440
  0
VERTEX
  8
0
 10
138.27145327
 20
161.67204728
  0
VERTEX
  8
0
 10
138.06696489
 20
161.66172150
  0
SEQEND
  0
POLYLINE
  8
Default Layer
 62
256
 66
   1
 39
0.000000
 70
    1
  0
VERTEX
  8
0
 10
162.39419692
 20
146.14163780
  0
VERTEX
  8
0
 10
162.40478084
 20
146.35123839
  0
VERTEX
  8
0
 10
162.43584563
 20
146.55478430
  0
VERTEX
  8
0
 10
162.48636086
 20
146.75124509
  0
VERTEX
  8
0
 10
162.55529608
 20
146.93959031
  0
VERTEX
  8
0
 10
162.64162085
 20
147.11878953
  0
VERTEX
  8
0
 10
162.74430472
 20
147.28781229
  0
VERTEX
  8
0
 10
162.86231726
 20
147.44562816
  0
VERTEX
  8
0
 10
162.99462802
 20
147.59120670
  0
VERTEX
  8
0
 10
163.14020655
 20
147.72351746
  0
VERTEX
  8
0
 10
163.29802243
 20
147.84153000
  0
VERTEX
  8
0
 10
163.46704519
 20
147.94421387
  0
VERTEX
  8
0
 10
163.64624441
 20
148.03053864
  0
VERTEX
  8
0
 10
163.83458963
 20
148.09947386
  0
VERTEX
  8
0
 10
164.03105042
 20
148.14998909
  0
VERTEX
  8
0
 10
164.23459633
 20
148.18105388
  0
VERTEX
  8
0
 10
164.44419692
 20
148.19163780
  0
VERTEX
  8
0
 10
164.65379751
 20
148.18105388
  0
VERTEX
  8
0
 10
164.85734342
 20
148.14998909
  0
VERTEX
  8
0
 10
165.05380421
 20
148.09947386
  0
VERTEX
  8
0
 10
165.24214943
 20
148.03053864
  0
VERTEX
  8
0
 10
165.42134865
 20
147.94421387
  0
VERTEX
  8
0
 10
165.59037141
 20
147.84153000
  0
VERTEX
  8
0
 10
165.74818729
 20
147.72351746
  0
VERTEX
  8
0
 10
165.89376582
 20
147.59120670
  0
VERTEX
  8
0
 10
166.02607658
 20
147.44562816
  0
VERTEX
  8
0
 10
166.14408912
 20
147.28781229
  0
VERTEX
  8
0
 10
166.24677299
 20
147.11878953
  0
VERTEX
  8
0
 10
166.33309776
 20
146.93959031
  0
VERTEX
  8
0
 10
166.40203298
 20
146.75124509
  0
VERTEX
  8
0
 10
166.45254821
 20
146.55478430
  0
VERTEX
  8
0
 10
166.48361300
 20
146.35123839
  0
VERTEX
  8
0
 10
166.49419692
 20
146.14163780
  0
VERTEX
  8
0
 10
166.48361300
 20
145.93203721
  0
VERTEX
  8
0
 10
166.45254821
 20
145.72849130
  0
VERTEX
  8
0
 10
166.40203298
 20
145.53203051
  0
VERTEX
  8
0
 10
166.33309776
 20
145.34368529
  0
VERTEX
  8
0
 10
166.24677299
 20
145.16448607
  0
VERTEX
  8
0
 10
166.14408912
 20
144.99546331
  0
VERTEX
  8
0
 10
166.02607658
 20
144.83764743
  0
VERTEX
  8
0
 10
165.89376582
 20
144.69206890
  0
VERTEX
  8
0
 10
165.74818729
 20
144.55975814
  0
VERTEX
  8
0
 10
165.59037141
 20
144.44174560
  0
VERTEX
  8
0
 10
165.42134865
 20
144.33906173
  0
VERTEX
  8
0
 10
165.24214943
 20
144.25273696
  0
VERTEX
  8
0
 10
165.05380421
 20
144.18380174
  0
VERTEX
  8
0
 10
164.85734342
 20
144.13328651
  0
VERTEX
  8
0
 10
164.65379751
 20
144.10222172
  0
VERTEX
  8
0
 10
164.44419692
 20
144.09163780
  0
VERTEX
  8
0
 10
164.23459633
 20
144.10222172
  0
VERTEX
  8
0
 10
164.03105042
 20
144.13328651
  0
VERTEX
  8
0
 10
163.83458963
 20
144.18380174
  0
VERTEX
  8
0
 10
163.64624441
 20
144.25273696
  0
VERTEX
  8
0
 10
163.46704519
 20
144.33906173
  0
VERTEX
  8
0
 10
163.29802243
 20
144.44174560
  0
VERTEX
  8
0
 10
163.14020655
 20
144.55975814
  0
VERTEX
  8
0
 10
162.99462802
 20
144.69206890
  0
VERTEX
  8
0
 10
162.86231726
 20
144.83764743
  0
VERTEX
  8
0
 10
162.74430472
 20
144.99546331
  0
VERTEX
  8
0
 10
162.64162085
 20
145.16448607
  0
VERTEX
  8
0
 10
162.55529608
 20
145.34368529
  0
VERTEX
  8
0
 10
162.48636086
 20
145.53203051
  0
VERTEX
  8
0
 10
162.43584563
 20
145.72849130
  0
VERTEX
  8
0
 10
162.40478084
 20
145.93203721
  0
VERTEX
  8
0
 10
162.39419692
 20
146.14163780
  0
SEQEND
  0
POLYLINE
  8
Default Layer
 62
256
 66
   1
 39
0.000000
 70
    1
  0
VERTEX
  8
0
 10
124.00030928
 20
60.00007216
  0
VERTEX
  8
0
 10
124.01859930
 20
61.44545735
  0
VERTEX
  8
0
 10
124.07317613
 20
62.88182474
  0
VERTEX
  8
0
 10
124.16359996
 20
64.30873452
  0
VERTEX
  8
0
 10
124.28943097
 20
65.72574686
  0
VERTEX
  8
0
 10
124.45022932
 20
67.13242194
  0
VERTEX
  8
0
 10
124.64555520
 20
68.52831994
  0
VERTEX
  8
0
 10
124.87496878
 20
69.91300104
  0
VERTEX
  8
0
 10
125.13803024
 20
71.28602541
  0
VERTEX
  8
0
 10
125.43429976
 20
72.64695323
  0
VERTEX
  8
0
 10
125.76333752
 20
73.99534467
  0
VERTEX
  8
0
 10
126.12470368
 20
75.33075991
  0
VERTEX
  8
0
 10
126.51795844
 20
76.65275914
  0
VERTEX
  8
0
 10
126.94266196
 20
77.96090252
  0
VERTEX
  8
0
 10
127.39837442
 20
79.25475024
  0
VERTEX
  8
0
 10
127.88465600
 20
80.53386247
  0
VERTEX
  8
0
 10
128.40106687
 20
81.79779938
  0
VERTEX
  8
0
 10
128.94716722
 20
83.04612116
  0
VERTEX
  8
0
 10
129.52251722
 20
84.27838798
  0
VERTEX
  8
0
 10
130.12667705
 20
85.49416002
  0
VERTEX
  8
0
 10
130.75920688
 20
86.69299745
  0
VERTEX
  8
0
 10
131.41966689
 20
87.87446046
  0
VERTEX
  8
0
 10
132.10761725
 20
89.03810921
  0
VERTEX
  8
0
 10
132.82261816
 20
90.18350390
  0
VERTEX
  8
0
 10
133.56422977
 20
91.31020468
  0
VERTEX
  8
0
 10
134.33201227
 20
92.41777175
  0
VERTEX
  8
0
 10
135.12552584
 20
93.50576527
  0
VERTEX
  8
0
 10
135.94433065
 20
94.57374542
  0
VERTEX
  8
0
 10
136.78798688
 20
95.62127239
  0
VERTEX
  8
0
 10
137.65605471
 20
96.64790635
  0
VERTEX
  8
0
 10
138.54809431
 20
97.65320747
  0
VERTEX
  8
0
 10
139.46366585
 20
98.63673593
  0
VERTEX
  8
0
 10
140.40232953
 20
99.59805191
  0
VERTEX
  8
0
 10
141.36364551
 20
100.53671559
  0
VERTEX
  8
0
 10
142.34717398
 20
101.45228714
  0
VERTEX
  8
0
 10
143.35247510
 20
102.34432674
  0
VERTEX
  8
0
 10
144.37910905
 20
103.21239456
  0
VERTEX
  8
0
 10
145.42663602
 20
104.05605079
  0
VERTEX
  8
0
 10
146.49461618
 20
104.87485560
  0
VERTEX
  8
0
 10
147.58260970
 20
105.66836917
  0
VERTEX
  8
0
 10
148.69017676
 20
106.43615167
  0
VERTEX
  8
0
 10
149.81687755
 20
107.17776329
  0
VERTEX
  8
0
 10
150.96227223
 20
107.89276419
  0
VERTEX
  8
0
 10
152.12592099
 20
108.58071456
  0
VERTEX
  8
0
 10
153.30738399
 20
109.24117457
  0
VERTEX
  8
0
 10
154.50622143
 20
109.87370440
  0
VERTEX
  8
0
 10
155.72199346
 20
110.47786422
  0
VERTEX
  8
0
 10
156.95426028
 20
111.05321422
  0
VERTEX
  8
0
 10
158.20258206
 20
111.59931457
  0
VERTEX
  8
0
 10
159.46651898
 20
112.11572545
  0
VERTEX
  8
0
 10
160.74563120
 20
112.60200703
  0
VERTEX
  8
0
 10
162.03947892
 20
113.05771949
  0
VERTEX
  8
0
 10
163.34762230
 20
113.48242301
  0
VERTEX
  8
0
 10
164.66962153
 20
113.87567776
  0
VERTEX
  8
0
 10
166.00503677
 20
114.23704392
  0
VERTEX
  8
0
 10
167.35342822
 20
114.56608168
  0
VERTEX
  8
0
 10
168.71435603
 20
114.86235120
  0
VERTEX
  8
0
 10
170.08738040
 20
115.12541266
  0
VERTEX
  8
0
 10
171.47206150
 20
115.35482625
  0
VERTEX
  8
0
 10
172.86795950
 20
115.55015212
  0
VERTEX
  8
0
 10
174.27463459
 20
115.71095048
  0
VERTEX
  8
0
 10
175.69164693
 20
115.83678148
  0
VERTEX
  8
0
 10
177.11855671
 20
115.92720531
  0
VERTEX
  8
0
 10
178.55492410
 20
115.98178215
  0
VERTEX
  8
0
 10
180.00030928
 20
116.00007216
  0
VERTEX
  8
0
 10
181.44569446
 20
115.98178215
  0
VERTEX
  8
0
 10
182.88206185
 20
115.92720531
  0
VERTEX
  8
0
 10
184.30897163
 20
115.83678148
  0
VERTEX
  8
0
 10
185.72598397
 20
115.71095048
  0
VERTEX
  8
0
 10
187.13265906
 20
115.55015212
  0
VERTEX
  8
0
 10
188.52855706
 20
115.35482625
  0
VERTEX
  8
0
 10
189.91323815
 20
115.12541266
  0
VERTEX
  8
0
 10
191.28626252
 20
114.86235120
  0
VERTEX
  8
0
 10
192.64719034
 20
114.56608168
  0
VERTEX
  8
0
 10
193.99558178
 20
114.23704392
  0
VERTEX
  8
0
 10
195.33099703
 20
113.87567776
  0
VERTEX
  8
0
 10
196.65299625
 20
113.48242301
  0
VERTEX
  8
0
 10
197.96113964
 20
113.05771949
  0
VERTEX
  8
0
 10
199.25498735
 20
112.60200703
  0
VERTEX
  8
0
 10
200.53409958
 20
112.11572545
  0
VERTEX
  8
0
 10
201.79803649
 20
111.59931457
  0
VERTEX
  8
0
 10
203.04635827
 20
111.05321422
  0
VERTEX
  8
0
 10
204.27862509
 20
110.47786422
  0
VERTEX
  8
0
 10
205.49439713
 20
109.87370440
  0
VERTEX
  8
0
 10
206.69323456
 20
109.24117457
  0
VERTEX
  8
0
 10
207.87469757
 20
108.58071456
  0
VERTEX
  8
0
 10
209.03834633
 20
107.89276419
  0
VERTEX
  8
0
 10
210.18374101
 20
107.17776329
  0
VERTEX
  8
0
 10
211.31044179
 20
106.43615167
  0
VERTEX
  8
0
 10
212.41800886
 20
105.66836917
  0
VERTEX
  8
0
 10
213.50600238
 20
104.87485560
  0
VERTEX
  8
0
 10
214.57398254
 20
104.05605079
  0
VERTEX
  8
0
 10
215.62150951
 20
103.21239456
  0
VERTEX
  8
0
 10
216.64814346
 20
102.34432674
  0
VERTEX
  8
0
 10
217.65344458
 20
101.45228714
  0
VERTEX
  8
0
 10
218.63697304
 20
100.53671559
  0
VERTEX
  8
0
 10
219.59828902
 20
99.59805191
  0
VERTEX
  8
0
 10
220.53695270
 20
98.63673593
  0
VERTEX
  8
0
 10
221.45252425
 20
97.65320747
  0
VERTEX
  8
0
 10
222.34456385
 20
96.64790635
  0
VERTEX
  8
0
 10
223.21263168
 20
95.62127239
  0
VERTEX
  8
0
 10
224.05628791
 20
94.57374542
  0
VERTEX
  8
0
 10
224.87509272
 20
93.50576527
  0
VERTEX
  8
0
 10
225.66860629
 20
92.41777175
  0
VERTEX
  8
0
 10
226.43638879
 20
91.31020468
  0
VERTEX
  8
0
 10
227.17800040
 20
90.18350390
  0
VERTEX
  8
0
 10
227.89300130
 20
89.03810921
  0
VERTEX
  8
0
 10
228.58095167
 20
87.87446046
  0
VERTEX
  8
0
 10
229.24141168
 20
86.69299745
  0
VERTEX
  8
0
 10
229.87394151
 20
85.49416002
  0
VERTEX
  8
0
 10
230.47810134
 20
84.27838798
  0
VERTEX
  8
0
 10
231.05345133
 20
83.04612116
  0
VERTEX
  8
0
 10
231.59955168
 20
81.79779938
  0
VERTEX
  8
0
 10
232.11596256
 20
80.53386247
  0
VERTEX
  8
0
 10
232.60224414
 20
79.25475024
  0
VERTEX
  8
0
 10
233.05795660
 20
77.96090252
  0
VERTEX
  8
0
 10
233.48266012
 20
76.65275914
  0
VERTEX
  8
0
 10
233.87591487
 20
75.33075991
  0
VERTEX
  8
0
 10
234.23728104
 20
73.99534467
  0
VERTEX
  8
0
 10
234.56631879
 20
72.64695323
  0
VERTEX
  8
0
 10
234.86258831
 20
71.28602541
  0
VERTEX
  8
0
 10
235.12564978
 20
69.91300104
  0
VERTEX
  8
0
 10
235.35506336
 20
68.52831994
  0
VERTEX
  8
0
 10
235.55038924
 20
67.13242194
  0
VERTEX
  8
0
 10
235.71118759
 20
65.72574686
  0
VERTEX
  8
0
 10
235.83701859
 20
64.30873452
  0
VERTEX
  8
0
 10
235.92744243
 20
62.88182474
  0
VERTEX
  8
0
 10
235.98201926
 20
61.44545735
  0
VERTEX
  8
0
 10
236.00030928
 20
60.00007216
  0
VERTEX
  8
0
 10
235.98201926
 20
58.55468698
  0
VERTEX
  8
0
 10
235.92744243
 20
57.11831959
  0
VERTEX
  8
0
 10
235.83701859
 20
55.69140981
  0
VERTEX
  8
0
 10
235.71118759
 20
54.27439747
  0
VERTEX
  8
0
 10
235.55038924
 20
52.86772239
  0
VERTEX
  8
0
 10
235.35506336
 20
51.47182439
  0
VERTEX
  8
0
 10
235.12564978
 20
50.08714329
  0
VERTEX
  8
0
 10
234.86258831
 20
48.71411892
  0
VERTEX
  8
0
 10
234.56631879
 20
47.35319110
  0
VERTEX
  8
0
 10
234.23728104
 20
46.00479966
  0
VERTEX
  8
0
 10
233.87591487
 20
44.66938442
  0
VERTEX
  8
0
 10
233.48266012
 20
43.34738519
  0
VERTEX
  8
0
 10
233.05795660
 20
42.03924181
  0
VERTEX
  8
0
 10
232.60224414
 20
40.74539409
  0
VERTEX
  8
0
 10
232.11596256
 20
39.46628186
  0
VERTEX
  8
0
 10
231.59955168
 20
38.20234495
  0
VERTEX
  8
0
 10
231.05345133
 20
36.95402317
  0
VERTEX
  8
0
 10
230.47810134
 20
35.72175635
  0
VERTEX
  8
0
 10
229.87394151
 20
34.50598431
  0
VERTEX
  8
0
 10
229.24141168
 20
33.30714688
  0
VERTEX
  8
0
 10
228.58095167
 20
32.12568387
  0
VERTEX
  8
0
 10
227.89300130
 20
30.96203512
  0
VERTEX
  8
0
 10
227.17800040
 20
29.81664043
  0
VERTEX
  8
0
 10
226.43638879
 20
28.68993965
  0
VERTEX
  8
0
 10
225.66860629
 20
27.58237258
  0
VERTEX
  8
0
 10
224.87509272
 20
26.49437906
  0
VERTEX
  8
0
 10
224.05628791
 20
25.42639891
  0
VERTEX
  8
0
 10
223.21263168
 20
24.37887194
  0
VERTEX
  8
0
 10
222.34456385
 20
23.35223798
  0
VERTEX
  8
0
 10
221.45252425
 20
22.34693686
  0
VERTEX
  8
0
 10
220.53695270
 20
21.36340840
  0
VERTEX
  8
0
 10
219.59828902
 20
20.40209242
  0
VERTEX
  8
0
 10
218.63697304
 20
19.46342874
  0
VERTEX
  8
0
 10
217.65344458
 20
18.54785719
  0
VERTEX
  8
0
 10
216.64814346
 20
17.65581759
  0
VERTEX
  8
0
 10
215.62150951
 20
16.78774977
  0
VERTEX
  8
0
 10
214.57398254
 20
15.94409354
  0
VERTEX
  8
0
 10
213.50600238
 20
15.12528873
  0
VERTEX
  8
0
 10
212.41800886
 20
14.33177516
  0
VERTEX
  8
0
 10
211.31044179
 20
13.56399266
  0
VERTEX
  8
0
 10
210.18374101
 20
12.82238104
  0
VERTEX
  8
0
 10
209.03834633
 20
12.10738014
  0
VERTEX
  8
0
 10
207.87469757
 20
11.41942977
  0
VERTEX
  8
0
 10
206.69323456
 20
10.75896976
  0
VERTEX
  8
0
 10
205.49439713
 20
10.12643993
  0
VERTEX
  8
0
 10
204.27862509
 20
9.52228011
  0
VERTEX
  8
0
 10
203.04635827
 20
8.94693011
  0
VERTEX
  8
0
 10
201.79803649
 20
8.40082976
  0
VERTEX
  8
0
 10
200.53409958
 20
7.88441888
  0
VERTEX
  8
0
 10
199.25498735
 20
7.39813730
  0
VERTEX
  8
0
 10
197.96113964
 20
6.94242484
  0
VERTEX
  8
0
 10
196.65299625
 20
6.51772132
  0
VERTEX
  8
0
 10
195.33099703
 20
6.12446657
  0
VERTEX
  8
0
 10
193.99558178
 20
5.76310040
  0
VERTEX
  8
0
 10
192.64719034
 20
5.43406265
  0
VERTEX
  8
0
 10
191.28626252
 20
5.13779313
  0
VERTEX
  8
0
 10
189.91323815
 20
4.87473167
  0
VERTEX
  8
0
 10
188.52855706
 20
4.64531808
  0
VERTEX
  8
0
 10
187.13265906
 20
4.44999221
  0
VERTEX
  8
0
 10
185.72598397
 20
4.28919385
  0
VERTEX
  8
0
 10
184.30897163
 20
4.16336285
  0
VERTEX
  8
0
 10
182.88206185
 20
4.07293902
  0
VERTEX
  8
0
 10
181.44569446
 20
4.01836218
  0
VERTEX
  8
0
 10
180.00030928
 20
4.00007216
  0
VERTEX
  8
0
 10
178.55492410
 20
4.01836218
  0
VERTEX
  8
0
 10
177.11855671
 20
4.07293902
  0
VERTEX
  8
0
 10
175.69164693
 20
4.16336285
  0
VERTEX
  8
0
 10
174.27463459
 20
4.28919385
  0
VERTEX
  8
0
 10
172.86795950
 20
4.44999221
  0
VERTEX
  8
0
 10
171.47206150
 20
4.64531808
  0
VERTEX
  8
0
 10
170.08738040
 20
4.87473167
  0
VERTEX
  8
0
 10
168.71435603
 20
5.13779313
  0
VERTEX
  8
0
 10
167.35342822
 20
5.43406265
  0
VERTEX
  8
0
 10
166.00503677
 20
5.76310040
  0
VERTEX
  8
0
 10
164.66962153
 20
6.12446657
  0
VERTEX
  8
0
 10
163.34762230
 20
6.51772132
  0
VERTEX
  8
0
 10
162.03947892
 20
6.94242484
  0
VERTEX
  8
0
 10
160.74563120
 20
7.39813730
  0
VERTEX
  8
0
 10
159.46651898
 20
7.88441888
  0
VERTEX
  8
0
 10
158.20258206
 20
8.40082976
  0
VERTEX
  8
0
 10
156.95426028
 20
8.94693011
  0
VERTEX
  8
0
 10
155.72199346
 20
9.52228011
  0
VERTEX
  8
0
 10
154.50622143
 20
10.12643993
  0
VERTEX
  8
0
 10
153.30738399
 20
10.75896976
  0
VERTEX
  8
0
 10
152.12592099
 20
11.41942977
  0
VERTEX
  8
0
 10
150.96227223
 20
12.10738014
  0
VERTEX
  8
0
 10
149.81687755
 20
12.82238104
  0
VERTEX
  8
0
 10
148.69017676
 20
13.56399266
  0
VERTEX
  8
0
 10
147.58260970
 20
14.33177516
  0
VERTEX
  8
0
 10
146.49461618
 20
15.12528873
  0
VERTEX
  8
0
 10
145.42663602
 20
15.94409354
  0
VERTEX
  8
0
 10
144.37910905
 20
16.78774977
  0
VERTEX
  8
0
 10
143.35247510
 20
17.65581759
  0
VERTEX
  8
0
 10
142.34717398
 20
18.54785719
  0
VERTEX
  8
0
 10
141.36364551
 20
19.46342874
  0
VERTEX
  8
0
 10
140.40232953
 20
20.40209242
  0
VERTEX
  8
0
 10
139.46366585
 20
21.36340840
  0
VERTEX
  8
0
 10
138.54809431
 20
22.34693686
  0
VERTEX
  8
0
 10
137.65605471
 20
23.35223798
  0
VERTEX
  8
0
 10
136.78798688
 20
24.37887194
  0
VERTEX
  8
0
 10
135.94433065
 20
25.42639891
  0
VERTEX
  8
0
 10
135.12552584
 20
26.49437906
  0
VERTEX
  8
0
 10
134.33201227
 20
27.58237258
  0
VERTEX
  8
0
 10
133.56422977
 20
28.68993965
  0
VERTEX
  8
0
 10
132.82261816
 20
29.81664043
  0
VERTEX
  8
0
 10
132.10761725
 20
30.96203512
  0
VERTEX
  8
0
 10
131.41966689
 20
32.12568387
  0
VERTEX
  8
0
 10
130.75920688
 20
33.30714688
  0
VERTEX
  8
0
 10
130.12667705
 20
34.50598431
  0
VERTEX
  8
0
 10
129.52251722
 20
35.72175635
  0
VERTEX
  8
0
 10
128.94716722
 20
36.95402317
  0
VERTEX
  8
0
 10
128.40106687
 20
38.20234495
  0
VERTEX
  8
0
 10
127.88465600
 20
39.46628186
  0
VERTEX
  8
0
 10
127.39837442
 20
40.74539409
  0
VERTEX
  8
0
 10
126.94266196
 20
42.03924181
  0
VERTEX
  8
0
 10
126.51795844
 20
43.34738519
  0
VERTEX
  8
0
 10
126.12470368
 20
44.66938442
  0
VERTEX
  8
0
 10
125.76333752
 20
46.00479966
  0
VERTEX
  8
0
 10
125.43429976
 20
47.35319110
  0
VERTEX
  8
0
 10
125.13803024
 20
48.71411892
  0
VERTEX
  8
0
 10
124.87496878
 20
50.08714329
  0
VERTEX
  8
0
 10
124.64555520
 20
51.47182439
  0
VERTEX
  8
0
 10
124.45022932
 20
52.86772239
  0
VERTEX
  8
0
 10
124.28943097
 20
54.27439747
  0
VERTEX
  8
0
 10
124.16359996
 20
55.69140981
  0
VERTEX
  8
0
 10
124.07317613
 20
57.11831959
  0
VERTEX
  8
0
 10
124.01859930
 20
58.55468698
  0
VERTEX
  8
0
 10
124.00030928
 20
60.00007216
  0
SEQEND
  0
POLYLINE
  8
Default Layer
 62
256
 66
   1
 39
0.000000
 70
    1
  0
VERTEX
  8
0
 10
177.45030928
 20
60.00007216
  0
VERTEX
  8
0
 10
177.46347464
 20
60.26079485
  0
VERTEX
  8
0
 10
177.50211622
 20
60.51398611
  0
VERTEX
  8
0
 10
177.56495223
 20
60.75836416
  0
VERTEX
  8
0
 10
177.65070092
 20
60.99264724
  0
VERTEX
  8
0
 10
177.75808051
 20
61.21555358
  0
VERTEX
  8
0
 10
177.88580923
 20
61.42580141
  0
VERTEX
  8
0
 10
178.03260531
 20
61.62210896
  0
VERTEX
  8
0
 10
178.19718699
 20
61.80319446
  0
VERTEX
  8
0
 10
178.37827248
 20
61.96777613
  0
VERTEX
  8
0
 10
178.57458003
 20
62.11457221
  0
VERTEX
  8
0
 10
178.78482786
 20
62.24230094
  0
VERTEX
  8
0
 10
179.00773420
 20
62.34968052
  0
VERTEX
  8
0
 10
179.24201728
 20
62.43542921
  0
VERTEX
  8
0
 10
179.48639534
 20
62.49826523
  0
VERTEX
  8
0
 10
179.73958659
 20
62.53690680
  0
VERTEX
  8
0
 10
180.00030928
 20
62.55007216
  0
VERTEX
  8
0
 10
180.26103197
 20
62.53690680
  0
VERTEX
  8
0
 10
180.51422322
 20
62.49826523
  0
VERTEX
  8
0
 10
180.75860127
 20
62.43542921
  0
VERTEX
  8
0
 10
180.99288436
 20
62.34968052
  0
VERTEX
  8
0
 10
181.21579070
 20
62.24230094
  0
VERTEX
  8
0
 10
181.42603853
 20
62.11457221
  0
VERTEX
  8
0
 10
181.62234607
 20
61.96777613
  0
VERTEX
  8
0
 10
181.80343157
 20
61.80319446
  0
VERTEX
  8
0
 10
181.96801324
 20
61.62210896
  0
VERTEX
  8
0
 10
182.11480933
 20
61.42580141
  0
VERTEX
  8
0
 10
182.24253805
 20
61.21555358
  0
VERTEX
  8
0
 10
182.34991764
 20
60.99264724
  0
VERTEX
  8
0
 10
182.43566633
 20
60.75836416
  0
VERTEX
  8
0
 10
182.49850234
 20
60.51398611
  0
VERTEX
  8
0
 10
182.53714392
 20
60.26079485
  0
VERTEX
  8
0
 10
182.55030928
 20
60.00007216
  0
VERTEX
  8
0
 10
182.53714392
 20
59.73934948
  0
VERTEX
  8
0
 10
182.49850234
 20
59.48615822
  0
VERTEX
  8
0
 10
182.43566633
 20
59.24178017
  0
VERTEX
  8
0
 10
182.34991764
 20
59.00749709
  0
VERTEX
  8
0
 10
182.24253805
 20
58.78459075
  0
VERTEX
  8
0
 10
182.11480933
 20
58.57434292
  0
VERTEX
  8
0
 10
181.96801324
 20
58.37803537
  0
VERTEX
  8
0
 10
181.80343157
 20
58.19694987
  0
VERTEX
  8
0
 10
181.62234607
 20
58.03236820
  0
VERTEX
  8
0
 10
181.42603853
 20
57.88557212
  0
VERTEX
  8
0
 10
181.21579070
 20
57.75784339
  0
VERTEX
  8
0
 10
180.99288436
 20
57.65046381
  0
VERTEX
  8
0
 10
180.75860127
 20
57.56471512
  0
VERTEX
  8
0
 10
180.51422322
 20
57.50187910
  0
VERTEX
  8
0
 10
180.26103197
 20
57.46323753
  0
VERTEX
  8
0
 10
180.00030928
 20
57.45007216
  0
VERTEX
  8
0
 10
179.73958659
 20
57.46323753
  0
VERTEX
  8
0
 10
179.48639534
 20
57.50187910
  0
VERTEX
  8
0
 10
179.24201728
 20
57.56471512
  0
VERTEX
  8
0
 10
179.00773420
 20
57.65046381
  0
VERTEX
  8
0
 10
178.78482786
 20
57.75784339
  0
VERTEX
  8
0
 10
178.57458003
 20
57.88557212
  0
VERTEX
  8
0
 10
178.37827248
 20
58.03236820
  0
VERTEX
  8
0
 10
178.19718699
 20
58.19694987
  0
VERTEX
  8
0
 10
178.03260531
 20
58.37803537
  0
VERTEX
  8
0
 10
177.88580923
 20
58.57434292
  0
VERTEX
  8
0
 10
177.75808051
 20
58.78459075
  0
VERTEX
  8
0
 10
177.65070092
 20
59.00749709
  0
VERTEX
  8
0
 10
177.56495223
 20
59.24178017
  0
VERTEX
  8
0
 10
177.50211622
 20
59.48615822
  0
VERTEX
  8
0
 10
177.46347464
 20
59.73934948
  0
VERTEX
  8
0
 10
177.45030928
 20
60.00007216
  0
SEQEND
  0
POLYLINE
  8
Default Layer
 62
256
 66
   1
 39
0.000000
 70
    1
  0
VERTEX
  8
0
 10
133.08325775
 20
63.84243433
  0
VERTEX
  8
0
 10
133.15063830
 20
64.59773155
  0
VERTEX
  8
0
 10
133.32455775
 20
65.08950378
  0
VERTEX
  8
0
 10
133.46637441
 20
65.19004544
  0
VERTEX
  8
0
 10
134.87325219
 20
65.71921211
  0
VERTEX
  8
0
 10
135.23696608
 20
65.84338989
  0
VERTEX
  8
0
 10
136.06528830
 20
66.07904544
  0
VERTEX
  8
0
 10
136.17429664
 20
66.10515100
  0
VERTEX
  8
0
 10
136.75990775
 20
66.24449822
  0
VERTEX
  8
0
 10
137.35645497
 20
66.36550100
  0
VERTEX
  8
0
 10
138.23028553
 20
66.51860655
  0
VERTEX
  8
0
 10
138.37492441
 20
66.60256766
  0
VERTEX
  8
0
 10
138.45888553
 20
66.67700378
  0
VERTEX
  8
0
 10
138.76086330
 20
68.34599544
  0
VERTEX
  8
0
 10
138.70829941
 20
68.44512600
  0
VERTEX
  8
0
 10
138.60211330
 20
68.57459544
  0
VERTEX
  8
0
 10
137.84011330
 20
69.02403433
  0
VERTEX
  8
0
 10
137.32223553
 20
69.34788433
  0
VERTEX
  8
0
 10
136.82340775
 20
69.68408155
  0
VERTEX
  8
0
 10
136.73097997
 20
69.74722878
  0
VERTEX
  8
0
 10
136.03777164
 20
70.25875655
  0
VERTEX
  8
0
 10
135.74143830
 20
70.50252600
  0
VERTEX
  8
0
 10
134.61007997
 20
71.49347878
  0
VERTEX
  8
0
 10
134.51236053
 20
71.63670655
  0
VERTEX
  8
0
 10
134.52329664
 20
72.15740655
  0
VERTEX
  8
0
 10
134.72437997
 20
72.88942044
  0
VERTEX
  8
0
 10
134.98367164
 20
73.34273989
  0
VERTEX
  8
0
 10
135.14065775
 20
73.41576489
  0
VERTEX
  8
0
 10
136.61914941
 20
73.68458155
  0
VERTEX
  8
0
 10
136.99979664
 20
73.74243711
  0
VERTEX
  8
0
 10
137.85669386
 20
73.82639822
  0
VERTEX
  8
0
 10
137.96993553
 20
73.83310100
  0
VERTEX
  8
0
 10
138.56930497
 20
73.86485100
  0
VERTEX
  8
0
 10
139.17961053
 20
73.87719822
  0
VERTEX
  8
0
 10
140.06578830
 20
73.87331766
  0
VERTEX
  8
0
 10
140.22136330
 20
73.92976211
  0
VERTEX
  8
0
 10
140.31802441
 20
73.98761766
  0
VERTEX
  8
0
 10
140.91457164
 20
75.57511766
  0
VERTEX
  8
0
 10
140.88035219
 20
75.68271489
  0
VERTEX
  8
0
 10
140.79886053
 20
75.82876489
  0
VERTEX
  8
0
 10
140.12928830
 20
76.40732044
  0
VERTEX
  8
0
 10
139.67702719
 20
76.81795378
  0
VERTEX
  8
0
 10
139.24734386
 20
77.23705378
  0
VERTEX
  8
0
 10
139.16585219
 20
77.31678155
  0
VERTEX
  8
0
 10
138.57600775
 20
77.94402044
  0
VERTEX
  8
0
 10
138.32800497
 20
78.23753155
  0
VERTEX
  8
0
 10
137.39102719
 20
79.41298711
  0
VERTEX
  8
0
 10
137.32082441
 20
79.57138433
  0
VERTEX
  8
0
 10
137.42559941
 20
80.08255933
  0
VERTEX
  8
0
 10
137.75332997
 20
80.76624266
  0
VERTEX
  8
0
 10
138.08811608
 20
81.16593989
  0
VERTEX
  8
0
 10
138.25639108
 20
81.21003711
  0
VERTEX
  8
0
 10
139.76134108
 20
81.21003711
  0
VERTEX
  8
0
 10
140.14445775
 20
81.19874822
  0
VERTEX
  8
0
 10
141.00135497
 20
81.12854544
  0
VERTEX
  8
0
 10
141.11459664
 20
81.11619822
  0
VERTEX
  8
0
 10
141.71114386
 20
81.04035100
  0
VERTEX
  8
0
 10
142.31333553
 20
80.94404266
  0
VERTEX
  8
0
 10
143.18434386
 20
80.78000100
  0
VERTEX
  8
0
 10
143.34838553
 20
80.80751766
  0
VERTEX
  8
0
 10
143.45280775
 20
80.84738155
  0
VERTEX
  8
0
 10
144.32381608
 20
82.30400100
  0
VERTEX
  8
0
 10
144.30864664
 20
82.41583155
  0
VERTEX
  8
0
 10
144.25502441
 20
82.57422878
  0
VERTEX
  8
0
 10
143.69834108
 20
83.26320378
  0
VERTEX
  8
0
 10
143.32898275
 20
83.74827322
  0
VERTEX
  8
0
 10
142.97902719
 20
84.23757600
  0
VERTEX
  8
0
 10
142.91411608
 20
84.32965100
  0
VERTEX
  8
0
 10
142.44562719
 20
85.05178711
  0
VERTEX
  8
0
 10
142.25406886
 20
85.38410378
  0
VERTEX
  8
0
 10
141.54181053
 20
86.70948989
  0
VERTEX
  8
0
 10
141.50159386
 20
86.87776489
  0
VERTEX
  8
0
 10
141.69456330
 20
87.36283433
  0
VERTEX
  8
0
 10
142.14117997
 20
87.97596211
  0
VERTEX
  8
0
 10
142.54193553
 20
88.30968989
  0
VERTEX
  8
0
 10
142.71444386
 20
88.32344822
  0
VERTEX
  8
0
 10
144.19434664
 20
88.05463155
  0
VERTEX
  8
0
 10
144.56934941
 20
87.97455100
  0
VERTEX
  8
0
 10
145.40155219
 20
87.75265378
  0
VERTEX
  8
0
 10
145.51056053
 20
87.71984544
  0
VERTEX
  8
0
 10
146.08382441
 20
87.53922322
  0
VERTEX
  8
0
 10
146.65814664
 20
87.33672878
  0
VERTEX
  8
0
 10
147.48646886
 20
87.02099266
  0
VERTEX
  8
0
 10
147.65333275
 20
87.01817044
  0
VERTEX
  8
0
 10
147.76339941
 20
87.03898433
  0
VERTEX
  8
0
 10
148.87958830
 20
88.31639266
  0
VERTEX
  8
0
 10
148.88523275
 20
88.42822322
  0
VERTEX
  8
0
 10
148.86053830
 20
88.59332322
  0
VERTEX
  8
0
 10
148.43579386
 20
89.37049266
  0
VERTEX
  8
0
 10
148.15745219
 20
89.91341766
  0
VERTEX
  8
0
 10
147.90274664
 20
90.45775378
  0
VERTEX
  8
0
 10
147.85441608
 20
90.56111766
  0
VERTEX
  8
0
 10
147.52245219
 20
91.35486766
  0
VERTEX
  8
0
 10
147.39404108
 20
91.71611211
  0
VERTEX
  8
0
 10
146.92978553
 20
93.14662600
  0
VERTEX
  8
0
 10
146.91884941
 20
93.32019266
  0
VERTEX
  8
0
 10
147.19577997
 20
93.76257600
  0
VERTEX
  8
0
 10
147.74434941
 20
94.28609822
  0
VERTEX
  8
0
 10
148.19907997
 20
94.54362600
  0
VERTEX
  8
0
 10
148.37123553
 20
94.52598711
  0
VERTEX
  8
0
 10
149.77952441
 20
93.99682044
  0
VERTEX
  8
0
 10
150.13371330
 20
93.85218155
  0
VERTEX
  8
0
 10
150.91229386
 20
93.48423433
  0
VERTEX
  8
0
 10
151.01283553
 20
93.43308155
  0
VERTEX
  8
0
 10
151.54623553
 20
93.15332878
  0
VERTEX
  8
0
 10
152.07540219
 20
92.85029266
  0
VERTEX
  8
0
 10
152.83316886
 20
92.39132878
  0
VERTEX
  8
0
 10
152.99721053
 20
92.35957878
  0
VERTEX
  8
0
 10
153.10904108
 20
92.36098989
  0
VERTEX
  8
0
 10
154.43583830
 20
93.41791211
  0
VERTEX
  8
0
 10
154.46088553
 20
93.52833155
  0
VERTEX
  8
0
 10
154.46617719
 20
93.69343155
  0
VERTEX
  8
0
 10
154.18783553
 20
94.53551211
  0
VERTEX
  8
0
 10
154.01144664
 20
95.11830100
  0
VERTEX
  8
0
 10
153.85587164
 20
95.70003155
  0
VERTEX
  8
0
 10
153.82835497
 20
95.81009822
  0
VERTEX
  8
0
 10
153.64349941
 20
96.65076766
  0
VERTEX
  8
0
 10
153.58035219
 20
97.02823989
  0
VERTEX
  8
0
 10
153.37891608
 20
98.51943155
  0
VERTEX
  8
0
 10
153.39972997
 20
98.69158711
  0
VERTEX
  8
0
 10
153.75250775
 20
99.07752600
  0
VERTEX
  8
0
 10
154.38503830
 20
99.49521489
  0
VERTEX
  8
0
 10
154.87681053
 20
99.66595933
  0
VERTEX
  8
0
 10
155.04367441
 20
99.61762878
  0
VERTEX
  8
0
 10
156.33484108
 20
98.84751489
  0
VERTEX
  8
0
 10
156.65869108
 20
98.64078711
  0
VERTEX
  8
0
 10
157.35860219
 20
98.14054822
  0
VERTEX
  8
0
 10
157.44820775
 20
98.07140378
  0
VERTEX
  8
0
 10
157.92234108
 20
97.70098711
  0
VERTEX
  8
0
 10
158.38941886
 20
97.30940378
  0
VERTEX
  8
0
 10
159.05369941
 20
96.72238155
  0
VERTEX
  8
0
 10
159.20821608
 20
96.66170378
  0
VERTEX
  8
0
 10
159.31969386
 20
96.64265378
  0
VERTEX
  8
0
 10
160.81335497
 20
97.44592878
  0
VERTEX
  8
0
 10
160.85886330
 20
97.54929266
  0
VERTEX
  8
0
 10
160.89343553
 20
97.71192322
  0
VERTEX
  8
0
 10
160.76925775
 20
98.58963433
  0
VERTEX
  8
0
 10
160.69905497
 20
99.19464822
  0
VERTEX
  8
0
 10
160.65072441
 20
99.79401766
  0
VERTEX
  8
0
 10
160.64261053
 20
99.90725933
  0
VERTEX
  8
0
 10
160.61086053
 20
100.76838989
  0
VERTEX
  8
0
 10
160.61650497
 20
101.15150655
  0
VERTEX
  8
0
 10
160.68529664
 20
102.65363433
  0
VERTEX
  8
0
 10
160.73644941
 20
102.81908711
  0
VERTEX
  8
0
 10
161.15096330
 20
103.13588155
  0
VERTEX
  8
0
 10
161.84840497
 20
103.43362600
  0
VERTEX
  8
0
 10
162.36381330
 20
103.51476489
  0
VERTEX
  8
0
 10
162.51938830
 20
103.43750655
  0
VERTEX
  8
0
 10
163.65215775
 20
102.44831766
  0
VERTEX
  8
0
 10
163.93332164
 20
102.18761489
  0
VERTEX
  8
0
 10
164.53269108
 20
101.57025378
  0
VERTEX
  8
0
 10
164.60994941
 20
101.48629266
  0
VERTEX
  8
0
 10
165.00964664
 20
101.03720655
  0
VERTEX
  8
0
 10
165.39840775
 20
100.56871766
  0
VERTEX
  8
0
 10
165.94662441
 20
99.87268711
  0
VERTEX
  8
0
 10
166.08879386
 20
99.78449266
  0
VERTEX
  8
0
 10
166.19462719
 20
99.74603989
  0
VERTEX
  8
0
 10
167.80858553
 20
100.27097322
  0
VERTEX
  8
0
 10
167.87032164
 20
100.36340100
  0
VERTEX
  8
0
 10
167.93382164
 20
100.51756489
  0
VERTEX
  8
0
 10
167.96839386
 20
101.40374266
  0
VERTEX
  8
0
 10
168.00825775
 20
102.01122600
  0
VERTEX
  8
0
 10
168.06752441
 20
102.60953711
  0
VERTEX
  8
0
 10
168.07987164
 20
102.72242600
  0
VERTEX
  8
0
 10
168.20263830
 20
103.57544266
  0
VERTEX
  8
0
 10
168.27707441
 20
103.95150378
  0
VERTEX
  8
0
 10
168.61186053
 20
105.41800100
  0
VERTEX
  8
0
 10
168.69158830
 20
105.57075378
  0
VERTEX
  8
0
 10
169.15619664
 20
105.80782044
  0
VERTEX
  8
0
 10
169.89491330
 20
105.97750655
  0
VERTEX
  8
0
 10
170.41702441
 20
105.96480655
  0
VERTEX
  8
0
 10
170.55637164
 20
105.86179544
  0
VERTEX
  8
0
 10
171.49476053
 20
104.68598711
  0
VERTEX
  8
0
 10
171.72477164
 20
104.37871766
  0
VERTEX
  8
0
 10
172.20419664
 20
103.66363711
  0
VERTEX
  8
0
 10
172.26346330
 20
103.56732878
  0
VERTEX
  8
0
 10
172.57778830
 20
103.05438989
  0
VERTEX
  8
0
 10
172.87694386
 20
102.52416489
  0
VERTEX
  8
0
 10
173.29286886
 20
101.74135100
  0
VERTEX
  8
0
 10
173.41704664
 20
101.62952044
  0
VERTEX
  8
0
 10
173.51335497
 20
101.57166489
  0
VERTEX
  8
0
 10
175.19469386
 20
101.80061766
  0
VERTEX
  8
0
 10
175.27336330
 20
101.88034544
  0
VERTEX
  8
0
 10
175.36296886
 20
102.02110378
  0
VERTEX
  8
0
 10
175.55452719
 20
102.88646766
  0
VERTEX
  8
0
 10
175.70198830
 20
103.47772322
  0
VERTEX
  8
0
 10
175.86708830
 20
104.05627878
  0
VERTEX
  8
0
 10
175.90024941
 20
104.16387600
  0
VERTEX
  8
0
 10
176.17188830
 20
104.98090933
  0
VERTEX
  8
0
 10
176.31229386
 20
105.33792044
  0
VERTEX
  8
0
 10
176.90354941
 20
106.72151489
  0
VERTEX
  8
0
 10
177.01079386
 20
106.85803989
  0
VERTEX
  8
0
 10
177.50997441
 20
107.00832322
  0
VERTEX
  8
0
 10
178.26774108
 20
107.04254266
  0
VERTEX
  8
0
 10
178.77891608
 20
106.93776766
  0
VERTEX
  8
0
 10
178.89603830
 20
106.81112044
  0
VERTEX
  8
0
 10
179.61006053
 20
105.48679266
  0
VERTEX
  8
0
 10
179.78221608
 20
105.14353989
  0
VERTEX
  8
0
 10
180.12687997
 20
104.35402322
  0
VERTEX
  8
0
 10
180.16815497
 20
104.24924822
  0
VERTEX
  8
0
 10
180.38440775
 20
103.68833155
  0
VERTEX
  8
0
 10
180.58407997
 20
103.11259822
  0
VERTEX
  8
0
 10
180.85289664
 20
102.26769544
  0
VERTEX
  8
0
 10
180.95484941
 20
102.13540378
  0
VERTEX
  8
0
 10
181.04022164
 20
102.06237878
  0
VERTEX
  8
0
 10
182.73531886
 20
101.98653155
  0
VERTEX
  8
0
 10
182.82633553
 20
102.05144266
  0
VERTEX
  8
0
 10
182.94063553
 20
102.17385655
  0
VERTEX
  8
0
 10
183.28388830
 20
102.99124266
  0
VERTEX
  8
0
 10
183.53471330
 20
103.54651489
  0
VERTEX
  8
0
 10
183.80070775
 20
104.08520655
  0
VERTEX
  8
0
 10
183.85150775
 20
104.18715933
  0
VERTEX
  8
0
 10
184.26496330
 20
104.94245655
  0
VERTEX
  8
0
 10
184.46745775
 20
105.26771766
  0
VERTEX
  8
0
 10
185.29577997
 20
106.52325378
  0
VERTEX
  8
0
 10
185.42524941
 20
106.63896489
  0
VERTEX
  8
0
 10
185.94347997
 20
106.69823155
  0
VERTEX
  8
0
 10
186.69454386
 20
106.59627878
  0
VERTEX
  8
0
 10
187.17961330
 20
106.40189822
  0
VERTEX
  8
0
 10
187.27309941
 20
106.25584822
  0
VERTEX
  8
0
 10
187.73770775
 20
104.82533433
  0
VERTEX
  8
0
 10
187.84495219
 20
104.45738711
  0
VERTEX
  8
0
 10
188.04356608
 20
103.61953989
  0
VERTEX
  8
0
 10
188.06543830
 20
103.50806211
  0
VERTEX
  8
0
 10
188.17867997
 20
102.91821766
  0
VERTEX
  8
0
 10
188.27357719
 20
102.31461489
  0
VERTEX
  8
0
 10
188.38681886
 20
101.43690378
  0
VERTEX
  8
0
 10
188.46372441
 20
101.28803155
  0
VERTEX
  8
0
 10
188.53427997
 20
101.20124822
  0
VERTEX
  8
0
 10
190.18774941
 20
100.82342322
  0
VERTEX
  8
0
 10
190.28970219
 20
100.87175378
  0
VERTEX
  8
0
 10
190.42340497
 20
100.97088433
  0
VERTEX
  8
0
 10
190.90706330
 20
101.71383433
  0
VERTEX
  8
0
 10
191.25313830
 20
102.21548433
  0
VERTEX
  8
0
 10
191.61120775
 20
102.69914266
  0
VERTEX
  8
0
 10
191.67894108
 20
102.78980655
  0
VERTEX
  8
0
 10
192.22186608
 20
103.45832044
  0
VERTEX
  8
0
 10
192.47798275
 20
103.74371766
  0
VERTEX
  8
0
 10
193.51832441
 20
104.82956766
  0
VERTEX
  8
0
 10
193.66578553
 20
104.92058433
  0
VERTEX
  8
0
 10
194.18683830
 20
104.88601211
  0
VERTEX
  8
0
 10
194.90756330
 20
104.65176766
  0
VERTEX
  8
0
 10
195.34853553
 20
104.37342600
  0
VERTEX
  8
0
 10
195.41450497
 20
104.21361766
  0
VERTEX
  8
0
 10
195.61735219
 20
102.72383711
  0
VERTEX
  8
0
 10
195.65721608
 20
102.34213155
  0
VERTEX
  8
0
 10
195.70272441
 20
101.48205933
  0
VERTEX
  8
0
 10
195.70554664
 20
101.36917044
  0
VERTEX
  8
0
 10
195.71083830
 20
100.76697878
  0
VERTEX
  8
0
 10
195.69566886
 20
100.15808433
  0
VERTEX
  8
0
 10
195.65016053
 20
99.27331766
  0
VERTEX
  8
0
 10
195.69990219
 20
99.11350933
  0
VERTEX
  8
0
 10
195.75352441
 20
99.01543711
  0
VERTEX
  8
0
 10
197.31350775
 20
98.34868711
  0
VERTEX
  8
0
 10
197.42251608
 20
98.37761489
  0
VERTEX
  8
0
 10
197.57138830
 20
98.45205100
  0
VERTEX
  8
0
 10
198.18028275
 20
99.09551766
  0
VERTEX
  8
0
 10
198.61031886
 20
99.52802322
  0
VERTEX
  8
0
 10
199.04846886
 20
99.94006766
  0
VERTEX
  8
0
 10
199.13278275
 20
100.01591489
  0
VERTEX
  8
0
 10
199.78436330
 20
100.57824266
  0
VERTEX
  8
0
 10
200.08881053
 20
100.81248711
  0
VERTEX
  8
0
 10
201.30589386
 20
101.69584266
  0
VERTEX
  8
0
 10
201.46711330
 20
101.75934266
  0
VERTEX
  8
0
 10
201.97264386
 20
101.63234266
  0
VERTEX
  8
0
 10
202.64115775
 20
101.27286211
  0
VERTEX
  8
0
 10
203.02568553
 20
100.92008433
  0
VERTEX
  8
0
 10
203.06272719
 20
100.75039822
  0
VERTEX
  8
0
 10
202.99534664
 20
99.24827044
  0
VERTEX
  8
0
 10
202.96641886
 20
98.86515378
  0
VERTEX
  8
0
 10
202.85741053
 20
98.01107878
  0
VERTEX
  8
0
 10
202.83941886
 20
97.89924822
  0
VERTEX
  8
0
 10
202.73746608
 20
97.30693433
  0
VERTEX
  8
0
 10
202.61364108
 20
96.71003433
  0
VERTEX
  8
0
 10
202.41220497
 20
95.84749266
  0
VERTEX
  8
0
 10
202.43160775
 20
95.68203989
  0
VERTEX
  8
0
 10
202.46759108
 20
95.57585378
  0
VERTEX
  8
0
 10
203.88258275
 20
94.64028711
  0
VERTEX
  8
0
 10
203.99582441
 20
94.64981211
  0
VERTEX
  8
0
 10
204.15563275
 20
94.69673155
  0
VERTEX
  8
0
 10
204.86930219
 20
95.22166489
  0
VERTEX
  8
0
 10
205.36954108
 20
95.57056211
  0
VERTEX
  8
0
 10
205.87401330
 20
95.89688155
  0
VERTEX
  8
0
 10
205.97032164
 20
95.95755933
  0
VERTEX
  8
0
 10
206.71327164
 20
96.39323989
  0
VERTEX
  8
0
 10
207.05370219
 20
96.56962878
  0
VERTEX
  8
0
 10
208.40801608
 20
97.22120933
  0
VERTEX
  8
0
 10
208.57911330
 20
97.25437044
  0
VERTEX
  8
0
 10
209.05465775
 20
97.03952878
  0
VERTEX
  8
0
 10
209.64697164
 20
96.56680655
  0
VERTEX
  8
0
 10
209.96270775
 20
96.15193989
  0
VERTEX
  8
0
 10
209.96799941
 20
95.97837322
  0
VERTEX
  8
0
 10
209.63321330
 20
94.51222878
  0
VERTEX
  8
0
 10
209.53690497
 20
94.14004822
  0
VERTEX
  8
0
 10
209.27761330
 20
93.31878155
  0
VERTEX
  8
0
 10
209.23916053
 20
93.21259544
  0
VERTEX
  8
0
 10
209.03384386
 20
92.64744544
  0
VERTEX
  8
0
 10
208.80489108
 20
92.08264822
  0
VERTEX
  8
0
 10
208.45211330
 20
91.26949544
  0
VERTEX
  8
0
 10
208.44258830
 20
91.10298433
  0
VERTEX
  8
0
 10
208.45916886
 20
90.99256489
  0
VERTEX
  8
0
 10
209.68436608
 20
89.81993155
  0
VERTEX
  8
0
 10
209.79725497
 20
89.80899544
  0
VERTEX
  8
0
 10
209.96270775
 20
89.82663433
  0
VERTEX
  8
0
 10
210.75786886
 20
90.21539544
  0
VERTEX
  8
0
 10
211.31314108
 20
90.46904266
  0
VERTEX
  8
0
 10
211.86841330
 20
90.70046489
  0
VERTEX
  8
0
 10
211.97318830
 20
90.74315100
  0
VERTEX
  8
0
 10
212.78210775
 20
91.03807322
  0
VERTEX
  8
0
 10
213.14864386
 20
91.15096211
  0
VERTEX
  8
0
 10
214.59820775
 20
91.55065933
  0
VERTEX
  8
0
 10
214.77212719
 20
91.55348155
  0
VERTEX
  8
0
 10
215.20039941
 20
91.25714822
  0
VERTEX
  8
0
 10
215.69922719
 20
90.68529544
  0
VERTEX
  8
0
 10
215.93629386
 20
90.22103989
  0
VERTEX
  8
0
 10
215.91018830
 20
90.04853155
  0
VERTEX
  8
0
 10
215.31893275
 20
88.66634822
  0
VERTEX
  8
0
 10
215.15912441
 20
88.31780378
  0
VERTEX
  8
0
 10
214.75695775
 20
87.55580378
  0
VERTEX
  8
0
 10
214.70016053
 20
87.45808433
  0
VERTEX
  8
0
 10
214.39712441
 20
86.93985378
  0
VERTEX
  8
0
 10
214.07045219
 20
86.42303433
  0
VERTEX
  8
0
 10
213.57867997
 20
85.68713989
  0
VERTEX
  8
0
 10
213.53846330
 20
85.52450933
  0
VERTEX
  8
0
 10
213.53458275
 20
85.41303155
  0
VERTEX
  8
0
 10
214.53223830
 20
84.04037322
  0
VERTEX
  8
0
 10
214.63983553
 20
84.01003433
  0
VERTEX
  8
0
 10
214.80634664
 20
83.99768711
  0
VERTEX
  8
0
 10
215.65936330
 20
84.23757600
  0
VERTEX
  8
0
 10
216.25061886
 20
84.38750655
  0
VERTEX
  8
0
 10
216.83764108
 20
84.51591766
  0
VERTEX
  8
0
 10
216.94806053
 20
84.53920100
  0
VERTEX
  8
0
 10
217.79684386
 20
84.68666211
  0
VERTEX
  8
0
 10
218.17713830
 20
84.73217044
  0
VERTEX
  8
0
 10
219.67503275
 20
84.86728433
  0
VERTEX
  8
0
 10
219.84718830
 20
84.83835655
  0
VERTEX
  8
0
 10
220.21654664
 20
84.46899822
  0
VERTEX
  8
0
 10
220.60530775
 20
83.81847600
  0
VERTEX
  8
0
 10
220.75417997
 20
83.31823711
  0
VERTEX
  8
0
 10
220.69879386
 20
83.15419544
  0
VERTEX
  8
0
 10
219.87082441
 20
81.89901211
  0
VERTEX
  8
0
 10
219.65033830
 20
81.58468711
  0
VERTEX
  8
0
 10
219.11834941
 20
80.90805933
  0
VERTEX
  8
0
 10
219.04532441
 20
80.82127600
  0
VERTEX
  8
0
 10
218.65374108
 20
80.36513433
  0
VERTEX
  8
0
 10
218.24169664
 20
79.91604822
  0
VERTEX
  8
0
 10
217.62574664
 20
79.27787322
  0
VERTEX
  8
0
 10
217.55836608
 20
79.12617878
  0
VERTEX
  8
0
 10
217.53367164
 20
79.01611211
  0
VERTEX
  8
0
 10
218.26956608
 20
77.48787878
  0
VERTEX
  8
0
 10
218.37010775
 20
77.43813711
  0
VERTEX
  8
0
 10
218.53132719
 20
77.39686211
  0
VERTEX
  8
0
 10
219.41468275
 20
77.48082322
  0
VERTEX
  8
0
 10
220.02216608
 20
77.52350933
  0
VERTEX
  8
0
 10
220.62294664
 20
77.54432322
  0
VERTEX
  8
0
 10
220.73618830
 20
77.54855655
  0
VERTEX
  8
0
 10
221.59731886
 20
77.54150100
  0
VERTEX
  8
0
 10
221.98043553
 20
77.51821766
  0
VERTEX
  8
0
 10
223.47832997
 20
77.38310378
  0
VERTEX
  8
0
 10
223.64096053
 20
77.32383711
  0
VERTEX
  8
0
 10
223.93870497
 20
76.89521211
  0
VERTEX
  8
0
 10
224.20469941
 20
76.18542322
  0
VERTEX
  8
0
 10
224.26255497
 20
75.66754544
  0
VERTEX
  8
0
 10
224.17859386
 20
75.51585100
  0
VERTEX
  8
0
 10
223.13931053
 20
74.42717878
  0
VERTEX
  8
0
 10
222.86661330
 20
74.15836211
  0
VERTEX
  8
0
 10
222.22314664
 20
73.58650933
  0
VERTEX
  8
0
 10
222.13636330
 20
73.51489544
  0
VERTEX
  8
0
 10
221.66893275
 20
73.13601211
  0
VERTEX
  8
0
 10
221.18245219
 20
72.76665378
  0
VERTEX
  8
0
 10
220.46313830
 20
72.24983433
  0
VERTEX
  8
0
 10
220.36965219
 20
72.11330933
  0
VERTEX
  8
0
 10
220.32555497
 20
72.00888711
  0
VERTEX
  8
0
 10
220.77746330
 20
70.37446766
  0
VERTEX
  8
0
 10
220.86847997
 20
70.30673433
  0
VERTEX
  8
0
 10
221.01876330
 20
70.23653155
  0
VERTEX
  8
0
 10
221.90176608
 20
70.16209544
  0
VERTEX
  8
0
 10
222.50819108
 20
70.09612600
  0
VERTEX
  8
0
 10
223.10367997
 20
70.00934266
  0
VERTEX
  8
0
 10
223.21515775
 20
69.99276211
  0
VERTEX
  8
0
 10
224.06147164
 20
69.83154266
  0
VERTEX
  8
0
 10
224.43329941
 20
69.74052600
  0
VERTEX
  8
0
 10
225.88321608
 20
69.34082878
  0
VERTEX
  8
0
 10
226.03314664
 20
69.25263433
  0
VERTEX
  8
0
 10
226.24975219
 20
68.77850100
  0
VERTEX
  8
0
 10
226.38486608
 20
68.03308155
  0
VERTEX
  8
0
 10
226.34888275
 20
67.51202878
  0
VERTEX
  8
0
 10
226.23846330
 20
67.37726766
  0
VERTEX
  8
0
 10
225.02314386
 20
66.49391211
  0
VERTEX
  8
0
 10
224.70634941
 20
66.27730655
  0
VERTEX
  8
0
 10
223.97045497
 20
65.82963155
  0
VERTEX
  8
0
 10
223.87132441
 20
65.77459822
  0
VERTEX
  8
0
 10
223.34462719
 20
65.48355655
  0
VERTEX
  8
0
 10
222.80029108
 20
65.20803711
  0
VERTEX
  8
0
 10
221.99983830
 20
64.82915378
  0
VERTEX
  8
0
 10
221.88412719
 20
64.71062044
  0
VERTEX
  8
0
 10
221.82203830
 20
64.61572322
  0
VERTEX
  8
0
 10
221.97514386
 20
62.92591766
  0
VERTEX
  8
0
 10
222.05063830
 20
62.84477878
  0
VERTEX
  8
0
 10
222.18716330
 20
62.74847044
  0
VERTEX
  8
0
 10
223.04300219
 20
62.51810655
  0
VERTEX
  8
0
 10
223.62720219
 20
62.34312878
  0
VERTEX
  8
0
 10
224.19764386
 20
62.15298155
  0
VERTEX
  8
0
 10
224.30524108
 20
62.11593989
  0
VERTEX
  8
0
 10
225.10851608
 20
61.80725933
  0
VERTEX
  8
0
 10
225.45882441
 20
61.64992044
  0
VERTEX
  8
0
 10
226.81313830
 20
60.99692878
  0
VERTEX
  8
0
 10
226.94542997
 20
60.88509822
  0
VERTEX
  8
0
 10
227.07384108
 20
60.37956766
  0
VERTEX
  8
0
 10
227.07384108
 20
59.62144822
  0
VERTEX
  8
0
 10
226.94542997
 20
59.11591766
  0
VERTEX
  8
0
 10
226.81313830
 20
59.00267600
  0
VERTEX
  8
0
 10
225.45882441
 20
58.34968433
  0
VERTEX
  8
0
 10
225.10851608
 20
58.19375655
  0
VERTEX
  8
0
 10
224.30524108
 20
57.88507600
  0
VERTEX
  8
0
 10
224.19764386
 20
57.84803433
  0
VERTEX
  8
0
 10
223.62720219
 20
57.65647600
  0
VERTEX
  8
0
 10
223.04300219
 20
57.48290933
  0
VERTEX
  8
0
 10
222.18716330
 20
57.25148711
  0
VERTEX
  8
0
 10
222.05063830
 20
57.15623711
  0
VERTEX
  8
0
 10
221.97514386
 20
57.07368711
  0
VERTEX
  8
0
 10
221.82203830
 20
55.38423433
  0
VERTEX
  8
0
 10
221.88412719
 20
55.29039544
  0
VERTEX
  8
0
 10
221.99983830
 20
55.17186211
  0
VERTEX
  8
0
 10
222.80029108
 20
54.79156766
  0
VERTEX
  8
0
 10
223.34462719
 20
54.51604822
  0
VERTEX
  8
0
 10
223.87132441
 20
54.22641766
  0
VERTEX
  8
0
 10
223.97045497
 20
54.17138433
  0
VERTEX
  8
0
 10
224.70634941
 20
53.72370933
  0
VERTEX
  8
0
 10
225.02314386
 20
53.50710378
  0
VERTEX
  8
0
 10
226.23846330
 20
52.62233711
  0
VERTEX
  8
0
 10
226.34888275
 20
52.48898711
  0
VERTEX
  8
0
 10
226.38486608
 20
51.96793433
  0
VERTEX
  8
0
 10
226.24975219
 20
51.22251489
  0
VERTEX
  8
0
 10
226.03314664
 20
50.74697044
  0
VERTEX
  8
0
 10
225.88321608
 20
50.66018711
  0
VERTEX
  8
0
 10
224.43329941
 20
50.25907878
  0
VERTEX
  8
0
 10
224.06147164
 20
50.16806211
  0
VERTEX
  8
0
 10
223.21515775
 20
50.00825378
  0
VERTEX
  8
0
 10
223.10367997
 20
49.99061489
  0
VERTEX
  8
0
 10
222.50819108
 20
49.90488989
  0
VERTEX
  8
0
 10
221.90176608
 20
49.83750933
  0
VERTEX
  8
0
 10
221.01876330
 20
49.76307322
  0
VERTEX
  8
0
 10
220.86847997
 20
49.69287044
  0
VERTEX
  8
0
 10
220.77746330
 20
49.62654822
  0
VERTEX
  8
0
 10
220.32555497
 20
47.99107044
  0
VERTEX
  8
0
 10
220.36965219
 20
47.88770655
  0
VERTEX
  8
0
 10
220.46313830
 20
47.74977044
  0
VERTEX
  8
0
 10
221.18245219
 20
47.23295100
  0
VERTEX
  8
0
 10
221.66893275
 20
46.86500378
  0
VERTEX
  8
0
 10
222.13636330
 20
46.48612044
  0
VERTEX
  8
0
 10
222.22314664
 20
46.41309544
  0
VERTEX
  8
0
 10
222.86661330
 20
45.84124266
  0
VERTEX
  8
0
 10
223.13931053
 20
45.57242600
  0
VERTEX
  8
0
 10
224.17859386
 20
44.48516489
  0
VERTEX
  8
0
 10
224.26255497
 20
44.33347044
  0
VERTEX
  8
0
 10
224.20469941
 20
43.81418155
  0
VERTEX
  8
0
 10
223.93870497
 20
43.10580378
  0
VERTEX
  8
0
 10
223.64096053
 20
42.67576766
  0
VERTEX
  8
0
 10
223.47832997
 20
42.61791211
  0
VERTEX
  8
0
 10
221.98043553
 20
42.48279822
  0
VERTEX
  8
0
 10
221.59731886
 20
42.45951489
  0
VERTEX
  8
0
 10
220.73618830
 20
42.45245933
  0
VERTEX
  8
0
 10
220.62294664
 20
42.45528155
  0
VERTEX
  8
0
 10
220.02216608
 20
42.47750655
  0
VERTEX
  8
0
 10
219.41468275
 20
42.51878155
  0
VERTEX
  8
0
 10
218.53132719
 20
42.60415378
  0
VERTEX
  8
0
 10
218.37010775
 20
42.56146766
  0
VERTEX
  8
0
 10
218.26956608
 20
42.51172600
  0
VERTEX
  8
0
 10
217.53367164
 20
40.98349266
  0
VERTEX
  8
0
 10
217.55836608
 20
40.87342600
  0
VERTEX
  8
0
 10
217.62574664
 20
40.72173155
  0
VERTEX
  8
0
 10
218.24169664
 20
40.08496766
  0
VERTEX
  8
0
 10
218.65374108
 20
39.63588155
  0
VERTEX
  8
0
 10
219.04532441
 20
39.17973989
  0
VERTEX
  8
0
 10
219.11834941
 20
39.09295655
  0
VERTEX
  8
0
 10
219.65033830
 20
38.41491766
  0
VERTEX
  8
0
 10
219.87082441
 20
38.10200378
  0
VERTEX
  8
0
 10
220.69879386
 20
36.84682044
  0
VERTEX
  8
0
 10
220.75417997
 20
36.68136766
  0
VERTEX
  8
0
 10
220.60530775
 20
36.18112878
  0
VERTEX
  8
0
 10
220.21654664
 20
35.53060655
  0
VERTEX
  8
0
 10
219.84718830
 20
35.16265933
  0
VERTEX
  8
0
 10
219.67503275
 20
35.13373155
  0
VERTEX
  8
0
 10
218.17713830
 20
35.26743433
  0
VERTEX
  8
0
 10
217.79684386
 20
35.31435378
  0
VERTEX
  8
0
 10
216.94806053
 20
35.46040378
  0
VERTEX
  8
0
 10
216.83764108
 20
35.48368711
  0
VERTEX
  8
0
 10
216.25061886
 20
35.61209822
  0
VERTEX
  8
0
 10
215.65936330
 20
35.76202878
  0
VERTEX
  8
0
 10
214.80634664
 20
36.00332878
  0
VERTEX
  8
0
 10
214.63983553
 20
35.99098155
  0
VERTEX
  8
0
 10
214.53223830
 20
35.96064266
  0
VERTEX
  8
0
 10
213.53458275
 20
34.58798433
  0
VERTEX
  8
0
 10
213.53846330
 20
34.47509544
  0
VERTEX
  8
0
 10
213.57867997
 20
34.31387600
  0
VERTEX
  8
0
 10
214.07045219
 20
33.57657044
  0
VERTEX
  8
0
 10
214.39712441
 20
33.06116211
  0
VERTEX
  8
0
 10
214.70016053
 20
32.54187322
  0
VERTEX
  8
0
 10
214.75695775
 20
32.44380100
  0
VERTEX
  8
0
 10
215.15912441
 20
31.68180100
  0
VERTEX
  8
0
 10
215.31893275
 20
31.33466766
  0
VERTEX
  8
0
 10
215.91018830
 20
29.95107322
  0
VERTEX
  8
0
 10
215.93629386
 20
29.77997600
  0
VERTEX
  8
0
 10
215.69922719
 20
29.31430933
  0
VERTEX
  8
0
 10
215.20039941
 20
28.74386766
  0
VERTEX
  8
0
 10
214.77212719
 20
28.44612322
  0
VERTEX
  8
0
 10
214.59820775
 20
28.44894544
  0
VERTEX
  8
0
 10
213.14864386
 20
28.84864266
  0
VERTEX
  8
0
 10
212.78210775
 20
28.96153155
  0
VERTEX
  8
0
 10
211.97318830
 20
29.25786489
  0
VERTEX
  8
0
 10
211.86841330
 20
29.30055100
  0
VERTEX
  8
0
 10
211.31314108
 20
29.53197322
  0
VERTEX
  8
0
 10
210.75786886
 20
29.78562044
  0
VERTEX
  8
0
 10
209.96270775
 20
30.17438155
  0
VERTEX
  8
0
 10
209.79725497
 20
30.19096211
  0
VERTEX
  8
0
 10
209.68436608
 20
30.18108433
  0
VERTEX
  8
0
 10
208.45916886
 20
29.00845100
  0
VERTEX
  8
0
 10
208.44258830
 20
28.89697322
  0
VERTEX
  8
0
 10
208.45211330
 20
28.73010933
  0
VERTEX
  8
0
 10
208.80489108
 20
27.91836766
  0
VERTEX
  8
0
 10
209.03384386
 20
27.35215933
  0
VERTEX
  8
0
 10
209.23916053
 20
26.78700933
  0
VERTEX
  8
0
 10
209.27761330
 20
26.68082322
  0
VERTEX
  8
0
 10
209.53690497
 20
25.85955655
  0
VERTEX
  8
0
 10
209.63321330
 20
25.48878711
  0
VERTEX
  8
0
 10
209.96799941
 20
24.02264266
  0
VERTEX
  8
0
 10
209.96270775
 20
23.84907600
  0
VERTEX
  8
0
 10
209.64697164
 20
23.43279822
  0
VERTEX
  8
0
 10
209.05465775
 20
22.96007600
  0
VERTEX
  8
0
 10
208.57911330
 20
22.74523433
  0
VERTEX
  8
0
 10
208.40801608
 20
22.77839544
  0
VERTEX
  8
0
 10
207.05370219
 20
23.42997600
  0
VERTEX
  8
0
 10
206.71327164
 20
23.60636489
  0
VERTEX
  8
0
 10
205.97032164
 20
24.04345655
  0
VERTEX
  8
0
 10
205.87401330
 20
24.10413433
  0
VERTEX
  8
0
 10
205.36954108
 20
24.43045378
  0
VERTEX
  8
0
 10
204.86930219
 20
24.77935100
  0
VERTEX
  8
0
 10
204.15563275
 20
25.30287322
  0
VERTEX
  8
0
 10
203.99582441
 20
25.34979266
  0
VERTEX
  8
0
 10
203.88258275
 20
25.35931766
  0
VERTEX
  8
0
 10
202.46759108
 20
24.42516211
  0
VERTEX
  8
0
 10
202.43160775
 20
24.31756489
  0
VERTEX
  8
0
 10
202.41220497
 20
24.15211211
  0
VERTEX
  8
0
 10
202.61364108
 20
23.28957044
  0
VERTEX
  8
0
 10
202.73746608
 20
22.69302322
  0
VERTEX
  8
0
 10
202.83941886
 20
22.10035655
  0
VERTEX
  8
0
 10
202.85741053
 20
21.98887878
  0
VERTEX
  8
0
 10
202.96641886
 20
21.13445100
  0
VERTEX
  8
0
 10
202.99534664
 20
20.75274544
  0
VERTEX
  8
0
 10
203.06272719
 20
19.24920655
  0
VERTEX
  8
0
 10
203.02568553
 20
19.07952044
  0
VERTEX
  8
0
 10
202.64115775
 20
18.72674266
  0
VERTEX
  8
0
 10
201.97264386
 20
18.36867322
  0
VERTEX
  8
0
 10
201.46711330
 20
18.24167322
  0
VERTEX
  8
0
 10
201.30589386
 20
18.30376211
  0
VERTEX
  8
0
 10
200.08881053
 20
19.18852878
  0
VERTEX
  8
0
 10
199.78436330
 20
19.42277322
  0
VERTEX
  8
0
 10
199.13278275
 20
19.98368989
  0
VERTEX
  8
0
 10
199.04846886
 20
20.06094822
  0
VERTEX
  8
0
 10
198.61031886
 20
20.47158155
  0
VERTEX
  8
0
 10
198.18028275
 20
20.90408711
  0
VERTEX
  8
0
 10
197.57138830
 20
21.54790655
  0
VERTEX
  8
0
 10
197.42251608
 20
21.62198989
  0
VERTEX
  8
0
 10
197.31350775
 20
21.65232878
  0
VERTEX
  8
0
 10
195.75352441
 20
20.98557878
  0
VERTEX
  8
0
 10
195.69990219
 20
20.88644822
  0
VERTEX
  8
0
 10
195.65016053
 20
20.72769822
  0
VERTEX
  8
0
 10
195.69566886
 20
19.84187322
  0
VERTEX
  8
0
 10
195.71083830
 20
19.23262600
  0
VERTEX
  8
0
 10
195.70554664
 20
18.63184544
  0
VERTEX
  8
0
 10
195.70272441
 20
18.51895655
  0
VERTEX
  8
0
 10
195.65721608
 20
17.65888433
  0
VERTEX
  8
0
 10
195.61735219
 20
17.27717878
  0
VERTEX
  8
0
 10
195.41450497
 20
15.78598711
  0
VERTEX
  8
0
 10
195.34853553
 20
15.62617878
  0
VERTEX
  8
0
 10
194.90756330
 20
15.34783711
  0
VERTEX
  8
0
 10
194.18683830
 20
15.11359266
  0
VERTEX
  8
0
 10
193.66578553
 20
15.07937322
  0
VERTEX
  8
0
 10
193.51832441
 20
15.17003711
  0
VERTEX
  8
0
 10
192.47798275
 20
16.25729822
  0
VERTEX
  8
0
 10
192.22186608
 20
16.54128433
  0
VERTEX
  8
0
 10
191.67894108
 20
17.21120933
  0
VERTEX
  8
0
 10
191.61120775
 20
17.30046211
  0
VERTEX
  8
0
 10
191.25313830
 20
17.78447322
  0
VERTEX
  8
0
 10
190.90706330
 20
18.28577044
  0
VERTEX
  8
0
 10
190.42340497
 20
19.02872044
  0
VERTEX
  8
0
 10
190.28970219
 20
19.12926211
  0
VERTEX
  8
0
 10
190.18774941
 20
19.17618155
  0
VERTEX
  8
0
 10
188.53427997
 20
18.79870933
  0
VERTEX
  8
0
 10
188.46372441
 20
18.71157322
  0
VERTEX
  8
0
 10
188.38681886
 20
18.56411211
  0
VERTEX
  8
0
 10
188.27357719
 20
17.68498989
  0
VERTEX
  8
0
 10
188.17867997
 20
17.08279822
  0
VERTEX
  8
0
 10
188.06543830
 20
16.49154266
  0
VERTEX
  8
0
 10
188.04356608
 20
16.38147600
  0
VERTEX
  8
0
 10
187.84495219
 20
15.54362878
  0
VERTEX
  8
0
 10
187.73770775
 20
15.17568155
  0
VERTEX
  8
0
 10
187.27309941
 20
13.74516766
  0
VERTEX
  8
0
 10
187.17961330
 20
13.59911766
  0
VERTEX
  8
0
 10
186.69454386
 20
13.40367878
  0
VERTEX
  8
0
 10
185.94347997
 20
13.30278433
  0
VERTEX
  8
0
 10
185.42524941
 20
13.36063989
  0
VERTEX
  8
0
 10
185.29577997
 20
13.47670378
  0
VERTEX
  8
0
 10
184.46745775
 20
14.73188711
  0
VERTEX
  8
0
 10
184.26496330
 20
15.05855933
  0
VERTEX
  8
0
 10
183.85150775
 20
15.81385655
  0
VERTEX
  8
0
 10
183.80070775
 20
15.91439822
  0
VERTEX
  8
0
 10
183.53471330
 20
16.45308989
  0
VERTEX
  8
0
 10
183.28388830
 20
17.00977322
  0
VERTEX
  8
0
 10
182.94063553
 20
17.82574822
  0
VERTEX
  8
0
 10
182.82633553
 20
17.94816211
  0
VERTEX
  8
0
 10
182.73531886
 20
18.01307322
  0
VERTEX
  8
0
 10
181.04022164
 20
17.93722600
  0
VERTEX
  8
0
 10
180.95484941
 20
17.86420100
  0
VERTEX
  8
0
 10
180.85289664
 20
17.73190933
  0
VERTEX
  8
0
 10
180.58407997
 20
16.88841766
  0
VERTEX
  8
0
 10
180.38440775
 20
16.31268433
  0
VERTEX
  8
0
 10
180.16815497
 20
15.75176766
  0
VERTEX
  8
0
 10
180.12687997
 20
15.64558155
  0
VERTEX
  8
0
 10
179.78221608
 20
14.85747600
  0
VERTEX
  8
0
 10
179.61006053
 20
14.51422322
  0
VERTEX
  8
0
 10
178.89603830
 20
13.18989544
  0
VERTEX
  8
0
 10
178.77891608
 20
13.06324822
  0
VERTEX
  8
0
 10
178.26774108
 20
12.95706211
  0
VERTEX
  8
0
 10
177.50997441
 20
12.99163433
  0
VERTEX
  8
0
 10
177.01079386
 20
13.14156489
  0
VERTEX
  8
0
 10
176.90354941
 20
13.27950100
  0
VERTEX
  8
0
 10
176.31229386
 20
14.66168433
  0
VERTEX
  8
0
 10
176.17188830
 20
15.01869544
  0
VERTEX
  8
0
 10
175.90024941
 20
15.83572878
  0
VERTEX
  8
0
 10
175.86708830
 20
15.94473711
  0
VERTEX
  8
0
 10
175.70198830
 20
16.52188155
  0
VERTEX
  8
0
 10
175.55452719
 20
17.11454822
  0
VERTEX
  8
0
 10
175.36296886
 20
17.97850100
  0
VERTEX
  8
0
 10
175.27336330
 20
18.11925933
  0
VERTEX
  8
0
 10
175.19469386
 20
18.20039822
  0
VERTEX
  8
0
 10
173.51335497
 20
18.42793989
  0
VERTEX
  8
0
 10
173.41704664
 20
18.37149544
  0
VERTEX
  8
0
 10
173.29286886
 20
18.25966489
  0
VERTEX
  8
0
 10
172.87694386
 20
17.47685100
  0
VERTEX
  8
0
 10
172.57778830
 20
16.94521489
  0
VERTEX
  8
0
 10
172.26346330
 20
16.43262878
  0
VERTEX
  8
0
 10
172.20419664
 20
16.33596766
  0
VERTEX
  8
0
 10
171.72477164
 20
15.62088711
  0
VERTEX
  8
0
 10
171.49476053
 20
15.31502878
  0
VERTEX
  8
0
 10
170.55637164
 20
14.13957322
  0
VERTEX
  8
0
 10
170.41702441
 20
14.03479822
  0
VERTEX
  8
0
 10
169.89491330
 20
14.02350933
  0
VERTEX
  8
0
 10
169.15619664
 20
14.19178433
  0
VERTEX
  8
0
 10
168.69158830
 20
14.42885100
  0
VERTEX
  8
0
 10
168.61186053
 20
14.58301489
  0
VERTEX
  8
0
 10
168.27707441
 20
16.04951211
  0
VERTEX
  8
0
 10
168.20263830
 20
16.42557322
  0
VERTEX
  8
0
 10
168.07987164
 20
17.27717878
  0
VERTEX
  8
0
 10
168.06752441
 20
17.39006766
  0
VERTEX
  8
0
 10
168.00825775
 20
17.98837878
  0
VERTEX
  8
0
 10
167.96839386
 20
18.59727322
  0
VERTEX
  8
0
 10
167.93382164
 20
19.48203989
  0
VERTEX
  8
0
 10
167.87032164
 20
19.63655655
  0
VERTEX
  8
0
 10
167.80858553
 20
19.73004266
  0
VERTEX
  8
0
 10
166.19462719
 20
20.25391766
  0
VERTEX
  8
0
 10
166.08879386
 20
20.21511211
  0
VERTEX
  8
0
 10
165.94662441
 20
20.12832878
  0
VERTEX
  8
0
 10
165.39840775
 20
19.43229822
  0
VERTEX
  8
0
 10
165.00964664
 20
18.96239822
  0
VERTEX
  8
0
 10
164.60994941
 20
18.51472322
  0
VERTEX
  8
0
 10
164.53269108
 20
18.43076211
  0
VERTEX
  8
0
 10
163.93332164
 20
17.81198989
  0
VERTEX
  8
0
 10
163.65215775
 20
17.55128711
  0
VERTEX
  8
0
 10
162.51938830
 20
16.56209822
  0
VERTEX
  8
0
 10
162.36381330
 20
16.48483989
  0
VERTEX
  8
0
 10
161.84840497
 20
16.56597878
  0
VERTEX
  8
0
 10
161.15096330
 20
16.86372322
  0
VERTEX
  8
0
 10
160.73644941
 20
17.18087044
  0
VERTEX
  8
0
 10
160.68529664
 20
17.34597044
  0
VERTEX
  8
0
 10
160.61650497
 20
18.84950933
  0
VERTEX
  8
0
 10
160.61086053
 20
19.23262600
  0
VERTEX
  8
0
 10
160.64261053
 20
20.09269822
  0
VERTEX
  8
0
 10
160.65072441
 20
20.20558711
  0
VERTEX
  8
0
 10
160.69905497
 20
20.80495655
  0
VERTEX
  8
0
 10
160.76925775
 20
21.41138155
  0
VERTEX
  8
0
 10
160.89343553
 20
22.28768155
  0
VERTEX
  8
0
 10
160.85886330
 20
22.45172322
  0
VERTEX
  8
0
 10
160.81335497
 20
22.55367600
  0
VERTEX
  8
0
 10
159.31969386
 20
23.35836211
  0
VERTEX
  8
0
 10
159.20821608
 20
23.33931211
  0
VERTEX
  8
0
 10
159.05369941
 20
23.27863433
  0
VERTEX
  8
0
 10
158.38941886
 20
22.69161211
  0
VERTEX
  8
0
 10
157.92234108
 20
22.29861766
  0
VERTEX
  8
0
 10
157.44820775
 20
21.92961211
  0
VERTEX
  8
0
 10
157.35860219
 20
21.86046766
  0
VERTEX
  8
0
 10
156.65869108
 20
21.35881766
  0
VERTEX
  8
0
 10
156.33484108
 20
21.15350100
  0
VERTEX
  8
0
 10
155.04367441
 20
20.38197600
  0
VERTEX
  8
0
 10
154.87681053
 20
20.33364544
  0
VERTEX
  8
0
 10
154.38503830
 20
20.50580100
  0
VERTEX
  8
0
 10
153.75250775
 20
20.92348989
  0
VERTEX
  8
0
 10
153.39972997
 20
21.30942878
  0
VERTEX
  8
0
 10
153.37891608
 20
21.48158433
  0
VERTEX
  8
0
 10
153.58035219
 20
22.97136489
  0
VERTEX
  8
0
 10
153.64349941
 20
23.35024822
  0
VERTEX
  8
0
 10
153.82835497
 20
24.19091766
  0
VERTEX
  8
0
 10
153.85587164
 20
24.30098433
  0
VERTEX
  8
0
 10
154.01144664
 20
24.88130378
  0
VERTEX
  8
0
 10
154.18783553
 20
25.46550378
  0
VERTEX
  8
0
 10
154.46617719
 20
26.30617322
  0
VERTEX
  8
0
 10
154.46088553
 20
26.47268433
  0
VERTEX
  8
0
 10
154.43583830
 20
26.58169266
  0
VERTEX
  8
0
 10
153.10904108
 20
27.64002600
  0
VERTEX
  8
0
 10
152.99721053
 20
27.64002600
  0
VERTEX
  8
0
 10
152.83316886
 20
27.60827600
  0
VERTEX
  8
0
 10
152.07540219
 20
27.14931211
  0
VERTEX
  8
0
 10
151.54623553
 20
26.84768711
  0
VERTEX
  8
0
 10
151.01283553
 20
26.56793433
  0
VERTEX
  8
0
 10
150.91229386
 20
26.51572322
  0
VERTEX
  8
0
 10
150.13371330
 20
26.14777600
  0
VERTEX
  8
0
 10
149.77952441
 20
26.00278433
  0
VERTEX
  8
0
 10
148.37123553
 20
25.47502878
  0
VERTEX
  8
0
 10
148.19907997
 20
25.45738989
  0
VERTEX
  8
0
 10
147.74434941
 20
25.71350655
  0
VERTEX
  8
0
 10
147.19577997
 20
26.23843989
  0
VERTEX
  8
0
 10
146.91884941
 20
26.68082322
  0
VERTEX
  8
0
 10
146.92978553
 20
26.85333155
  0
VERTEX
  8
0
 10
147.39404108
 20
28.28349266
  0
VERTEX
  8
0
 10
147.52245219
 20
28.64473711
  0
VERTEX
  8
0
 10
147.85441608
 20
29.43989822
  0
VERTEX
  8
0
 10
147.90274664
 20
29.54185100
  0
VERTEX
  8
0
 10
148.15745219
 20
30.08618711
  0
VERTEX
  8
0
 10
148.43579386
 20
30.62911211
  0
VERTEX
  8
0
 10
148.86053830
 20
31.40769266
  0
VERTEX
  8
0
 10
148.88523275
 20
31.57173433
  0
VERTEX
  8
0
 10
148.87958830
 20
31.68462322
  0
VERTEX
  8
0
 10
147.76339941
 20
32.96203155
  0
VERTEX
  8
0
 10
147.65333275
 20
32.98284544
  0
VERTEX
  8
0
 10
147.48646886
 20
32.98002322
  0
VERTEX
  8
0
 10
146.65814664
 20
32.66428711
  0
VERTEX
  8
0
 10
146.08382441
 20
32.46038155
  0
VERTEX
  8
0
 10
145.51056053
 20
32.27975933
  0
VERTEX
  8
0
 10
145.40155219
 20
32.24695100
  0
VERTEX
  8
0
 10
144.56934941
 20
32.02505378
  0
VERTEX
  8
0
 10
144.19434664
 20
31.94497322
  0
VERTEX
  8
0
 10
142.71444386
 20
31.67756766
  0
VERTEX
  8
0
 10
142.54193553
 20
31.69026766
  0
VERTEX
  8
0
 10
142.14117997
 20
32.02505378
  0
VERTEX
  8
0
 10
141.69456330
 20
32.63818155
  0
VERTEX
  8
0
 10
141.50159386
 20
33.12183989
  0
VERTEX
  8
0
 10
141.54181053
 20
33.29152600
  0
VERTEX
  8
0
 10
142.25406886
 20
34.61550100
  0
VERTEX
  8
0
 10
142.44562719
 20
34.94781766
  0
VERTEX
  8
0
 10
142.91411608
 20
35.66995378
  0
VERTEX
  8
0
 10
142.97902719
 20
35.76343989
  0
VERTEX
  8
0
 10
143.32898275
 20
36.25274266
  0
VERTEX
  8
0
 10
143.69834108
 20
36.73640100
  0
VERTEX
  8
0
 10
144.25502441
 20
37.42678711
  0
VERTEX
  8
0
 10
144.30864664
 20
37.58412600
  0
VERTEX
  8
0
 10
144.32381608
 20
37.69560378
  0
VERTEX
  8
0
 10
143.45280775
 20
39.15222322
  0
VERTEX
  8
0
 10
143.34838553
 20
39.19208711
  0
VERTEX
  8
0
 10
143.18434386
 20
39.21960378
  0
VERTEX
  8
0
 10
142.31333553
 20
39.05697322
  0
VERTEX
  8
0
 10
141.71114386
 20
38.95925378
  0
VERTEX
  8
0
 10
141.11459664
 20
38.88481766
  0
VERTEX
  8
0
 10
141.00135497
 20
38.87105933
  0
VERTEX
  8
0
 10
140.14445775
 20
38.80085655
  0
VERTEX
  8
0
 10
139.76134108
 20
38.78992044
  0
VERTEX
  8
0
 10
138.25639108
 20
38.78992044
  0
VERTEX
  8
0
 10
138.08811608
 20
38.83401766
  0
VERTEX
  8
0
 10
137.75332997
 20
39.23477322
  0
VERTEX
  8
0
 10
137.42559941
 20
39.91704544
  0
VERTEX
  8
0
 10
137.32082441
 20
40.42822044
  0
VERTEX
  8
0
 10
137.39102719
 20
40.58661766
  0
VERTEX
  8
0
 10
138.32800497
 20
41.76348433
  0
VERTEX
  8
0
 10
138.57600775
 20
42.05558433
  0
VERTEX
  8
0
 10
139.16585219
 20
42.68282322
  0
VERTEX
  8
0
 10
139.24734386
 20
42.76255100
  0
VERTEX
  8
0
 10
139.67702719
 20
43.18306211
  0
VERTEX
  8
0
 10
140.12928830
 20
43.59228433
  0
VERTEX
  8
0
 10
140.79886053
 20
44.17225100
  0
VERTEX
  8
0
 10
140.88035219
 20
44.31688989
  0
VERTEX
  8
0
 10
140.91457164
 20
44.42448711
  0
VERTEX
  8
0
 10
140.31802441
 20
46.01339822
  0
VERTEX
  8
0
 10
140.22136330
 20
46.07125378
  0
VERTEX
  8
0
 10
140.06578830
 20
46.12769822
  0
VERTEX
  8
0
 10
139.17961053
 20
46.12240655
  0
VERTEX
  8
0
 10
138.56930497
 20
46.13475378
  0
VERTEX
  8
0
 10
137.96993553
 20
46.16791489
  0
VERTEX
  8
0
 10
137.85669386
 20
46.17461766
  0
VERTEX
  8
0
 10
136.99979664
 20
46.25857878
  0
VERTEX
  8
0
 10
136.61914941
 20
46.31537600
  0
VERTEX
  8
0
 10
135.14065775
 20
46.58525100
  0
VERTEX
  8
0
 10
134.98367164
 20
46.65827600
  0
VERTEX
  8
0
 10
134.72437997
 20
47.11159544
  0
VERTEX
  8
0
 10
134.52329664
 20
47.84219822
  0
VERTEX
  8
0
 10
134.51236053
 20
48.36430933
  0
VERTEX
  8
0
 10
134.61007997
 20
48.50753711
  0
VERTEX
  8
0
 10
135.74143830
 20
49.49707878
  0
VERTEX
  8
0
 10
136.03777164
 20
49.74084822
  0
VERTEX
  8
0
 10
136.73097997
 20
50.25237600
  0
VERTEX
  8
0
 10
136.82340775
 20
50.31693433
  0
VERTEX
  8
0
 10
137.32223553
 20
50.65313155
  0
VERTEX
  8
0
 10
137.84011330
 20
50.97557044
  0
VERTEX
  8
0
 10
138.60211330
 20
51.42642044
  0
VERTEX
  8
0
 10
138.70829941
 20
51.55447878
  0
VERTEX
  8
0
 10
138.76086330
 20
51.65360933
  0
VERTEX
  8
0
 10
138.45888553
 20
53.32401211
  0
VERTEX
  8
0
 10
138.37492441
 20
53.39844822
  0
VERTEX
  8
0
 10
138.23028553
 20
53.48099822
  0
VERTEX
  8
0
 10
137.35645497
 20
53.63410378
  0
VERTEX
  8
0
 10
136.75990775
 20
53.75510655
  0
VERTEX
  8
0
 10
136.17429664
 20
53.89445378
  0
VERTEX
  8
0
 10
136.06528830
 20
53.92197044
  0
VERTEX
  8
0
 10
135.23696608
 20
54.15762600
  0
VERTEX
  8
0
 10
134.87325219
 20
54.28180378
  0
VERTEX
  8
0
 10
133.46637441
 20
54.81097044
  0
VERTEX
  8
0
 10
133.32455775
 20
54.91010100
  0
VERTEX
  8
0
 10
133.15063830
 20
55.40328433
  0
VERTEX
  8
0
 10
133.08325775
 20
56.15717044
  0
VERTEX
  8
0
 10
133.16580775
 20
56.67398989
  0
VERTEX
  8
0
 10
133.28716330
 20
56.79640378
  0
VERTEX
  8
0
 10
134.57832997
 20
57.56828155
  0
VERTEX
  8
0
 10
134.91311608
 20
57.75560655
  0
VERTEX
  8
0
 10
135.68499386
 20
58.13590100
  0
VERTEX
  8
0
 10
135.78835775
 20
58.18140933
  0
VERTEX
  8
0
 10
136.33939664
 20
58.42270933
  0
VERTEX
  8
0
 10
136.90595775
 20
58.64848711
  0
VERTEX
  8
0
 10
137.73674941
 20
58.95610933
  0
VERTEX
  8
0
 10
137.86374941
 20
59.06335378
  0
VERTEX
  8
0
 10
137.93395219
 20
59.15154822
  0
VERTEX
  8
0
 10
137.93395219
 20
60.84805655
  0
VERTEX
  8
0
 10
137.86374941
 20
60.93625100
  0
VERTEX
  8
0
 10
137.73674941
 20
61.04490655
  0
VERTEX
  8
0
 10
136.90595775
 20
61.35111766
  0
VERTEX
  8
0
 10
136.33939664
 20
61.57689544
  0
VERTEX
  8
0
 10
135.78835775
 20
61.81819544
  0
VERTEX
  8
0
 10
135.68499386
 20
61.86511489
  0
VERTEX
  8
0
 10
134.91311608
 20
62.24399822
  0
VERTEX
  8
0
 10
134.57832997
 20
62.43132322
  0
VERTEX
  8
0
 10
133.28716330
 20
63.20320100
  0
VERTEX
  8
0
 10
133.16580775
 20
63.32702600
  0
VERTEX
  8
0
 10
133.08325775
 20
63.84243433
  0
SEQEND
  0
POLYLINE
  8
Default Layer
 62
256
 66
   1
 39
0.000000
 70
    1
  0
VERTEX
  8
0
 10
4.00012371
 20
59.99973196
  0
VERTEX
  8
0
 10
4.01841373
 20
61.44511714
  0
VERTEX
  8
0
 10
4.07299056
 20
62.88148453
  0
VERTEX
  8
0
 10
4.16341439
 20
64.30839431
  0
VERTEX
  8
0
 10
4.28924540
 20
65.72540665
  0
VERTEX
  8
0
 10
4.45004375
 20
67.13208174
  0
VERTEX
  8
0
 10
4.64536963
 20
68.52797974
  0
VERTEX
  8
0
 10
4.87478321
 20
69.91266083
  0
VERTEX
  8
0
 10
5.13784468
 20
71.28568520
  0
VERTEX
  8
0
 10
5.43411420
 20
72.64661302
  0
VERTEX
  8
0
 10
5.76315195
 20
73.99500446
  0
VERTEX
  8
0
 10
6.12451812
 20
75.33041971
  0
VERTEX
  8
0
 10
6.51777287
 20
76.65241893
  0
VERTEX
  8
0
 10
6.94247639
 20
77.96056232
  0
VERTEX
  8
0
 10
7.39818885
 20
79.25441003
  0
VERTEX
  8
0
 10
7.88447043
 20
80.53352226
  0
VERTEX
  8
0
 10
8.40088131
 20
81.79745917
  0
VERTEX
  8
0
 10
8.94698166
 20
83.04578095
  0
VERTEX
  8
0
 10
9.52233165
 20
84.27804777
  0
VERTEX
  8
0
 10
10.12649148
 20
85.49381981
  0
VERTEX
  8
0
 10
10.75902131
 20
86.69265725
  0
VERTEX
  8
0
 10
11.41948132
 20
87.87412025
  0
VERTEX
  8
0
 10
12.10743169
 20
89.03776901
  0
VERTEX
  8
0
 10
12.82243259
 20
90.18316369
  0
VERTEX
  8
0
 10
13.56404420
 20
91.30986447
  0
VERTEX
  8
0
 10
14.33182670
 20
92.41743154
  0
VERTEX
  8
0
 10
15.12534027
 20
93.50542506
  0
VERTEX
  8
0
 10
15.94414508
 20
94.57340522
  0
VERTEX
  8
0
 10
16.78780131
 20
95.62093219
  0
VERTEX
  8
0
 10
17.65586914
 20
96.64756614
  0
VERTEX
  8
0
 10
18.54790874
 20
97.65286726
  0
VERTEX
  8
0
 10
19.46348029
 20
98.63639572
  0
VERTEX
  8
0
 10
20.40214396
 20
99.59771171
  0
VERTEX
  8
0
 10
21.36345995
 20
100.53637538
  0
VERTEX
  8
0
 10
22.34698841
 20
101.45194693
  0
VERTEX
  8
0
 10
23.35228953
 20
102.34398653
  0
VERTEX
  8
0
 10
24.37892348
 20
103.21205436
  0
VERTEX
  8
0
 10
25.42645045
 20
104.05571059
  0
VERTEX
  8
0
 10
26.49443061
 20
104.87451540
  0
VERTEX
  8
0
 10
27.58242413
 20
105.66802897
  0
VERTEX
  8
0
 10
28.68999120
 20
106.43581147
  0
VERTEX
  8
0
 10
29.81669198
 20
107.17742308
  0
VERTEX
  8
0
 10
30.96208666
 20
107.89242398
  0
VERTEX
  8
0
 10
32.12573542
 20
108.58037435
  0
VERTEX
  8
0
 10
33.30719843
 20
109.24083436
  0
VERTEX
  8
0
 10
34.50603586
 20
109.87336419
  0
VERTEX
  8
0
 10
35.72180790
 20
110.47752402
  0
VERTEX
  8
0
 10
36.95407472
 20
111.05287401
  0
VERTEX
  8
0
 10
38.20239650
 20
111.59897436
  0
VERTEX
  8
0
 10
39.46633341
 20
112.11538524
  0
VERTEX
  8
0
 10
40.74544564
 20
112.60166682
  0
VERTEX
  8
0
 10
42.03929335
 20
113.05737928
  0
VERTEX
  8
0
 10
43.34743674
 20
113.48208280
  0
VERTEX
  8
0
 10
44.66943596
 20
113.87533755
  0
VERTEX
  8
0
 10
46.00485121
 20
114.23670372
  0
VERTEX
  8
0
 10
47.35324265
 20
114.56574147
  0
VERTEX
  8
0
 10
48.71417047
 20
114.86201099
  0
VERTEX
  8
0
 10
50.08719484
 20
115.12507246
  0
VERTEX
  8
0
 10
51.47187593
 20
115.35448604
  0
VERTEX
  8
0
 10
52.86777393
 20
115.54981192
  0
VERTEX
  8
0
 10
54.27444902
 20
115.71061027
  0
VERTEX
  8
0
 10
55.69146136
 20
115.83644128
  0
VERTEX
  8
0
 10
57.11837114
 20
115.92686511
  0
VERTEX
  8
0
 10
58.55473853
 20
115.98144194
  0
VERTEX
  8
0
 10
60.00012371
 20
115.99973196
  0
VERTEX
  8
0
 10
61.44550889
 20
115.98144194
  0
VERTEX
  8
0
 10
62.88187628
 20
115.92686511
  0
VERTEX
  8
0
 10
64.30878606
 20
115.83644128
  0
VERTEX
  8
0
 10
65.72579840
 20
115.71061027
  0
VERTEX
  8
0
 10
67.13247349
 20
115.54981192
  0
VERTEX
  8
0
 10
68.52837149
 20
115.35448604
  0
VERTEX
  8
0
 10
69.91305259
 20
115.12507246
  0
VERTEX
  8
0
 10
71.28607695
 20
114.86201099
  0
VERTEX
  8
0
 10
72.64700477
 20
114.56574147
  0
VERTEX
  8
0
 10
73.99539622
 20
114.23670372
  0
VERTEX
  8
0
 10
75.33081146
 20
113.87533755
  0
VERTEX
  8
0
 10
76.65281069
 20
113.48208280
  0
VERTEX
  8
0
 10
77.96095407
 20
113.05737928
  0
VERTEX
  8
0
 10
79.25480179
 20
112.60166682
  0
VERTEX
  8
0
 10
80.53391401
 20
112.11538524
  0
VERTEX
  8
0
 10
81.79785093
 20
111.59897436
  0
VERTEX
  8
0
 10
83.04617270
 20
111.05287401
  0
VERTEX
  8
0
 10
84.27843953
 20
110.47752402
  0
VERTEX
  8
0
 10
85.49421156
 20
109.87336419
  0
VERTEX
  8
0
 10
86.69304900
 20
109.24083436
  0
VERTEX
  8
0
 10
87.87451200
 20
108.58037435
  0
VERTEX
  8
0
 10
89.03816076
 20
107.89242398
  0
VERTEX
  8
0
 10
90.18355544
 20
107.17742308
  0
VERTEX
  8
0
 10
91.31025623
 20
106.43581147
  0
VERTEX
  8
0
 10
92.41782329
 20
105.66802897
  0
VERTEX
  8
0
 10
93.50581681
 20
104.87451540
  0
VERTEX
  8
0
 10
94.57379697
 20
104.05571059
  0
VERTEX
  8
0
 10
95.62132394
 20
103.21205436
  0
VERTEX
  8
0
 10
96.64795789
 20
102.34398653
  0
VERTEX
  8
0
 10
97.65325901
 20
101.45194693
  0
VERTEX
  8
0
 10
98.63678748
 20
100.53637538
  0
VERTEX
  8
0
 10
99.59810346
 20
99.59771171
  0
VERTEX
  8
0
 10
100.53676713
 20
98.63639572
  0
VERTEX
  8
0
 10
101.45233868
 20
97.65286726
  0
VERTEX
  8
0
 10
102.34437828
 20
96.64756614
  0
VERTEX
  8
0
 10
103.21244611
 20
95.62093219
  0
VERTEX
  8
0
 10
104.05610234
 20
94.57340522
  0
VERTEX
  8
0
 10
104.87490715
 20
93.50542506
  0
VERTEX
  8
0
 10
105.66842072
 20
92.41743154
  0
VERTEX
  8
0
 10
106.43620322
 20
91.30986447
  0
VERTEX
  8
0
 10
107.17781483
 20
90.18316369
  0
VERTEX
  8
0
 10
107.89281574
 20
89.03776901
  0
VERTEX
  8
0
 10
108.58076610
 20
87.87412025
  0
VERTEX
  8
0
 10
109.24122611
 20
86.69265725
  0
VERTEX
  8
0
 10
109.87375594
 20
85.49381981
  0
VERTEX
  8
0
 10
110.47791577
 20
84.27804777
  0
VERTEX
  8
0
 10
111.05326577
 20
83.04578095
  0
VERTEX
  8
0
 10
111.59936612
 20
81.79745917
  0
VERTEX
  8
0
 10
112.11577699
 20
80.53352226
  0
VERTEX
  8
0
 10
112.60205857
 20
79.25441003
  0
VERTEX
  8
0
 10
113.05777103
 20
77.96056232
  0
VERTEX
  8
0
 10
113.48247455
 20
76.65241893
  0
VERTEX
  8
0
 10
113.87572931
 20
75.33041971
  0
VERTEX
  8
0
 10
114.23709547
 20
73.99500446
  0
VERTEX
  8
0
 10
114.56613323
 20
72.64661302
  0
VERTEX
  8
0
 10
114.86240275
 20
71.28568520
  0
VERTEX
  8
0
 10
115.12546421
 20
69.91266083
  0
VERTEX
  8
0
 10
115.35487779
 20
68.52797974
  0
VERTEX
  8
0
 10
115.55020367
 20
67.13208174
  0
VERTEX
  8
0
 10
115.71100202
 20
65.72540665
  0
VERTEX
  8
0
 10
115.83683303
 20
64.30839431
  0
VERTEX
  8
0
 10
115.92725686
 20
62.88148453
  0
VERTEX
  8
0
 10
115.98183369
 20
61.44511714
  0
VERTEX
  8
0
 10
116.00012371
 20
59.99973196
  0
VERTEX
  8
0
 10
115.98183369
 20
58.55434678
  0
VERTEX
  8
0
 10
115.92725686
 20
57.11797939
  0
VERTEX
  8
0
 10
115.83683303
 20
55.69106961
  0
VERTEX
  8
0
 10
115.71100202
 20
54.27405727
  0
VERTEX
  8
0
 10
115.55020367
 20
52.86738218
  0
VERTEX
  8
0
 10
115.35487779
 20
51.47148418
  0
VERTEX
  8
0
 10
115.12546421
 20
50.08680308
  0
VERTEX
  8
0
 10
114.86240275
 20
48.71377872
  0
VERTEX
  8
0
 10
114.56613323
 20
47.35285090
  0
VERTEX
  8
0
 10
114.23709547
 20
46.00445945
  0
VERTEX
  8
0
 10
113.87572931
 20
44.66904421
  0
VERTEX
  8
0
 10
113.48247455
 20
43.34704498
  0
VERTEX
  8
0
 10
113.05777103
 20
42.03890160
  0
VERTEX
  8
0
 10
112.60205857
 20
40.74505388
  0
VERTEX
  8
0
 10
112.11577699
 20
39.46594166
  0
VERTEX
  8
0
 10
111.59936612
 20
38.20200474
  0
VERTEX
  8
0
 10
111.05326577
 20
36.95368297
  0
VERTEX
  8
0
 10
110.47791577
 20
35.72141615
  0
VERTEX
  8
0
 10
109.87375594
 20
34.50564411
  0
VERTEX
  8
0
 10
109.24122611
 20
33.30680667
  0
VERTEX
  8
0
 10
108.58076610
 20
32.12534367
  0
VERTEX
  8
0
 10
107.89281574
 20
30.96169491
  0
VERTEX
  8
0
 10
107.17781483
 20
29.81630023
  0
VERTEX
  8
0
 10
106.43620322
 20
28.68959944
  0
VERTEX
  8
0
 10
105.66842072
 20
27.58203238
  0
VERTEX
  8
0
 10
104.87490715
 20
26.49403886
  0
VERTEX
  8
0
 10
104.05610234
 20
25.42605870
  0
VERTEX
  8
0
 10
103.21244611
 20
24.37853173
  0
VERTEX
  8
0
 10
102.34437828
 20
23.35189778
  0
VERTEX
  8
0
 10
101.45233868
 20
22.34659666
  0
VERTEX
  8
0
 10
100.53676713
 20
21.36306819
  0
VERTEX
  8
0
 10
99.59810346
 20
20.40175221
  0
VERTEX
  8
0
 10
98.63678748
 20
19.46308854
  0
VERTEX
  8
0
 10
97.65325901
 20
18.54751699
  0
VERTEX
  8
0
 10
96.64795789
 20
17.65547739
  0
VERTEX
  8
0
 10
95.62132394
 20
16.78740956
  0
VERTEX
  8
0
 10
94.57379697
 20
15.94375333
  0
VERTEX
  8
0
 10
93.50581681
 20
15.12494852
  0
VERTEX
  8
0
 10
92.41782329
 20
14.33143495
  0
VERTEX
  8
0
 10
91.31025623
 20
13.56365245
  0
VERTEX
  8
0
 10
90.18355544
 20
12.82204084
  0
VERTEX
  8
0
 10
89.03816076
 20
12.10703993
  0
VERTEX
  8
0
 10
87.87451200
 20
11.41908957
  0
VERTEX
  8
0
 10
86.69304900
 20
10.75862956
  0
VERTEX
  8
0
 10
85.49421156
 20
10.12609973
  0
VERTEX
  8
0
 10
84.27843953
 20
9.52193990
  0
VERTEX
  8
0
 10
83.04617270
 20
8.94658990
  0
VERTEX
  8
0
 10
81.79785093
 20
8.40048955
  0
VERTEX
  8
0
 10
80.53391401
 20
7.88407868
  0
VERTEX
  8
0
 10
79.25480179
 20
7.39779710
  0
VERTEX
  8
0
 10
77.96095407
 20
6.94208464
  0
VERTEX
  8
0
 10
76.65281069
 20
6.51738112
  0
VERTEX
  8
0
 10
75.33081146
 20
6.12412636
  0
VERTEX
  8
0
 10
73.99539622
 20
5.76276020
  0
VERTEX
  8
0
 10
72.64700477
 20
5.43372244
  0
VERTEX
  8
0
 10
71.28607695
 20
5.13745292
  0
VERTEX
  8
0
 10
69.91305259
 20
4.87439146
  0
VERTEX
  8
0
 10
68.52837149
 20
4.64497788
  0
VERTEX
  8
0
 10
67.13247349
 20
4.44965200
  0
VERTEX
  8
0
 10
65.72579840
 20
4.28885365
  0
VERTEX
  8
0
 10
64.30878606
 20
4.16302264
  0
VERTEX
  8
0
 10
62.88187628
 20
4.07259881
  0
VERTEX
  8
0
 10
61.44550889
 20
4.01802198
  0
VERTEX
  8
0
 10
60.00012371
 20
3.99973196
  0
VERTEX
  8
0
 10
58.55473853
 20
4.01802198
  0
VERTEX
  8
0
 10
57.11837114
 20
4.07259881
  0
VERTEX
  8
0
 10
55.69146136
 20
4.16302264
  0
VERTEX
  8
0
 10
54.27444902
 20
4.28885365
  0
VERTEX
  8
0
 10
52.86777393
 20
4.44965200
  0
VERTEX
  8
0
 10
51.47187593
 20
4.64497788
  0
VERTEX
  8
0
 10
50.08719484
 20
4.87439146
  0
VERTEX
  8
0
 10
48.71417047
 20
5.13745292
  0
VERTEX
  8
0
 10
47.35324265
 20
5.43372244
  0
VERTEX
  8
0
 10
46.00485121
 20
5.76276020
  0
VERTEX
  8
0
 10
44.66943596
 20
6.12412636
  0
VERTEX
  8
0
 10
43.34743674
 20
6.51738112
  0
VERTEX
  8
0
 10
42.03929335
 20
6.94208464
  0
VERTEX
  8
0
 10
40.74544564
 20
7.39779710
  0
VERTEX
  8
0
 10
39.46633341
 20
7.88407868
  0
VERTEX
  8
0
 10
38.20239650
 20
8.40048955
  0
VERTEX
  8
0
 10
36.95407472
 20
8.94658990
  0
VERTEX
  8
0
 10
35.72180790
 20
9.52193990
  0
VERTEX
  8
0
 10
34.50603586
 20
10.12609973
  0
VERTEX
  8
0
 10
33.30719843
 20
10.75862956
  0
VERTEX
  8
0
 10
32.12573542
 20
11.41908957
  0
VERTEX
  8
0
 10
30.96208666
 20
12.10703993
  0
VERTEX
  8
0
 10
29.81669198
 20
12.82204084
  0
VERTEX
  8
0
 10
28.68999120
 20
13.56365245
  0
VERTEX
  8
0
 10
27.58242413
 20
14.33143495
  0
VERTEX
  8
0
 10
26.49443061
 20
15.12494852
  0
VERTEX
  8
0
 10
25.42645045
 20
15.94375333
  0
VERTEX
  8
0
 10
24.37892348
 20
16.78740956
  0
VERTEX
  8
0
 10
23.35228953
 20
17.65547739
  0
VERTEX
  8
0
 10
22.34698841
 20
18.54751699
  0
VERTEX
  8
0
 10
21.36345995
 20
19.46308854
  0
VERTEX
  8
0
 10
20.40214396
 20
20.40175221
  0
VERTEX
  8
0
 10
19.46348029
 20
21.36306819
  0
VERTEX
  8
0
 10
18.54790874
 20
22.34659666
  0
VERTEX
  8
0
 10
17.65586914
 20
23.35189778
  0
VERTEX
  8
0
 10
16.78780131
 20
24.37853173
  0
VERTEX
  8
0
 10
15.94414508
 20
25.42605870
  0
VERTEX
  8
0
 10
15.12534027
 20
26.49403886
  0
VERTEX
  8
0
 10
14.33182670
 20
27.58203238
  0
VERTEX
  8
0
 10
13.56404420
 20
28.68959944
  0
VERTEX
  8
0
 10
12.82243259
 20
29.81630023
  0
VERTEX
  8
0
 10
12.10743169
 20
30.96169491
  0
VERTEX
  8
0
 10
11.41948132
 20
32.12534367
  0
VERTEX
  8
0
 10
10.75902131
 20
33.30680667
  0
VERTEX
  8
0
 10
10.12649148
 20
34.50564411
  0
VERTEX
  8
0
 10
9.52233165
 20
35.72141615
  0
VERTEX
  8
0
 10
8.94698166
 20
36.95368297
  0
VERTEX
  8
0
 10
8.40088131
 20
38.20200474
  0
VERTEX
  8
0
 10
7.88447043
 20
39.46594166
  0
VERTEX
  8
0
 10
7.39818885
 20
40.74505388
  0
VERTEX
  8
0
 10
6.94247639
 20
42.03890160
  0
VERTEX
  8
0
 10
6.51777287
 20
43.34704498
  0
VERTEX
  8
0
 10
6.12451812
 20
44.66904421
  0
VERTEX
  8
0
 10
5.76315195
 20
46.00445945
  0
VERTEX
  8
0
 10
5.43411420
 20
47.35285090
  0
VERTEX
  8
0
 10
5.13784468
 20
48.71377872
  0
VERTEX
  8
0
 10
4.87478321
 20
50.08680308
  0
VERTEX
  8
0
 10
4.64536963
 20
51.47148418
  0
VERTEX
  8
0
 10
4.45004375
 20
52.86738218
  0
VERTEX
  8
0
 10
4.28924540
 20
54.27405727
  0
VERTEX
  8
0
 10
4.16341439
 20
55.69106961
  0
VERTEX
  8
0
 10
4.07299056
 20
57.11797939
  0
VERTEX
  8
0
 10
4.01841373
 20
58.55434678
  0
VERTEX
  8
0
 10
4.00012371
 20
59.99973196
  0
SEQEND
  0
POLYLINE
  8
Default Layer
 62
256
 66
   1
 39
0.000000
 70
    1
  0
VERTEX
  8
0
 10
57.45012371
 20
59.99973196
  0
VERTEX
  8
0
 10
57.46328907
 20
60.26045465
  0
VERTEX
  8
0
 10
57.50193065
 20
60.51364590
  0
VERTEX
  8
0
 10
57.56476666
 20
60.75802395
  0
VERTEX
  8
0
 10
57.65051535
 20
60.99230704
  0
VERTEX
  8
0
 10
57.75789494
 20
61.21521338
  0
VERTEX
  8
0
 10
57.88562366
 20
61.42546121
  0
VERTEX
  8
0
 10
58.03241974
 20
61.62176875
  0
VERTEX
  8
0
 10
58.19700142
 20
61.80285425
  0
VERTEX
  8
0
 10
58.37808692
 20
61.96743593
  0
VERTEX
  8
0
 10
58.57439446
 20
62.11423201
  0
VERTEX
  8
0
 10
58.78464229
 20
62.24196073
  0
VERTEX
  8
0
 10
59.00754863
 20
62.34934032
  0
VERTEX
  8
0
 10
59.24183172
 20
62.43508901
  0
VERTEX
  8
0
 10
59.48620977
 20
62.49792502
  0
VERTEX
  8
0
 10
59.73940102
 20
62.53656660
  0
VERTEX
  8
0
 10
60.00012371
 20
62.54973196
  0
VERTEX
  8
0
 10
60.26084640
 20
62.53656660
  0
VERTEX
  8
0
 10
60.51403765
 20
62.49792502
  0
VERTEX
  8
0
 10
60.75841571
 20
62.43508901
  0
VERTEX
  8
0
 10
60.99269879
 20
62.34934032
  0
VERTEX
  8
0
 10
61.21560513
 20
62.24196073
  0
VERTEX
  8
0
 10
61.42585296
 20
62.11423201
  0
VERTEX
  8
0
 10
61.62216051
 20
61.96743593
  0
VERTEX
  8
0
 10
61.80324600
 20
61.80285425
  0
VERTEX
  8
0
 10
61.96782768
 20
61.62176875
  0
VERTEX
  8
0
 10
62.11462376
 20
61.42546121
  0
VERTEX
  8
0
 10
62.24235248
 20
61.21521338
  0
VERTEX
  8
0
 10
62.34973207
 20
60.99230704
  0
VERTEX
  8
0
 10
62.43548076
 20
60.75802395
  0
VERTEX
  8
0
 10
62.49831677
 20
60.51364590
  0
VERTEX
  8
0
 10
62.53695835
 20
60.26045465
  0
VERTEX
  8
0
 10
62.55012371
 20
59.99973196
  0
VERTEX
  8
0
 10
62.53695835
 20
59.73900927
  0
VERTEX
  8
0
 10
62.49831677
 20
59.48581802
  0
VERTEX
  8
0
 10
62.43548076
 20
59.24143996
  0
VERTEX
  8
0
 10
62.34973207
 20
59.00715688
  0
VERTEX
  8
0
 10
62.24235248
 20
58.78425054
  0
VERTEX
  8
0
 10
62.11462376
 20
58.57400271
  0
VERTEX
  8
0
 10
61.96782768
 20
58.37769516
  0
VERTEX
  8
0
 10
61.80324600
 20
58.19660967
  0
VERTEX
  8
0
 10
61.62216051
 20
58.03202799
  0
VERTEX
  8
0
 10
61.42585296
 20
57.88523191
  0
VERTEX
  8
0
 10
61.21560513
 20
57.75750319
  0
VERTEX
  8
0
 10
60.99269879
 20
57.65012360
  0
VERTEX
  8
0
 10
60.75841571
 20
57.56437491
  0
VERTEX
  8
0
 10
60.51403765
 20
57.50153890
  0
VERTEX
  8
0
 10
60.26084640
 20
57.46289732
  0
VERTEX
  8
0
 10
60.00012371
 20
57.44973196
  0
VERTEX
  8
0
 10
59.73940102
 20
57.46289732
  0
VERTEX
  8
0
 10
59.48620977
 20
57.50153890
  0
VERTEX
  8
0
 10
59.24183172
 20
57.56437491
  0
VERTEX
  8
0
 10
59.00754863
 20
57.65012360
  0
VERTEX
  8
0
 10
58.78464229
 20
57.75750319
  0
VERTEX
  8
0
 10
58.57439446
 20
57.88523191
  0
VERTEX
  8
0
 10
58.37808692
 20
58.03202799
  0
VERTEX
  8
0
 10
58.19700142
 20
58.19660967
  0
VERTEX
  8
0
 10
58.03241974
 20
58.37769516
  0
VERTEX
  8
0
 10
57.88562366
 20
58.57400271
  0
VERTEX
  8
0
 10
57.75789494
 20
58.78425054
  0
VERTEX
  8
0
 10
57.65051535
 20
59.00715688
  0
VERTEX
  8
0
 10
57.56476666
 20
59.24143996
  0
VERTEX
  8
0
 10
57.50193065
 20
59.48581802
  0
VERTEX
  8
0
 10
57.46328907
 20
59.73900927
  0
VERTEX
  8
0
 10
57.45012371
 20
59.99973196
  0
SEQEND
  0
POLYLINE
  8
Default Layer
 62
256
 66
   1
 39
0.000000
 70
    1
  0
VERTEX
  8
0
 10
82.60016162
 20
132.12304555
  0
VERTEX
  8
0
 10
82.60016162
 20
128.42268041
 42
0.41421356
  0
VERTEX
  8
0
 10
88.60016162
 20
122.42268041
  0
VERTEX
  8
0
 10
101.28865979
 20
122.42268041
  0
VERTEX
  8
0
 10
120.24744661
 20
132.53403338
 42
0.27698396
  0
VERTEX
  8
0
 10
126.60038779
 20
143.12226868
  0
VERTEX
  8
0
 10
126.60038779
 20
148.72226868
 42
0.27698396
  0
VERTEX
  8
0
 10
120.24744661
 20
159.31050397
  0
VERTEX
  8
0
 10
101.28711579
 20
169.42268041
  0
VERTEX
  8
0
 10
88.60016162
 20
169.42268041
 42
0.41421356
  0
VERTEX
  8
0
 10
82.60016162
 20
163.42268041
  0
VERTEX
  8
0
 10
82.60016162
 20
159.72061639
  0
VERTEX
  8
0
 10
83.21417943
 20
159.60139106
  0
VERTEX
  8
0
 10
83.81832769
 20
159.45572626
  0
VERTEX
  8
0
 10
84.41197532
 20
159.28425309
  0
VERTEX
  8
0
 10
84.99449125
 20
159.08760271
  0
VERTEX
  8
0
 10
85.56524440
 20
158.86640623
  0
VERTEX
  8
0
 10
86.12360370
 20
158.62129479
  0
VERTEX
  8
0
 10
86.66893806
 20
158.35289952
  0
VERTEX
  8
0
 10
87.20061641
 20
158.06185156
  0
VERTEX
  8
0
 10
87.71800769
 20
157.74878202
  0
VERTEX
  8
0
 10
88.22048080
 20
157.41432205
  0
VERTEX
  8
0
 10
88.70740467
 20
157.05910276
  0
VERTEX
  8
0
 10
89.17814824
 20
156.68375531
  0
VERTEX
  8
0
 10
89.63208041
 20
156.28891081
  0
VERTEX
  8
0
 10
90.06857012
 20
155.87520039
  0
VERTEX
  8
0
 10
90.48698628
 20
155.44325520
  0
VERTEX
  8
0
 10
90.88669783
 20
154.99370635
  0
VERTEX
  8
0
 10
91.26707368
 20
154.52718498
  0
VERTEX
  8
0
 10
91.62748276
 20
154.04432222
  0
VERTEX
  8
0
 10
91.96729400
 20
153.54574920
  0
VERTEX
  8
0
 10
92.28587631
 20
153.03209705
  0
VERTEX
  8
0
 10
92.58259862
 20
152.50399691
  0
VERTEX
  8
0
 10
92.85682985
 20
151.96207990
  0
VERTEX
  8
0
 10
93.10793894
 20
151.40697715
  0
VERTEX
  8
0
 10
93.33529479
 20
150.83931980
  0
VERTEX
  8
0
 10
93.53826634
 20
150.25973898
  0
VERTEX
  8
0
 10
93.71622251
 20
149.66886582
  0
VERTEX
  8
0
 10
93.86853222
 20
149.06733144
  0
VERTEX
  8
0
 10
93.99456440
 20
148.45576698
  0
VERTEX
  8
0
 10
94.09368796
 20
147.83480358
  0
VERTEX
  8
0
 10
94.16527184
 20
147.20507235
  0
VERTEX
  8
0
 10
94.20868496
 20
146.56720444
  0
VERTEX
  8
0
 10
94.22329624
 20
145.92183097
  0
VERTEX
  8
0
 10
94.20869172
 20
145.27660965
  0
VERTEX
  8
0
 10
94.16529801
 20
144.63889003
  0
VERTEX
  8
0
 10
94.09374488
 20
144.00930265
  0
VERTEX
  8
0
 10
93.99466210
 20
143.38847803
  0
VERTEX
  8
0
 10
93.86867943
 20
142.77704673
  0
VERTEX
  8
0
 10
93.71642664
 20
142.17563926
  0
VERTEX
  8
0
 10
93.53853349
 20
141.58488617
  0
VERTEX
  8
0
 10
93.33562977
 20
141.00541799
  0
VERTEX
  8
0
 10
93.10834523
 20
140.43786525
  0
VERTEX
  8
0
 10
92.85730964
 20
139.88285850
  0
VERTEX
  8
0
 10
92.58315277
 20
139.34102826
  0
VERTEX
  8
0
 10
92.28650439
 20
138.81300506
  0
VERTEX
  8
0
 10
91.96799426
 20
138.29941946
  0
VERTEX
  8
0
 10
91.62825216
 20
137.80090197
  0
VERTEX
  8
0
 10
91.26790785
 20
137.31808314
  0
VERTEX
  8
0
 10
90.88759109
 20
136.85159350
  0
VERTEX
  8
0
 10
90.48793167
 20
136.40206358
  0
VERTEX
  8
0
 10
90.06955934
 20
135.97012393
  0
VERTEX
  8
0
 10
89.63310387
 20
135.55640507
  0
VERTEX
  8
0
 10
89.17919503
 20
135.16153753
  0
VERTEX
  8
0
 10
88.70846259
 20
134.78615186
  0
VERTEX
  8
0
 10
88.22153632
 20
134.43087860
  0
VERTEX
  8
0
 10
87.71904598
 20
134.09634826
  0
VERTEX
  8
0
 10
87.20162134
 20
133.78319140
  0
VERTEX
  8
0
 10
86.66989217
 20
133.49203853
  0
VERTEX
  8
0
 10
86.12448824
 20
133.22352021
  0
VERTEX
  8
0
 10
85.56603931
 20
132.97826696
  0
VERTEX
  8
0
 10
84.99517516
 20
132.75690932
  0
VERTEX
  8
0
 10
84.41252554
 20
132.56007783
  0
VERTEX
  8
0
 10
83.81872024
 20
132.38840301
  0
VERTEX
  8
0
 10
83.21438901
 20
132.24251541
  0
VERTEX
  8
0
 10
82.60016162
 20
132.12304555
  0
SEQEND
  0
POLYLINE
  8
Default Layer
 62
256
 66
   1
 39
0.000000
 70
    1
  0
VERTEX
  8
0
 10
88.22315576
 20
126.44235238
  0
VERTEX
  8
0
 10
88.01866738
 20
126.45267816
  0
VERTEX
  8
0
 10
87.82008600
 20
126.48298527
  0
VERTEX
  8
0
 10
87.62841694
 20
126.53226842
  0
VERTEX
  8
0
 10
87.44466550
 20
126.59952230
  0
VERTEX
  8
0
 10
87.26983700
 20
126.68374158
  0
VERTEX
  8
0
 10
87.10493674
 20
126.78392097
  0
VERTEX
  8
0
 10
86.95097004
 20
126.89905515
  0
VERTEX
  8
0
 10
86.80894220
 20
127.02813882
  0
VERTEX
  8
0
 10
86.67985853
 20
127.17016666
  0
VERTEX
  8
0
 10
86.56472435
 20
127.32413336
  0
VERTEX
  8
0
 10
86.46454496
 20
127.48903362
  0
VERTEX
  8
0
 10
86.38032568
 20
127.66386212
  0
VERTEX
  8
0
 10
86.31307180
 20
127.84761356
  0
VERTEX
  8
0
 10
86.26378865
 20
128.03928262
  0
VERTEX
  8
0
 10
86.23348154
 20
128.23786400
  0
VERTEX
  8
0
 10
86.22315576
 20
128.44235238
  0
VERTEX
  8
0
 10
86.23348154
 20
128.64684076
  0
VERTEX
  8
0
 10
86.26378865
 20
128.84542214
  0
VERTEX
  8
0
 10
86.31307180
 20
129.03709120
  0
VERTEX
  8
0
 10
86.38032568
 20
129.22084264
  0
VERTEX
  8
0
 10
86.46454496
 20
129.39567114
  0
VERTEX
  8
0
 10
86.56472435
 20
129.56057140
  0
VERTEX
  8
0
 10
86.67985853
 20
129.71453811
  0
VERTEX
  8
0
 10
86.80894220
 20
129.85656595
  0
VERTEX
  8
0
 10
86.95097004
 20
129.98564961
  0
VERTEX
  8
0
 10
87.10493674
 20
130.10078379
  0
VERTEX
  8
0
 10
87.26983700
 20
130.20096318
  0
VERTEX
  8
0
 10
87.44466550
 20
130.28518247
  0
VERTEX
  8
0
 10
87.62841694
 20
130.35243634
  0
VERTEX
  8
0
 10
87.82008600
 20
130.40171949
  0
VERTEX
  8
0
 10
88.01866738
 20
130.43202661
  0
VERTEX
  8
0
 10
88.22315576
 20
130.44235238
  0
VERTEX
  8
0
 10
88.42764414
 20
130.43202661
  0
VERTEX
  8
0
 10
88.62622552
 20
130.40171949
  0
VERTEX
  8
0
 10
88.81789458
 20
130.35243634
  0
VERTEX
  8
0
 10
89.00164602
 20
130.28518247
  0
VERTEX
  8
0
 10
89.17647452
 20
130.20096318
  0
VERTEX
  8
0
 10
89.34137478
 20
130.10078379
  0
VERTEX
  8
0
 10
89.49534148
 20
129.98564961
  0
VERTEX
  8
0
 10
89.63736932
 20
129.85656595
  0
VERTEX
  8
0
 10
89.76645299
 20
129.71453811
  0
VERTEX
  8
0
 10
89.88158717
 20
129.56057140
  0
VERTEX
  8
0
 10
89.98176656
 20
129.39567114
  0
VERTEX
  8
0
 10
90.06598585
 20
129.22084264
  0
VERTEX
  8
0
 10
90.13323972
 20
129.03709120
  0
VERTEX
  8
0
 10
90.18252287
 20
128.84542214
  0
VERTEX
  8
0
 10
90.21282999
 20
128.64684076
  0
VERTEX
  8
0
 10
90.22315576
 20
128.44235238
  0
VERTEX
  8
0
 10
90.21282999
 20
128.23786400
  0
VERTEX
  8
0
 10
90.18252287
 20
128.03928262
  0
VERTEX
  8
0
 10
90.13323972
 20
127.84761356
  0
VERTEX
  8
0
 10
90.06598585
 20
127.66386212
  0
VERTEX
  8
0
 10
89.98176656
 20
127.48903362
  0
VERTEX
  8
0
 10
89.88158717
 20
127.32413336
  0
VERTEX
  8
0
 10
89.76645299
 20
127.17016666
  0
VERTEX
  8
0
 10
89.63736932
 20
127.02813882
  0
VERTEX
  8
0
 10
89.49534148
 20
126.89905515
  0
VERTEX
  8
0
 10
89.34137478
 20
126.78392097
  0
VERTEX
  8
0
 10
89.17647452
 20
126.68374158
  0
VERTEX
  8
0
 10
89.00164602
 20
126.59952230
  0
VERTEX
  8
0
 10
88.81789458
 20
126.53226842
  0
VERTEX
  8
0
 10
88.62622552
 20
126.48298527
  0
VERTEX
  8
0
 10
88.42764414
 20
126.45267816
  0
VERTEX
  8
0
 10
88.22315576
 20
126.44235238
  0
SEQEND
  0
POLYLINE
  8
Default Layer
 62
256
 66
   1
 39
0.000000
 70
    1
  0
VERTEX
  8
0
 10
88.22315576
 20
161.44235238
  0
VERTEX
  8
0
 10
88.01866738
 20
161.45267816
  0
VERTEX
  8
0
 10
87.82008600
 20
161.48298527
  0
VERTEX
  8
0
 10
87.62841694
 20
161.53226842
  0
VERTEX
  8
0
 10
87.44466550
 20
161.59952230
  0
VERTEX
  8
0
 10
87.26983700
 20
161.68374158
  0
VERTEX
  8
0
 10
87.10493674
 20
161.78392097
  0
VERTEX
  8
0
 10
86.95097004
 20
161.89905515
  0
VERTEX
  8
0
 10
86.80894220
 20
162.02813882
  0
VERTEX
  8
0
 10
86.67985853
 20
162.17016666
  0
VERTEX
  8
0
 10
86.56472435
 20
162.32413336
  0
VERTEX
  8
0
 10
86.46454496
 20
162.48903362
  0
VERTEX
  8
0
 10
86.38032568
 20
162.66386212
  0
VERTEX
  8
0
 10
86.31307180
 20
162.84761356
  0
VERTEX
  8
0
 10
86.26378865
 20
163.03928262
  0
VERTEX
  8
0
 10
86.23348154
 20
163.23786400
  0
VERTEX
  8
0
 10
86.22315576
 20
163.44235238
  0
VERTEX
  8
0
 10
86.23348154
 20
163.64684076
  0
VERTEX
  8
0
 10
86.26378865
 20
163.84542214
  0
VERTEX
  8
0
 10
86.31307180
 20
164.03709120
  0
VERTEX
  8
0
 10
86.38032568
 20
164.22084264
  0
VERTEX
  8
0
 10
86.46454496
 20
164.39567114
  0
VERTEX
  8
0
 10
86.56472435
 20
164.56057140
  0
VERTEX
  8
0
 10
86.67985853
 20
164.71453811
  0
VERTEX
  8
0
 10
86.80894220
 20
164.85656595
  0
VERTEX
  8
0
 10
86.95097004
 20
164.98564961
  0
VERTEX
  8
0
 10
87.10493674
 20
165.10078379
  0
VERTEX
  8
0
 10
87.26983700
 20
165.20096318
  0
VERTEX
  8
0
 10
87.44466550
 20
165.28518247
  0
VERTEX
  8
0
 10
87.62841694
 20
165.35243634
  0
VERTEX
  8
0
 10
87.82008600
 20
165.40171949
  0
VERTEX
  8
0
 10
88.01866738
 20
165.43202661
  0
VERTEX
  8
0
 10
88.22315576
 20
165.44235238
  0
VERTEX
  8
0
 10
88.42764414
 20
165.43202661
  0
VERTEX
  8
0
 10
88.62622552
 20
165.40171949
  0
VERTEX
  8
0
 10
88.81789458
 20
165.35243634
  0
VERTEX
  8
0
 10
89.00164602
 20
165.28518247
  0
VERTEX
  8
0
 10
89.17647452
 20
165.20096318
  0
VERTEX
  8
0
 10
89.34137478
 20
165.10078379
  0
VERTEX
  8
0
 10
89.49534148
 20
164.98564961
  0
VERTEX
  8
0
 10
89.63736932
 20
164.85656595
  0
VERTEX
  8
0
 10
89.76645299
 20
164.71453811
  0
VERTEX
  8
0
 10
89.88158717
 20
164.56057140
  0
VERTEX
  8
0
 10
89.98176656
 20
164.39567114
  0
VERTEX
  8
0
 10
90.06598585
 20
164.22084264
  0
VERTEX
  8
0
 10
90.13323972
 20
164.03709120
  0
VERTEX
  8
0
 10
90.18252287
 20
163.84542214
  0
VERTEX
  8
0
 10
90.21282999
 20
163.64684076
  0
VERTEX
  8
0
 10
90.22315576
 20
163.44235238
  0
VERTEX
  8
0
 10
90.21282999
 20
163.23786400
  0
VERTEX
  8
0
 10
90.18252287
 20
163.03928262
  0
VERTEX
  8
0
 10
90.13323972
 20
162.84761356
  0
VERTEX
  8
0
 10
90.06598585
 20
162.66386212
  0
VERTEX
  8
0
 10
89.98176656
 20
162.48903362
  0
VERTEX
  8
0
 10
89.88158717
 20
162.32413336
  0
VERTEX
  8
0
 10
89.76645299
 20
162.17016666
  0
VERTEX
  8
0
 10
89.63736932
 20
162.02813882
  0
VERTEX
  8
0
 10
89.49534148
 20
161.89905515
  0
VERTEX
  8
0
 10
89.34137478
 20
161.78392097
  0
VERTEX
  8
0
 10
89.17647452
 20
161.68374158
  0
VERTEX
  8
0
 10
89.00164602
 20
161.59952230
  0
VERTEX
  8
0
 10
88.81789458
 20
161.53226842
  0
VERTEX
  8
0
 10
88.62622552
 20
161.48298527
  0
VERTEX
  8
0
 10
88.42764414
 20
161.45267816
  0
VERTEX
  8
0
 10
88.22315576
 20
161.44235238
  0
SEQEND
  0
POLYLINE
  8
Default Layer
 62
256
 66
   1
 39
0.000000
 70
    1
  0
VERTEX
  8
0
 10
112.55038779
 20
145.92226868
  0
VERTEX
  8
0
 10
112.56097171
 20
146.13186927
  0
VERTEX
  8
0
 10
112.59203650
 20
146.33541518
  0
VERTEX
  8
0
 10
112.64255173
 20
146.53187597
  0
VERTEX
  8
0
 10
112.71148695
 20
146.72022119
  0
VERTEX
  8
0
 10
112.79781172
 20
146.89942041
  0
VERTEX
  8
0
 10
112.90049559
 20
147.06844317
  0
VERTEX
  8
0
 10
113.01850813
 20
147.22625904
  0
VERTEX
  8
0
 10
113.15081889
 20
147.37183758
  0
VERTEX
  8
0
 10
113.29639743
 20
147.50414834
  0
VERTEX
  8
0
 10
113.45421330
 20
147.62216087
  0
VERTEX
  8
0
 10
113.62323606
 20
147.72484475
  0
VERTEX
  8
0
 10
113.80243528
 20
147.81116952
  0
VERTEX
  8
0
 10
113.99078050
 20
147.88010474
  0
VERTEX
  8
0
 10
114.18724129
 20
147.93061996
  0
VERTEX
  8
0
 10
114.39078720
 20
147.96168476
  0
VERTEX
  8
0
 10
114.60038779
 20
147.97226868
  0
VERTEX
  8
0
 10
114.80998838
 20
147.96168476
  0
VERTEX
  8
0
 10
115.01353429
 20
147.93061996
  0
VERTEX
  8
0
 10
115.20999508
 20
147.88010474
  0
VERTEX
  8
0
 10
115.39834031
 20
147.81116952
  0
VERTEX
  8
0
 10
115.57753952
 20
147.72484475
  0
VERTEX
  8
0
 10
115.74656228
 20
147.62216087
  0
VERTEX
  8
0
 10
115.90437816
 20
147.50414834
  0
VERTEX
  8
0
 10
116.04995669
 20
147.37183758
  0
VERTEX
  8
0
 10
116.18226745
 20
147.22625904
  0
VERTEX
  8
0
 10
116.30027999
 20
147.06844317
  0
VERTEX
  8
0
 10
116.40296386
 20
146.89942041
  0
VERTEX
  8
0
 10
116.48928863
 20
146.72022119
  0
VERTEX
  8
0
 10
116.55822385
 20
146.53187597
  0
VERTEX
  8
0
 10
116.60873908
 20
146.33541518
  0
VERTEX
  8
0
 10
116.63980387
 20
146.13186927
  0
VERTEX
  8
0
 10
116.65038779
 20
145.92226868
  0
VERTEX
  8
0
 10
116.63980387
 20
145.71266809
  0
VERTEX
  8
0
 10
116.60873908
 20
145.50912217
  0
VERTEX
  8
0
 10
116.55822385
 20
145.31266139
  0
VERTEX
  8
0
 10
116.48928863
 20
145.12431616
  0
VERTEX
  8
0
 10
116.40296386
 20
144.94511695
  0
VERTEX
  8
0
 10
116.30027999
 20
144.77609418
  0
VERTEX
  8
0
 10
116.18226745
 20
144.61827831
  0
VERTEX
  8
0
 10
116.04995669
 20
144.47269978
  0
VERTEX
  8
0
 10
115.90437816
 20
144.34038902
  0
VERTEX
  8
0
 10
115.74656228
 20
144.22237648
  0
VERTEX
  8
0
 10
115.57753952
 20
144.11969261
  0
VERTEX
  8
0
 10
115.39834031
 20
144.03336784
  0
VERTEX
  8
0
 10
115.20999508
 20
143.96443262
  0
VERTEX
  8
0
 10
115.01353429
 20
143.91391739
  0
VERTEX
  8
0
 10
114.80998838
 20
143.88285260
  0
VERTEX
  8
0
 10
114.60038779
 20
143.87226868
  0
VERTEX
  8
0
 10
114.39078720
 20
143.88285260
  0
VERTEX
  8
0
 10
114.18724129
 20
143.91391739
  0
VERTEX
  8
0
 10
113.99078050
 20
143.96443262
  0
VERTEX
  8
0
 10
113.80243528
 20
144.03336784
  0
VERTEX
  8
0
 10
113.62323606
 20
144.11969261
  0
VERTEX
  8
0
 10
113.45421330
 20
144.22237648
  0
VERTEX
  8
0
 10
113.29639743
 20
144.34038902
  0
VERTEX
  8
0
 10
113.15081889
 20
144.47269978
  0
VERTEX
  8
0
 10
113.01850813
 20
144.61827831
  0
VERTEX
  8
0
 10
112.90049559
 20
144.77609418
  0
VERTEX
  8
0
 10
112.79781172
 20
144.94511695
  0
VERTEX
  8
0
 10
112.71148695
 20
145.12431616
  0
VERTEX
  8
0
 10
112.64255173
 20
145.31266139
  0
VERTEX
  8
0
 10
112.59203650
 20
145.50912217
  0
VERTEX
  8
0
 10
112.56097171
 20
145.71266809
  0
VERTEX
  8
0
 10
112.55038779
 20
145.92226868
  0
SEQEND
  0
ENDSEC
  0
EOF
