  0
SECTION
  2
HEADER
  9
$ACADVER
  1
AC1018
  9
$ACADMAINTVER
 70
     0
  9
$DWGCODEPAGE
  3
ANSI_932
  9
$INSBASE
 10
0.0
 20
0.0
 30
0.0
  9
$EXTMIN
 10
1.000000000000000E+20
 20
1.000000000000000E+20
 30
1.000000000000000E+20
  9
$EXTMAX
 10
-1.000000000000000E+20
 20
-1.000000000000000E+20
 30
-1.000000000000000E+20
  9
$LIMMIN
 10
0.0
 20
0.0
  9
$LIMMAX
 10
12.0
 20
9.0
  9
$ORTHOMODE
 70
     0
  9
$REGENMODE
 70
     1
  9
$FILLMODE
 70
     1
  9
$QTEXTMODE
 70
     0
  9
$MIRRTEXT
 70
     1
  9
$LTSCALE
 40
1.0
  9
$ATTMODE
 70
     1
  9
$TEXTSIZE
 40
0.2
  9
$TRACEWID
 40
0.05
  9
$TEXTSTYLE
  7
Standard
  9
$CLAYER
  8
0
  9
$CELTYPE
  6
ByLayer
  9
$CECOLOR
 62
   256
  9
$CELTSCALE
 40
1.0
  9
$DISPSILH
 70
     0
  9
$DIMSCALE
 40
1.0
  9
$DIMASZ
 40
0.18
  9
$DIMEXO
 40
0.0625
  9
$DIMDLI
 40
0.38
  9
$DIMRND
 40
0.0
  9
$DIMDLE
 40
0.0
  9
$DIMEXE
 40
0.18
  9
$DIMTP
 40
0.0
  9
$DIMTM
 40
0.0
  9
$DIMTXT
 40
0.18
  9
$DIMCEN
 40
0.09
  9
$DIMTSZ
 40
0.0
  9
$DIMTOL
 70
     0
  9
$DIMLIM
 70
     0
  9
$DIMTIH
 70
     1
  9
$DIMTOH
 70
     1
  9
$DIMSE1
 70
     0
  9
$DIMSE2
 70
     0
  9
$DIMTAD
 70
     0
  9
$DIMZIN
 70
     0
  9
$DIMBLK
  1

  9
$DIMASO
 70
     1
  9
$DIMSHO
 70
     1
  9
$DIMPOST
  1

  9
$DIMAPOST
  1

  9
$DIMALT
 70
     0
  9
$DIMALTD
 70
     2
  9
$DIMALTF
 40
25.4
  9
$DIMLFAC
 40
1.0
  9
$DIMTOFL
 70
     0
  9
$DIMTVP
 40
0.0
  9
$DIMTIX
 70
     0
  9
$DIMSOXD
 70
     0
  9
$DIMSAH
 70
     0
  9
$DIMBLK1
  1

  9
$DIMBLK2
  1

  9
$DIMSTYLE
  2
Standard
  9
$DIMCLRD
 70
     0
  9
$DIMCLRE
 70
     0
  9
$DIMCLRT
 70
     0
  9
$DIMTFAC
 40
1.0
  9
$DIMGAP
 40
0.09
  9
$DIMJUST
 70
     0
  9
$DIMSD1
 70
     0
  9
$DIMSD2
 70
     0
  9
$DIMTOLJ
 70
     1
  9
$DIMTZIN
 70
     0
  9
$DIMALTZ
 70
     0
  9
$DIMALTTZ
 70
     0
  9
$DIMUPT
 70
     0
  9
$DIMDEC
 70
     4
  9
$DIMTDEC
 70
     4
  9
$DIMALTU
 70
     2
  9
$DIMALTTD
 70
     2
  9
$DIMTXSTY
  7
Standard
  9
$DIMAUNIT
 70
     0
  9
$DIMADEC
 70
     0
  9
$DIMALTRND
 40
0.0
  9
$DIMAZIN
 70
     0
  9
$DIMDSEP
 70
    46
  9
$DIMATFIT
 70
     3
  9
$DIMFRAC
 70
     0
  9
$DIMLDRBLK
  1

  9
$DIMLUNIT
 70
     2
  9
$DIMLWD
 70
    -2
  9
$DIMLWE
 70
    -2
  9
$DIMTMOVE
 70
     0
  9
$LUNITS
 70
     2
  9
$LUPREC
 70
     4
  9
$SKETCHINC
 40
0.1
  9
$FILLETRAD
 40
0.5
  9
$AUNITS
 70
     0
  9
$AUPREC
 70
     0
  9
$MENU
  1
.
  9
$ELEVATION
 40
0.0
  9
$PELEVATION
 40
0.0
  9
$THICKNESS
 40
0.0
  9
$LIMCHECK
 70
     0
  9
$CHAMFERA
 40
0.5
  9
$CHAMFERB
 40
0.5
  9
$CHAMFERC
 40
1.0
  9
$CHAMFERD
 40
0.0
  9
$SKPOLY
 70
     0
  9
$TDCREATE
 40
2456748.835208334
  9
$TDUCREATE
 40
2456749.168541667
  9
$TDUPDATE
 40
2456748.835208345
  9
$TDUUPDATE
 40
2456749.168541678
  9
$TDINDWG
 40
0.0000000116
  9
$TDUSRTIMER
 40
0.0000000116
  9
$USRTIMER
 70
     1
  9
$ANGBASE
 50
0.0
  9
$ANGDIR
 70
     0
  9
$PDMODE
 70
     0
  9
$PDSIZE
 40
0.0
  9
$PLINEWID
 40
0.0
  9
$SPLFRAME
 70
     0
  9
$SPLINETYPE
 70
     6
  9
$SPLINESEGS
 70
     8
  9
$HANDSEED
  5
229
  9
$SURFTAB1
 70
     6
  9
$SURFTAB2
 70
     6
  9
$SURFTYPE
 70
     6
  9
$SURFU
 70
     6
  9
$SURFV
 70
     6
  9
$UCSBASE
  2

  9
$UCSNAME
  2

  9
$UCSORG
 10
0.0
 20
0.0
 30
0.0
  9
$UCSXDIR
 10
1.0
 20
0.0
 30
0.0
  9
$UCSYDIR
 10
0.0
 20
1.0
 30
0.0
  9
$UCSORTHOREF
  2

  9
$UCSORTHOVIEW
 70
     0
  9
$UCSORGTOP
 10
0.0
 20
0.0
 30
0.0
  9
$UCSORGBOTTOM
 10
0.0
 20
0.0
 30
0.0
  9
$UCSORGLEFT
 10
0.0
 20
0.0
 30
0.0
  9
$UCSORGRIGHT
 10
0.0
 20
0.0
 30
0.0
  9
$UCSORGFRONT
 10
0.0
 20
0.0
 30
0.0
  9
$UCSORGBACK
 10
0.0
 20
0.0
 30
0.0
  9
$PUCSBASE
  2

  9
$PUCSNAME
  2

  9
$PUCSORG
 10
0.0
 20
0.0
 30
0.0
  9
$PUCSXDIR
 10
1.0
 20
0.0
 30
0.0
  9
$PUCSYDIR
 10
0.0
 20
1.0
 30
0.0
  9
$PUCSORTHOREF
  2

  9
$PUCSORTHOVIEW
 70
     0
  9
$PUCSORGTOP
 10
0.0
 20
0.0
 30
0.0
  9
$PUCSORGBOTTOM
 10
0.0
 20
0.0
 30
0.0
  9
$PUCSORGLEFT
 10
0.0
 20
0.0
 30
0.0
  9
$PUCSORGRIGHT
 10
0.0
 20
0.0
 30
0.0
  9
$PUCSORGFRONT
 10
0.0
 20
0.0
 30
0.0
  9
$PUCSORGBACK
 10
0.0
 20
0.0
 30
0.0
  9
$USERI1
 70
     0
  9
$USERI2
 70
     0
  9
$USERI3
 70
     0
  9
$USERI4
 70
     0
  9
$USERI5
 70
     0
  9
$USERR1
 40
0.0
  9
$USERR2
 40
0.0
  9
$USERR3
 40
0.0
  9
$USERR4
 40
0.0
  9
$USERR5
 40
0.0
  9
$WORLDVIEW
 70
     1
  9
$SHADEDGE
 70
     3
  9
$SHADEDIF
 70
    70
  9
$TILEMODE
 70
     1
  9
$MAXACTVP
 70
    64
  9
$PINSBASE
 10
0.0
 20
0.0
 30
0.0
  9
$PLIMCHECK
 70
     0
  9
$PEXTMIN
 10
1.000000000000000E+20
 20
1.000000000000000E+20
 30
1.000000000000000E+20
  9
$PEXTMAX
 10
-1.000000000000000E+20
 20
-1.000000000000000E+20
 30
-1.000000000000000E+20
  9
$PLIMMIN
 10
0.0
 20
0.0
  9
$PLIMMAX
 10
12.0
 20
9.0
  9
$UNITMODE
 70
     0
  9
$VISRETAIN
 70
     1
  9
$PLINEGEN
 70
     0
  9
$PSLTSCALE
 70
     1
  9
$TREEDEPTH
 70
  3020
  9
$CMLSTYLE
  2
Standard
  9
$CMLJUST
 70
     0
  9
$CMLSCALE
 40
1.0
  9
$PROXYGRAPHICS
 70
     1
  9
$MEASUREMENT
 70
     0
  9
$CELWEIGHT
370
    -1
  9
$ENDCAPS
280
     0
  9
$JOINSTYLE
280
     0
  9
$LWDISPLAY
290
     1
  9
$INSUNITS
 70
     1
  9
$HYPERLINKBASE
  1

  9
$STYLESHEET
  1

  9
$XEDIT
290
     1
  9
$CEPSNTYPE
380
     0
  9
$PSTYLEMODE
290
     1
  9
$FINGERPRINTGUID
  2
{FF618579-1DBD-19ED-228F-CFBE07272849}
  9
$VERSIONGUID
  2
{FAEB1C32-E019-11D5-929B-00C0DF256EC4}
  9
$EXTNAMES
290
     1
  9
$PSVPSCALE
 40
0.0
  9
$OLESTARTUP
290
     0
  9
$SORTENTS
280
   127
  9
$INDEXCTL
280
     0
  9
$HIDETEXT
280
     1
  9
$XCLIPFRAME
290
     0
  9
$HALOGAP
280
     0
  9
$OBSCOLOR
 70
   257
  9
$OBSLTYPE
280
     0
  9
$INTERSECTIONDISPLAY
280
     0
  9
$INTERSECTIONCOLOR
 70
   257
  9
$DIMASSOC
280
     2
  9
$PROJECTNAME
  1

  0
ENDSEC
  0
SECTION
  2
CLASSES
  0
CLASS
  1
ACDBDICTIONARYWDFLT
  2
AcDbDictionaryWithDefault
  3
ObjectDBX Classes
 90
        0
 91
        3
280
     0
281
     0
  0
CLASS
  1
VISUALSTYLE
  2
AcDbVisualStyle
  3
ObjectDBX Classes
 90
     4095
 91
        3
280
     0
281
     0
  0
ENDSEC
  0
SECTION
  2
TABLES
  0
TABLE
  2
VPORT
  5
8
330
0
100
AcDbSymbolTable
 70
     1
  0
VPORT
  5
29
330
8
100
AcDbSymbolTableRecord
100
AcDbViewportTableRecord
  2
*Active
 70
     0
 10
0.0
 20
0.0
 11
1.0
 21
1.0
 12
0.0
 22
0.0
 13
0.0
 23
0.0
 14
0.5
 24
0.5
 15
0.5
 25
0.5
 16
0.0
 26
0.0
 36
1.0
 17
24.0
 27
-12.0
 37
0.0
 40
24.0
 41
2.0
 42
50.0
 43
0.0
 44
0.0
 50
0.0
 51
0.0
 71
     0
 72
   100
 73
     1
 74
     3
 75
     0
 76
     0
 77
     0
 78
     0
281
     0
 65
     1
110
0.0
120
0.0
130
0.0
111
1.0
121
0.0
131
0.0
112
0.0
122
1.0
132
0.0
 79
     0
146
0.0
  0
ENDTAB
  0
TABLE
  2
LTYPE
  5
5
330
0
100
AcDbSymbolTable
 70
     1
  0
LTYPE
  5
14
330
5
100
AcDbSymbolTableRecord
100
AcDbLinetypeTableRecord
  2
ByBlock
 70
     0
  3

 72
    65
 73
     0
 40
0.0
  0
LTYPE
  5
15
330
5
100
AcDbSymbolTableRecord
100
AcDbLinetypeTableRecord
  2
ByLayer
 70
     0
  3

 72
    65
 73
     0
 40
0.0
  0
LTYPE
  5
16
330
5
100
AcDbSymbolTableRecord
100
AcDbLinetypeTableRecord
  2
Continuous
 70
     0
  3
Solid line
 72
    65
 73
     0
 40
0.0
  0
ENDTAB
  0
TABLE
  2
LAYER
  5
2
330
0
100
AcDbSymbolTable
 70
     2
  0
LAYER
  5
10
330
2
100
AcDbSymbolTableRecord
100
AcDbLayerTableRecord
  2
0
 70
     0
 62
     7
  6
Continuous
370
    -3
390
F
  0
LAYER
  5
3B
330
2
100
AcDbSymbolTableRecord
100
AcDbLayerTableRecord
  2
Layer 1
 70
     0
 62
     7
  6
Continuous
370
    -3
390
F
  0
ENDTAB
  0
TABLE
  2
STYLE
  5
3
330
0
100
AcDbSymbolTable
 70
     1
  0
STYLE
  5
11
330
3
100
AcDbSymbolTableRecord
100
AcDbTextStyleTableRecord
  2
Standard
 70
     0
 40
0.0
 41
1.0
 50
0.0
 71
     0
 42
0.2
  3
txt
  4

  0
ENDTAB
  0
TABLE
  2
VIEW
  5
6
330
0
100
AcDbSymbolTable
 70
     0
  0
ENDTAB
  0
TABLE
  2
UCS
  5
7
330
0
100
AcDbSymbolTable
 70
     0
  0
ENDTAB
  0
TABLE
  2
APPID
  5
9
330
0
100
AcDbSymbolTable
 70
     1
  0
APPID
  5
12
330
9
100
AcDbSymbolTableRecord
100
AcDbRegAppTableRecord
  2
ACAD
 70
     0
  0
ENDTAB
  0
TABLE
  2
DIMSTYLE
  5
A
330
0
100
AcDbSymbolTable
 70
     1
100
AcDbDimStyleTable
  0
DIMSTYLE
105
27
330
A
100
AcDbSymbolTableRecord
100
AcDbDimStyleTableRecord
  2
Standard
 70
     0
340
11
  0
ENDTAB
  0
TABLE
  2
BLOCK_RECORD
  5
1
330
0
100
AcDbSymbolTable
 70
     1
  0
BLOCK_RECORD
  5
1F
330
1
100
AcDbSymbolTableRecord
100
AcDbBlockTableRecord
  2
*Model_Space
340
22
  0
BLOCK_RECORD
  5
1B
330
1
100
AcDbSymbolTableRecord
100
AcDbBlockTableRecord
  2
*Paper_Space
340
1E
  0
BLOCK_RECORD
  5
23
330
1
100
AcDbSymbolTableRecord
100
AcDbBlockTableRecord
  2
*Paper_Space0
340
26
  0
ENDTAB
  0
ENDSEC
  0
SECTION
  2
BLOCKS
  0
BLOCK
  5
20
330
1F
100
AcDbEntity
  8
0
100
AcDbBlockBegin
  2
*Model_Space
 70
     0
 71
     0
 10
0.0
 20
0.0
 30
0.0
  3
*Model_Space
  1

  0
ENDBLK
  5
21
330
1F
100
AcDbEntity
  8
0
100
AcDbBlockEnd
  0
BLOCK
  5
1C
330
1B
100
AcDbEntity
 67
     1
  8
0
100
AcDbBlockBegin
  2
*Paper_Space
 70
     0
 71
     0
 10
0.0
 20
0.0
 30
0.0
  3
*Paper_Space
  1

  0
ENDBLK
  5
1D
330
1B
100
AcDbEntity
 67
     1
  8
0
100
AcDbBlockEnd
  0
BLOCK
  5
24
330
23
100
AcDbEntity
  8
0
100
AcDbBlockBegin
  2
*Paper_Space0
 70
     0
 71
     0
 10
0.0
 20
0.0
 30
0.0
  3
*Paper_Space0
  1

  0
ENDBLK
  5
25
330
23
100
AcDbEntity
  8
0
100
AcDbBlockEnd
  0
ENDSEC
  0
SECTION
  2
ENTITIES
  0
POLYLINE
  5
3C
330
1F
100
AcDbEntity
  8
Layer 1
 62
   179
420
  2301728
370
    70
100
AcDb2dPolyline
 66
     1
 10
0.0
 20
0.0
 30
0.0
  0
VERTEX
  5
3D
330
3C
100
AcDbEntity
  8
Layer 1
 62
   179
420
  2301728
370
    70
100
AcDbVertex
100
AcDb2dVertex
 10
35.11542426215278
 20
-13.01761881510417
 30
0.0
  0
VERTEX
  5
3E
330
3C
100
AcDbEntity
  8
Layer 1
 62
   179
420
  2301728
370
    70
100
AcDbVertex
100
AcDb2dVertex
 10
35.11542426215278
 20
-14.23984103732639
 30
0.0
  0
VERTEX
  5
3F
330
3C
100
AcDbEntity
  8
Layer 1
 62
   179
420
  2301728
370
    70
100
AcDbVertex
100
AcDb2dVertex
 10
34.61542426215278
 20
-14.23984103732639
 30
0.0
  0
VERTEX
  5
40
330
3C
100
AcDbEntity
  8
Layer 1
 62
   179
420
  2301728
370
    70
100
AcDbVertex
100
AcDb2dVertex
 10
34.61542426215278
 20
-15.46206325954861
 30
0.0
  0
VERTEX
  5
41
330
3C
100
AcDbEntity
  8
Layer 1
 62
   179
420
  2301728
370
    70
100
AcDbVertex
100
AcDb2dVertex
 10
35.11542426215278
 20
-15.46206325954861
 30
0.0
  0
VERTEX
  5
42
330
3C
100
AcDbEntity
  8
Layer 1
 62
   179
420
  2301728
370
    70
100
AcDbVertex
100
AcDb2dVertex
 10
35.11542426215278
 20
-16.68428548177083
 30
0.0
  0
VERTEX
  5
43
330
3C
100
AcDbEntity
  8
Layer 1
 62
   179
420
  2301728
370
    70
100
AcDbVertex
100
AcDb2dVertex
 10
34.61542426215278
 20
-16.68428548177083
 30
0.0
  0
VERTEX
  5
44
330
3C
100
AcDbEntity
  8
Layer 1
 62
   179
420
  2301728
370
    70
100
AcDbVertex
100
AcDb2dVertex
 10
34.61542426215278
 20
-17.90650770399305
 30
0.0
  0
VERTEX
  5
45
330
3C
100
AcDbEntity
  8
Layer 1
 62
   179
420
  2301728
370
    70
100
AcDbVertex
100
AcDb2dVertex
 10
35.11542426215278
 20
-17.90650770399305
 30
0.0
  0
VERTEX
  5
46
330
3C
100
AcDbEntity
  8
Layer 1
 62
   179
420
  2301728
370
    70
100
AcDbVertex
100
AcDb2dVertex
 10
35.11542426215278
 20
-19.12872992621528
 30
0.0
  0
VERTEX
  5
47
330
3C
100
AcDbEntity
  8
Layer 1
 62
   179
420
  2301728
370
    70
100
AcDbVertex
100
AcDb2dVertex
 10
34.61542426215278
 20
-19.12872992621528
 30
0.0
  0
VERTEX
  5
48
330
3C
100
AcDbEntity
  8
Layer 1
 62
   179
420
  2301728
370
    70
100
AcDbVertex
100
AcDb2dVertex
 10
34.61542426215278
 20
-20.3509521484375
 30
0.0
  0
VERTEX
  5
49
330
3C
100
AcDbEntity
  8
Layer 1
 62
   179
420
  2301728
370
    70
100
AcDbVertex
100
AcDb2dVertex
 10
35.11542426215278
 20
-20.3509521484375
 30
0.0
  0
VERTEX
  5
4A
330
3C
100
AcDbEntity
  8
Layer 1
 62
   179
420
  2301728
370
    70
100
AcDbVertex
100
AcDb2dVertex
 10
35.11542426215278
 20
-21.57314724392361
 30
0.0
  0
VERTEX
  5
4B
330
3C
100
AcDbEntity
  8
Layer 1
 62
   179
420
  2301728
370
    70
100
AcDbVertex
100
AcDb2dVertex
 10
34.61542426215278
 20
-21.57314724392361
 30
0.0
  0
VERTEX
  5
4C
330
3C
100
AcDbEntity
  8
Layer 1
 62
   179
420
  2301728
370
    70
100
AcDbVertex
100
AcDb2dVertex
 10
34.61542426215278
 20
-22.79536946614583
 30
0.0
  0
VERTEX
  5
4D
330
3C
100
AcDbEntity
  8
Layer 1
 62
   179
420
  2301728
370
    70
100
AcDbVertex
100
AcDb2dVertex
 10
33.89320203993056
 20
-22.79536946614583
 30
0.0
  0
VERTEX
  5
4E
330
3C
100
AcDbEntity
  8
Layer 1
 62
   179
420
  2301728
370
    70
100
AcDbVertex
100
AcDb2dVertex
 10
33.89320203993056
 20
-22.29536946614583
 30
0.0
  0
VERTEX
  5
4F
330
3C
100
AcDbEntity
  8
Layer 1
 62
   179
420
  2301728
370
    70
100
AcDbVertex
100
AcDb2dVertex
 10
32.67097981770833
 20
-22.29536946614583
 30
0.0
  0
VERTEX
  5
50
330
3C
100
AcDbEntity
  8
Layer 1
 62
   179
420
  2301728
370
    70
100
AcDbVertex
100
AcDb2dVertex
 10
32.67097981770833
 20
-22.79536946614583
 30
0.0
  0
VERTEX
  5
51
330
3C
100
AcDbEntity
  8
Layer 1
 62
   179
420
  2301728
370
    70
100
AcDbVertex
100
AcDb2dVertex
 10
31.44875759548611
 20
-22.79536946614583
 30
0.0
  0
VERTEX
  5
52
330
3C
100
AcDbEntity
  8
Layer 1
 62
   179
420
  2301728
370
    70
100
AcDbVertex
100
AcDb2dVertex
 10
31.44875759548611
 20
-22.29536946614583
 30
0.0
  0
VERTEX
  5
53
330
3C
100
AcDbEntity
  8
Layer 1
 62
   179
420
  2301728
370
    70
100
AcDbVertex
100
AcDb2dVertex
 10
30.22653537326389
 20
-22.29536946614583
 30
0.0
  0
VERTEX
  5
54
330
3C
100
AcDbEntity
  8
Layer 1
 62
   179
420
  2301728
370
    70
100
AcDbVertex
100
AcDb2dVertex
 10
30.22653537326389
 20
-22.79536946614583
 30
0.0
  0
VERTEX
  5
55
330
3C
100
AcDbEntity
  8
Layer 1
 62
   179
420
  2301728
370
    70
100
AcDbVertex
100
AcDb2dVertex
 10
29.00431315104166
 20
-22.79536946614583
 30
0.0
  0
VERTEX
  5
56
330
3C
100
AcDbEntity
  8
Layer 1
 62
   179
420
  2301728
370
    70
100
AcDbVertex
100
AcDb2dVertex
 10
29.00431315104166
 20
-22.29536946614583
 30
0.0
  0
VERTEX
  5
57
330
3C
100
AcDbEntity
  8
Layer 1
 62
   179
420
  2301728
370
    70
100
AcDbVertex
100
AcDb2dVertex
 10
27.78209092881944
 20
-22.29536946614583
 30
0.0
  0
VERTEX
  5
58
330
3C
100
AcDbEntity
  8
Layer 1
 62
   179
420
  2301728
370
    70
100
AcDbVertex
100
AcDb2dVertex
 10
27.78209092881944
 20
-22.79536946614583
 30
0.0
  0
VERTEX
  5
59
330
3C
100
AcDbEntity
  8
Layer 1
 62
   179
420
  2301728
370
    70
100
AcDbVertex
100
AcDb2dVertex
 10
26.55986870659722
 20
-22.79536946614583
 30
0.0
  0
VERTEX
  5
5A
330
3C
100
AcDbEntity
  8
Layer 1
 62
   179
420
  2301728
370
    70
100
AcDbVertex
100
AcDb2dVertex
 10
26.55986870659722
 20
-22.29536946614583
 30
0.0
  0
VERTEX
  5
5B
330
3C
100
AcDbEntity
  8
Layer 1
 62
   179
420
  2301728
370
    70
100
AcDbVertex
100
AcDb2dVertex
 10
25.337646484375
 20
-22.29536946614583
 30
0.0
  0
VERTEX
  5
5C
330
3C
100
AcDbEntity
  8
Layer 1
 62
   179
420
  2301728
370
    70
100
AcDbVertex
100
AcDb2dVertex
 10
25.337646484375
 20
-22.79536946614583
 30
0.0
  0
VERTEX
  5
5D
330
3C
100
AcDbEntity
  8
Layer 1
 62
   179
420
  2301728
370
    70
100
AcDbVertex
100
AcDb2dVertex
 10
24.11542426215278
 20
-22.79536946614583
 30
0.0
  0
VERTEX
  5
5E
330
3C
100
AcDbEntity
  8
Layer 1
 62
   179
420
  2301728
370
    70
100
AcDbVertex
100
AcDb2dVertex
 10
24.11542426215278
 20
-21.57314724392361
 30
0.0
  0
VERTEX
  5
5F
330
3C
100
AcDbEntity
  8
Layer 1
 62
   179
420
  2301728
370
    70
100
AcDbVertex
100
AcDb2dVertex
 10
24.61542426215278
 20
-21.57314724392361
 30
0.0
  0
VERTEX
  5
60
330
3C
100
AcDbEntity
  8
Layer 1
 62
   179
420
  2301728
370
    70
100
AcDbVertex
100
AcDb2dVertex
 10
24.61542426215278
 20
-20.3509521484375
 30
0.0
  0
VERTEX
  5
61
330
3C
100
AcDbEntity
  8
Layer 1
 62
   179
420
  2301728
370
    70
100
AcDbVertex
100
AcDb2dVertex
 10
24.11542426215278
 20
-20.3509521484375
 30
0.0
  0
VERTEX
  5
62
330
3C
100
AcDbEntity
  8
Layer 1
 62
   179
420
  2301728
370
    70
100
AcDbVertex
100
AcDb2dVertex
 10
24.11542426215278
 20
-19.12872992621528
 30
0.0
  0
VERTEX
  5
63
330
3C
100
AcDbEntity
  8
Layer 1
 62
   179
420
  2301728
370
    70
100
AcDbVertex
100
AcDb2dVertex
 10
24.61542426215278
 20
-19.12872992621528
 30
0.0
  0
VERTEX
  5
64
330
3C
100
AcDbEntity
  8
Layer 1
 62
   179
420
  2301728
370
    70
100
AcDbVertex
100
AcDb2dVertex
 10
24.61542426215278
 20
-17.90650770399305
 30
0.0
  0
VERTEX
  5
65
330
3C
100
AcDbEntity
  8
Layer 1
 62
   179
420
  2301728
370
    70
100
AcDbVertex
100
AcDb2dVertex
 10
24.11542426215278
 20
-17.90650770399305
 30
0.0
  0
VERTEX
  5
66
330
3C
100
AcDbEntity
  8
Layer 1
 62
   179
420
  2301728
370
    70
100
AcDbVertex
100
AcDb2dVertex
 10
24.11542426215278
 20
-16.68428548177083
 30
0.0
  0
VERTEX
  5
67
330
3C
100
AcDbEntity
  8
Layer 1
 62
   179
420
  2301728
370
    70
100
AcDbVertex
100
AcDb2dVertex
 10
24.61542426215278
 20
-16.68428548177083
 30
0.0
  0
VERTEX
  5
68
330
3C
100
AcDbEntity
  8
Layer 1
 62
   179
420
  2301728
370
    70
100
AcDbVertex
100
AcDb2dVertex
 10
24.61542426215278
 20
-15.46206325954861
 30
0.0
  0
VERTEX
  5
69
330
3C
100
AcDbEntity
  8
Layer 1
 62
   179
420
  2301728
370
    70
100
AcDbVertex
100
AcDb2dVertex
 10
24.11542426215278
 20
-15.46206325954861
 30
0.0
  0
VERTEX
  5
6A
330
3C
100
AcDbEntity
  8
Layer 1
 62
   179
420
  2301728
370
    70
100
AcDbVertex
100
AcDb2dVertex
 10
24.11542426215278
 20
-14.23984103732639
 30
0.0
  0
VERTEX
  5
6B
330
3C
100
AcDbEntity
  8
Layer 1
 62
   179
420
  2301728
370
    70
100
AcDbVertex
100
AcDb2dVertex
 10
24.61542426215278
 20
-14.23984103732639
 30
0.0
  0
VERTEX
  5
6C
330
3C
100
AcDbEntity
  8
Layer 1
 62
   179
420
  2301728
370
    70
100
AcDbVertex
100
AcDb2dVertex
 10
24.61542426215278
 20
-13.01761881510417
 30
0.0
  0
VERTEX
  5
6D
330
3C
100
AcDbEntity
  8
Layer 1
 62
   179
420
  2301728
370
    70
100
AcDbVertex
100
AcDb2dVertex
 10
24.11542426215278
 20
-13.01761881510417
 30
0.0
  0
VERTEX
  5
6E
330
3C
100
AcDbEntity
  8
Layer 1
 62
   179
420
  2301728
370
    70
100
AcDbVertex
100
AcDb2dVertex
 10
24.11542426215278
 20
-11.79539659288194
 30
0.0
  0
VERTEX
  5
6F
330
3C
100
AcDbEntity
  8
Layer 1
 62
   179
420
  2301728
370
    70
100
AcDbVertex
100
AcDb2dVertex
 10
25.337646484375
 20
-11.79539659288194
 30
0.0
  0
VERTEX
  5
70
330
3C
100
AcDbEntity
  8
Layer 1
 62
   179
420
  2301728
370
    70
100
AcDbVertex
100
AcDb2dVertex
 10
25.337646484375
 20
-12.29539659288194
 30
0.0
  0
VERTEX
  5
71
330
3C
100
AcDbEntity
  8
Layer 1
 62
   179
420
  2301728
370
    70
100
AcDbVertex
100
AcDb2dVertex
 10
26.55986870659722
 20
-12.29539659288194
 30
0.0
  0
VERTEX
  5
72
330
3C
100
AcDbEntity
  8
Layer 1
 62
   179
420
  2301728
370
    70
100
AcDbVertex
100
AcDb2dVertex
 10
26.55986870659722
 20
-11.79539659288194
 30
0.0
  0
VERTEX
  5
73
330
3C
100
AcDbEntity
  8
Layer 1
 62
   179
420
  2301728
370
    70
100
AcDbVertex
100
AcDb2dVertex
 10
27.78209092881944
 20
-11.79539659288194
 30
0.0
  0
VERTEX
  5
74
330
3C
100
AcDbEntity
  8
Layer 1
 62
   179
420
  2301728
370
    70
100
AcDbVertex
100
AcDb2dVertex
 10
27.78209092881944
 20
-12.29539659288194
 30
0.0
  0
VERTEX
  5
75
330
3C
100
AcDbEntity
  8
Layer 1
 62
   179
420
  2301728
370
    70
100
AcDbVertex
100
AcDb2dVertex
 10
29.00431315104166
 20
-12.29539659288194
 30
0.0
  0
VERTEX
  5
76
330
3C
100
AcDbEntity
  8
Layer 1
 62
   179
420
  2301728
370
    70
100
AcDbVertex
100
AcDb2dVertex
 10
29.00431315104166
 20
-11.79539659288194
 30
0.0
  0
VERTEX
  5
77
330
3C
100
AcDbEntity
  8
Layer 1
 62
   179
420
  2301728
370
    70
100
AcDbVertex
100
AcDb2dVertex
 10
30.22653537326389
 20
-11.79539659288194
 30
0.0
  0
VERTEX
  5
78
330
3C
100
AcDbEntity
  8
Layer 1
 62
   179
420
  2301728
370
    70
100
AcDbVertex
100
AcDb2dVertex
 10
30.22653537326389
 20
-12.29539659288194
 30
0.0
  0
VERTEX
  5
79
330
3C
100
AcDbEntity
  8
Layer 1
 62
   179
420
  2301728
370
    70
100
AcDbVertex
100
AcDb2dVertex
 10
31.44875759548611
 20
-12.29539659288194
 30
0.0
  0
VERTEX
  5
7A
330
3C
100
AcDbEntity
  8
Layer 1
 62
   179
420
  2301728
370
    70
100
AcDbVertex
100
AcDb2dVertex
 10
31.44875759548611
 20
-11.79539659288194
 30
0.0
  0
VERTEX
  5
7B
330
3C
100
AcDbEntity
  8
Layer 1
 62
   179
420
  2301728
370
    70
100
AcDbVertex
100
AcDb2dVertex
 10
32.67097981770833
 20
-11.79539659288194
 30
0.0
  0
VERTEX
  5
7C
330
3C
100
AcDbEntity
  8
Layer 1
 62
   179
420
  2301728
370
    70
100
AcDbVertex
100
AcDb2dVertex
 10
32.67097981770833
 20
-12.29539659288194
 30
0.0
  0
VERTEX
  5
7D
330
3C
100
AcDbEntity
  8
Layer 1
 62
   179
420
  2301728
370
    70
100
AcDbVertex
100
AcDb2dVertex
 10
33.89320203993056
 20
-12.29539659288194
 30
0.0
  0
VERTEX
  5
7E
330
3C
100
AcDbEntity
  8
Layer 1
 62
   179
420
  2301728
370
    70
100
AcDbVertex
100
AcDb2dVertex
 10
33.89320203993056
 20
-11.79539659288194
 30
0.0
  0
VERTEX
  5
7F
330
3C
100
AcDbEntity
  8
Layer 1
 62
   179
420
  2301728
370
    70
100
AcDbVertex
100
AcDb2dVertex
 10
34.61542426215278
 20
-11.79539659288194
 30
0.0
  0
VERTEX
  5
80
330
3C
100
AcDbEntity
  8
Layer 1
 62
   179
420
  2301728
370
    70
100
AcDbVertex
100
AcDb2dVertex
 10
34.61542426215278
 20
-13.01761881510417
 30
0.0
  0
VERTEX
  5
81
330
3C
100
AcDbEntity
  8
Layer 1
 62
   179
420
  2301728
370
    70
100
AcDbVertex
100
AcDb2dVertex
 10
35.11542426215278
 20
-13.01761881510417
 30
0.0
  0
SEQEND
  5
82
330
3C
100
AcDbEntity
  8
Layer 1
370
    70
  0
POLYLINE
  5
83
330
1F
100
AcDbEntity
  8
Layer 1
 62
   179
420
  2301728
370
    70
100
AcDb2dPolyline
 66
     1
 10
0.0
 20
0.0
 30
0.0
  0
VERTEX
  5
84
330
83
100
AcDbEntity
  8
Layer 1
 62
   179
420
  2301728
370
    70
100
AcDbVertex
100
AcDb2dVertex
 10
23.72166612413194
 20
-13.01761881510417
 30
0.0
  0
VERTEX
  5
85
330
83
100
AcDbEntity
  8
Layer 1
 62
   179
420
  2301728
370
    70
100
AcDbVertex
100
AcDb2dVertex
 10
23.72166612413194
 20
-14.23984103732639
 30
0.0
  0
VERTEX
  5
86
330
83
100
AcDbEntity
  8
Layer 1
 62
   179
420
  2301728
370
    70
100
AcDbVertex
100
AcDb2dVertex
 10
23.22166612413194
 20
-14.23984103732639
 30
0.0
  0
VERTEX
  5
87
330
83
100
AcDbEntity
  8
Layer 1
 62
   179
420
  2301728
370
    70
100
AcDbVertex
100
AcDb2dVertex
 10
23.22166612413194
 20
-15.46206325954861
 30
0.0
  0
VERTEX
  5
88
330
83
100
AcDbEntity
  8
Layer 1
 62
   179
420
  2301728
370
    70
100
AcDbVertex
100
AcDb2dVertex
 10
23.72166612413194
 20
-15.46206325954861
 30
0.0
  0
VERTEX
  5
89
330
83
100
AcDbEntity
  8
Layer 1
 62
   179
420
  2301728
370
    70
100
AcDbVertex
100
AcDb2dVertex
 10
23.72166612413194
 20
-16.68428548177083
 30
0.0
  0
VERTEX
  5
8A
330
83
100
AcDbEntity
  8
Layer 1
 62
   179
420
  2301728
370
    70
100
AcDbVertex
100
AcDb2dVertex
 10
23.22166612413194
 20
-16.68428548177083
 30
0.0
  0
VERTEX
  5
8B
330
83
100
AcDbEntity
  8
Layer 1
 62
   179
420
  2301728
370
    70
100
AcDbVertex
100
AcDb2dVertex
 10
23.22166612413194
 20
-17.90650770399305
 30
0.0
  0
VERTEX
  5
8C
330
83
100
AcDbEntity
  8
Layer 1
 62
   179
420
  2301728
370
    70
100
AcDbVertex
100
AcDb2dVertex
 10
23.72166612413194
 20
-17.90650770399305
 30
0.0
  0
VERTEX
  5
8D
330
83
100
AcDbEntity
  8
Layer 1
 62
   179
420
  2301728
370
    70
100
AcDbVertex
100
AcDb2dVertex
 10
23.72166612413194
 20
-19.12872992621528
 30
0.0
  0
VERTEX
  5
8E
330
83
100
AcDbEntity
  8
Layer 1
 62
   179
420
  2301728
370
    70
100
AcDbVertex
100
AcDb2dVertex
 10
23.22166612413194
 20
-19.12872992621528
 30
0.0
  0
VERTEX
  5
8F
330
83
100
AcDbEntity
  8
Layer 1
 62
   179
420
  2301728
370
    70
100
AcDbVertex
100
AcDb2dVertex
 10
23.22166612413194
 20
-20.3509521484375
 30
0.0
  0
VERTEX
  5
90
330
83
100
AcDbEntity
  8
Layer 1
 62
   179
420
  2301728
370
    70
100
AcDbVertex
100
AcDb2dVertex
 10
23.72166612413194
 20
-20.3509521484375
 30
0.0
  0
VERTEX
  5
91
330
83
100
AcDbEntity
  8
Layer 1
 62
   179
420
  2301728
370
    70
100
AcDbVertex
100
AcDb2dVertex
 10
23.72166612413194
 20
-21.57314724392361
 30
0.0
  0
VERTEX
  5
92
330
83
100
AcDbEntity
  8
Layer 1
 62
   179
420
  2301728
370
    70
100
AcDbVertex
100
AcDb2dVertex
 10
23.22166612413194
 20
-21.57314724392361
 30
0.0
  0
VERTEX
  5
93
330
83
100
AcDbEntity
  8
Layer 1
 62
   179
420
  2301728
370
    70
100
AcDbVertex
100
AcDb2dVertex
 10
23.22166612413194
 20
-22.29536946614583
 30
0.0
  0
VERTEX
  5
94
330
83
100
AcDbEntity
  8
Layer 1
 62
   179
420
  2301728
370
    70
100
AcDbVertex
100
AcDb2dVertex
 10
22.49944390190972
 20
-22.29536946614583
 30
0.0
  0
VERTEX
  5
95
330
83
100
AcDbEntity
  8
Layer 1
 62
   179
420
  2301728
370
    70
100
AcDbVertex
100
AcDb2dVertex
 10
22.49944390190972
 20
-22.79536946614583
 30
0.0
  0
VERTEX
  5
96
330
83
100
AcDbEntity
  8
Layer 1
 62
   179
420
  2301728
370
    70
100
AcDbVertex
100
AcDb2dVertex
 10
21.2772216796875
 20
-22.79536946614583
 30
0.0
  0
VERTEX
  5
97
330
83
100
AcDbEntity
  8
Layer 1
 62
   179
420
  2301728
370
    70
100
AcDbVertex
100
AcDb2dVertex
 10
21.2772216796875
 20
-22.29536946614583
 30
0.0
  0
VERTEX
  5
98
330
83
100
AcDbEntity
  8
Layer 1
 62
   179
420
  2301728
370
    70
100
AcDbVertex
100
AcDb2dVertex
 10
20.05499945746528
 20
-22.29536946614583
 30
0.0
  0
VERTEX
  5
99
330
83
100
AcDbEntity
  8
Layer 1
 62
   179
420
  2301728
370
    70
100
AcDbVertex
100
AcDb2dVertex
 10
20.05499945746528
 20
-22.79536946614583
 30
0.0
  0
VERTEX
  5
9A
330
83
100
AcDbEntity
  8
Layer 1
 62
   179
420
  2301728
370
    70
100
AcDbVertex
100
AcDb2dVertex
 10
18.83277723524305
 20
-22.79536946614583
 30
0.0
  0
VERTEX
  5
9B
330
83
100
AcDbEntity
  8
Layer 1
 62
   179
420
  2301728
370
    70
100
AcDbVertex
100
AcDb2dVertex
 10
18.83277723524305
 20
-22.29536946614583
 30
0.0
  0
VERTEX
  5
9C
330
83
100
AcDbEntity
  8
Layer 1
 62
   179
420
  2301728
370
    70
100
AcDbVertex
100
AcDb2dVertex
 10
17.61055501302083
 20
-22.29536946614583
 30
0.0
  0
VERTEX
  5
9D
330
83
100
AcDbEntity
  8
Layer 1
 62
   179
420
  2301728
370
    70
100
AcDbVertex
100
AcDb2dVertex
 10
17.61055501302083
 20
-22.79536946614583
 30
0.0
  0
VERTEX
  5
9E
330
83
100
AcDbEntity
  8
Layer 1
 62
   179
420
  2301728
370
    70
100
AcDbVertex
100
AcDb2dVertex
 10
16.38833279079861
 20
-22.79536946614583
 30
0.0
  0
VERTEX
  5
9F
330
83
100
AcDbEntity
  8
Layer 1
 62
   179
420
  2301728
370
    70
100
AcDbVertex
100
AcDb2dVertex
 10
16.38833279079861
 20
-22.29536946614583
 30
0.0
  0
VERTEX
  5
A0
330
83
100
AcDbEntity
  8
Layer 1
 62
   179
420
  2301728
370
    70
100
AcDbVertex
100
AcDb2dVertex
 10
15.16611056857639
 20
-22.29536946614583
 30
0.0
  0
VERTEX
  5
A1
330
83
100
AcDbEntity
  8
Layer 1
 62
   179
420
  2301728
370
    70
100
AcDbVertex
100
AcDb2dVertex
 10
15.16611056857639
 20
-22.79536946614583
 30
0.0
  0
VERTEX
  5
A2
330
83
100
AcDbEntity
  8
Layer 1
 62
   179
420
  2301728
370
    70
100
AcDbVertex
100
AcDb2dVertex
 10
13.94388834635417
 20
-22.79536946614583
 30
0.0
  0
VERTEX
  5
A3
330
83
100
AcDbEntity
  8
Layer 1
 62
   179
420
  2301728
370
    70
100
AcDbVertex
100
AcDb2dVertex
 10
13.94388834635417
 20
-22.29536946614583
 30
0.0
  0
VERTEX
  5
A4
330
83
100
AcDbEntity
  8
Layer 1
 62
   179
420
  2301728
370
    70
100
AcDbVertex
100
AcDb2dVertex
 10
13.22166612413194
 20
-22.29536946614583
 30
0.0
  0
VERTEX
  5
A5
330
83
100
AcDbEntity
  8
Layer 1
 62
   179
420
  2301728
370
    70
100
AcDbVertex
100
AcDb2dVertex
 10
13.22166612413194
 20
-21.57314724392361
 30
0.0
  0
VERTEX
  5
A6
330
83
100
AcDbEntity
  8
Layer 1
 62
   179
420
  2301728
370
    70
100
AcDbVertex
100
AcDb2dVertex
 10
12.72166612413194
 20
-21.57314724392361
 30
0.0
  0
VERTEX
  5
A7
330
83
100
AcDbEntity
  8
Layer 1
 62
   179
420
  2301728
370
    70
100
AcDbVertex
100
AcDb2dVertex
 10
12.72166612413194
 20
-20.3509521484375
 30
0.0
  0
VERTEX
  5
A8
330
83
100
AcDbEntity
  8
Layer 1
 62
   179
420
  2301728
370
    70
100
AcDbVertex
100
AcDb2dVertex
 10
13.22166612413194
 20
-20.3509521484375
 30
0.0
  0
VERTEX
  5
A9
330
83
100
AcDbEntity
  8
Layer 1
 62
   179
420
  2301728
370
    70
100
AcDbVertex
100
AcDb2dVertex
 10
13.22166612413194
 20
-19.12872992621528
 30
0.0
  0
VERTEX
  5
AA
330
83
100
AcDbEntity
  8
Layer 1
 62
   179
420
  2301728
370
    70
100
AcDbVertex
100
AcDb2dVertex
 10
12.72166612413194
 20
-19.12872992621528
 30
0.0
  0
VERTEX
  5
AB
330
83
100
AcDbEntity
  8
Layer 1
 62
   179
420
  2301728
370
    70
100
AcDbVertex
100
AcDb2dVertex
 10
12.72166612413194
 20
-17.90650770399305
 30
0.0
  0
VERTEX
  5
AC
330
83
100
AcDbEntity
  8
Layer 1
 62
   179
420
  2301728
370
    70
100
AcDbVertex
100
AcDb2dVertex
 10
13.22166612413194
 20
-17.90650770399305
 30
0.0
  0
VERTEX
  5
AD
330
83
100
AcDbEntity
  8
Layer 1
 62
   179
420
  2301728
370
    70
100
AcDbVertex
100
AcDb2dVertex
 10
13.22166612413194
 20
-16.68428548177083
 30
0.0
  0
VERTEX
  5
AE
330
83
100
AcDbEntity
  8
Layer 1
 62
   179
420
  2301728
370
    70
100
AcDbVertex
100
AcDb2dVertex
 10
12.72166612413194
 20
-16.68428548177083
 30
0.0
  0
VERTEX
  5
AF
330
83
100
AcDbEntity
  8
Layer 1
 62
   179
420
  2301728
370
    70
100
AcDbVertex
100
AcDb2dVertex
 10
12.72166612413194
 20
-15.46206325954861
 30
0.0
  0
VERTEX
  5
B0
330
83
100
AcDbEntity
  8
Layer 1
 62
   179
420
  2301728
370
    70
100
AcDbVertex
100
AcDb2dVertex
 10
13.22166612413194
 20
-15.46206325954861
 30
0.0
  0
VERTEX
  5
B1
330
83
100
AcDbEntity
  8
Layer 1
 62
   179
420
  2301728
370
    70
100
AcDbVertex
100
AcDb2dVertex
 10
13.22166612413194
 20
-14.23984103732639
 30
0.0
  0
VERTEX
  5
B2
330
83
100
AcDbEntity
  8
Layer 1
 62
   179
420
  2301728
370
    70
100
AcDbVertex
100
AcDb2dVertex
 10
12.72166612413194
 20
-14.23984103732639
 30
0.0
  0
VERTEX
  5
B3
330
83
100
AcDbEntity
  8
Layer 1
 62
   179
420
  2301728
370
    70
100
AcDbVertex
100
AcDb2dVertex
 10
12.72166612413194
 20
-13.01761881510417
 30
0.0
  0
VERTEX
  5
B4
330
83
100
AcDbEntity
  8
Layer 1
 62
   179
420
  2301728
370
    70
100
AcDbVertex
100
AcDb2dVertex
 10
13.22166612413194
 20
-13.01761881510417
 30
0.0
  0
VERTEX
  5
B5
330
83
100
AcDbEntity
  8
Layer 1
 62
   179
420
  2301728
370
    70
100
AcDbVertex
100
AcDb2dVertex
 10
13.22166612413194
 20
-12.29539659288194
 30
0.0
  0
VERTEX
  5
B6
330
83
100
AcDbEntity
  8
Layer 1
 62
   179
420
  2301728
370
    70
100
AcDbVertex
100
AcDb2dVertex
 10
13.94388834635417
 20
-12.29539659288194
 30
0.0
  0
VERTEX
  5
B7
330
83
100
AcDbEntity
  8
Layer 1
 62
   179
420
  2301728
370
    70
100
AcDbVertex
100
AcDb2dVertex
 10
13.94388834635417
 20
-11.79539659288194
 30
0.0
  0
VERTEX
  5
B8
330
83
100
AcDbEntity
  8
Layer 1
 62
   179
420
  2301728
370
    70
100
AcDbVertex
100
AcDb2dVertex
 10
15.16611056857639
 20
-11.79539659288194
 30
0.0
  0
VERTEX
  5
B9
330
83
100
AcDbEntity
  8
Layer 1
 62
   179
420
  2301728
370
    70
100
AcDbVertex
100
AcDb2dVertex
 10
15.16611056857639
 20
-12.29539659288194
 30
0.0
  0
VERTEX
  5
BA
330
83
100
AcDbEntity
  8
Layer 1
 62
   179
420
  2301728
370
    70
100
AcDbVertex
100
AcDb2dVertex
 10
16.38833279079861
 20
-12.29539659288194
 30
0.0
  0
VERTEX
  5
BB
330
83
100
AcDbEntity
  8
Layer 1
 62
   179
420
  2301728
370
    70
100
AcDbVertex
100
AcDb2dVertex
 10
16.38833279079861
 20
-11.79539659288194
 30
0.0
  0
VERTEX
  5
BC
330
83
100
AcDbEntity
  8
Layer 1
 62
   179
420
  2301728
370
    70
100
AcDbVertex
100
AcDb2dVertex
 10
17.61055501302083
 20
-11.79539659288194
 30
0.0
  0
VERTEX
  5
BD
330
83
100
AcDbEntity
  8
Layer 1
 62
   179
420
  2301728
370
    70
100
AcDbVertex
100
AcDb2dVertex
 10
17.61055501302083
 20
-12.29539659288194
 30
0.0
  0
VERTEX
  5
BE
330
83
100
AcDbEntity
  8
Layer 1
 62
   179
420
  2301728
370
    70
100
AcDbVertex
100
AcDb2dVertex
 10
18.83277723524305
 20
-12.29539659288194
 30
0.0
  0
VERTEX
  5
BF
330
83
100
AcDbEntity
  8
Layer 1
 62
   179
420
  2301728
370
    70
100
AcDbVertex
100
AcDb2dVertex
 10
18.83277723524305
 20
-11.79539659288194
 30
0.0
  0
VERTEX
  5
C0
330
83
100
AcDbEntity
  8
Layer 1
 62
   179
420
  2301728
370
    70
100
AcDbVertex
100
AcDb2dVertex
 10
20.05499945746528
 20
-11.79539659288194
 30
0.0
  0
VERTEX
  5
C1
330
83
100
AcDbEntity
  8
Layer 1
 62
   179
420
  2301728
370
    70
100
AcDbVertex
100
AcDb2dVertex
 10
20.05499945746528
 20
-12.29539659288194
 30
0.0
  0
VERTEX
  5
C2
330
83
100
AcDbEntity
  8
Layer 1
 62
   179
420
  2301728
370
    70
100
AcDbVertex
100
AcDb2dVertex
 10
21.2772216796875
 20
-12.29539659288194
 30
0.0
  0
VERTEX
  5
C3
330
83
100
AcDbEntity
  8
Layer 1
 62
   179
420
  2301728
370
    70
100
AcDbVertex
100
AcDb2dVertex
 10
21.2772216796875
 20
-11.79539659288194
 30
0.0
  0
VERTEX
  5
C4
330
83
100
AcDbEntity
  8
Layer 1
 62
   179
420
  2301728
370
    70
100
AcDbVertex
100
AcDb2dVertex
 10
22.49944390190972
 20
-11.79539659288194
 30
0.0
  0
VERTEX
  5
C5
330
83
100
AcDbEntity
  8
Layer 1
 62
   179
420
  2301728
370
    70
100
AcDbVertex
100
AcDb2dVertex
 10
22.49944390190972
 20
-12.29539659288194
 30
0.0
  0
VERTEX
  5
C6
330
83
100
AcDbEntity
  8
Layer 1
 62
   179
420
  2301728
370
    70
100
AcDbVertex
100
AcDb2dVertex
 10
23.22166612413194
 20
-12.29539659288194
 30
0.0
  0
VERTEX
  5
C7
330
83
100
AcDbEntity
  8
Layer 1
 62
   179
420
  2301728
370
    70
100
AcDbVertex
100
AcDb2dVertex
 10
23.22166612413194
 20
-13.01761881510417
 30
0.0
  0
VERTEX
  5
C8
330
83
100
AcDbEntity
  8
Layer 1
 62
   179
420
  2301728
370
    70
100
AcDbVertex
100
AcDb2dVertex
 10
23.72166612413194
 20
-13.01761881510417
 30
0.0
  0
SEQEND
  5
C9
330
83
100
AcDbEntity
  8
Layer 1
370
    70
  0
POLYLINE
  5
CA
330
1F
100
AcDbEntity
  8
Layer 1
 62
   179
420
  2301728
370
    70
100
AcDb2dPolyline
 66
     1
 10
0.0
 20
0.0
 30
0.0
  0
VERTEX
  5
CB
330
CA
100
AcDbEntity
  8
Layer 1
 62
   179
420
  2301728
370
    70
100
AcDbVertex
100
AcDb2dVertex
 10
12.34785970052083
 20
-1.623847113715278
 30
0.0
  0
VERTEX
  5
CC
330
CA
100
AcDbEntity
  8
Layer 1
 62
   179
420
  2301728
370
    70
100
AcDbVertex
100
AcDb2dVertex
 10
12.34785970052083
 20
-2.8460693359375
 30
0.0
  0
VERTEX
  5
CD
330
CA
100
AcDbEntity
  8
Layer 1
 62
   179
420
  2301728
370
    70
100
AcDbVertex
100
AcDb2dVertex
 10
11.84785970052083
 20
-2.8460693359375
 30
0.0
  0
VERTEX
  5
CE
330
CA
100
AcDbEntity
  8
Layer 1
 62
   179
420
  2301728
370
    70
100
AcDbVertex
100
AcDb2dVertex
 10
11.84785970052083
 20
-4.068291558159722
 30
0.0
  0
VERTEX
  5
CF
330
CA
100
AcDbEntity
  8
Layer 1
 62
   179
420
  2301728
370
    70
100
AcDbVertex
100
AcDb2dVertex
 10
12.34785970052083
 20
-4.068291558159722
 30
0.0
  0
VERTEX
  5
D0
330
CA
100
AcDbEntity
  8
Layer 1
 62
   179
420
  2301728
370
    70
100
AcDbVertex
100
AcDb2dVertex
 10
12.34785970052083
 20
-5.290513780381944
 30
0.0
  0
VERTEX
  5
D1
330
CA
100
AcDbEntity
  8
Layer 1
 62
   179
420
  2301728
370
    70
100
AcDbVertex
100
AcDb2dVertex
 10
11.84785970052083
 20
-5.290513780381944
 30
0.0
  0
VERTEX
  5
D2
330
CA
100
AcDbEntity
  8
Layer 1
 62
   179
420
  2301728
370
    70
100
AcDbVertex
100
AcDb2dVertex
 10
11.84785970052083
 20
-6.512736002604166
 30
0.0
  0
VERTEX
  5
D3
330
CA
100
AcDbEntity
  8
Layer 1
 62
   179
420
  2301728
370
    70
100
AcDbVertex
100
AcDb2dVertex
 10
12.34785970052083
 20
-6.512736002604166
 30
0.0
  0
VERTEX
  5
D4
330
CA
100
AcDbEntity
  8
Layer 1
 62
   179
420
  2301728
370
    70
100
AcDbVertex
100
AcDb2dVertex
 10
12.34785970052083
 20
-7.734958224826388
 30
0.0
  0
VERTEX
  5
D5
330
CA
100
AcDbEntity
  8
Layer 1
 62
   179
420
  2301728
370
    70
100
AcDbVertex
100
AcDb2dVertex
 10
11.84785970052083
 20
-7.734958224826388
 30
0.0
  0
VERTEX
  5
D6
330
CA
100
AcDbEntity
  8
Layer 1
 62
   179
420
  2301728
370
    70
100
AcDbVertex
100
AcDb2dVertex
 10
11.84785970052083
 20
-8.95718044704861
 30
0.0
  0
VERTEX
  5
D7
330
CA
100
AcDbEntity
  8
Layer 1
 62
   179
420
  2301728
370
    70
100
AcDbVertex
100
AcDb2dVertex
 10
12.34785970052083
 20
-8.95718044704861
 30
0.0
  0
VERTEX
  5
D8
330
CA
100
AcDbEntity
  8
Layer 1
 62
   179
420
  2301728
370
    70
100
AcDbVertex
100
AcDb2dVertex
 10
12.34785970052083
 20
-10.17940266927083
 30
0.0
  0
VERTEX
  5
D9
330
CA
100
AcDbEntity
  8
Layer 1
 62
   179
420
  2301728
370
    70
100
AcDbVertex
100
AcDb2dVertex
 10
11.84785970052083
 20
-10.17940266927083
 30
0.0
  0
VERTEX
  5
DA
330
CA
100
AcDbEntity
  8
Layer 1
 62
   179
420
  2301728
370
    70
100
AcDbVertex
100
AcDb2dVertex
 10
11.84785970052083
 20
-10.90162489149306
 30
0.0
  0
VERTEX
  5
DB
330
CA
100
AcDbEntity
  8
Layer 1
 62
   179
420
  2301728
370
    70
100
AcDbVertex
100
AcDb2dVertex
 10
11.12563747829861
 20
-10.90162489149306
 30
0.0
  0
VERTEX
  5
DC
330
CA
100
AcDbEntity
  8
Layer 1
 62
   179
420
  2301728
370
    70
100
AcDbVertex
100
AcDb2dVertex
 10
11.12563747829861
 20
-11.40162489149306
 30
0.0
  0
VERTEX
  5
DD
330
CA
100
AcDbEntity
  8
Layer 1
 62
   179
420
  2301728
370
    70
100
AcDbVertex
100
AcDb2dVertex
 10
9.903415256076388
 20
-11.40162489149306
 30
0.0
  0
VERTEX
  5
DE
330
CA
100
AcDbEntity
  8
Layer 1
 62
   179
420
  2301728
370
    70
100
AcDbVertex
100
AcDb2dVertex
 10
9.903415256076388
 20
-10.90162489149306
 30
0.0
  0
VERTEX
  5
DF
330
CA
100
AcDbEntity
  8
Layer 1
 62
   179
420
  2301728
370
    70
100
AcDbVertex
100
AcDb2dVertex
 10
8.681193033854166
 20
-10.90162489149306
 30
0.0
  0
VERTEX
  5
E0
330
CA
100
AcDbEntity
  8
Layer 1
 62
   179
420
  2301728
370
    70
100
AcDbVertex
100
AcDb2dVertex
 10
8.681193033854166
 20
-11.40162489149306
 30
0.0
  0
VERTEX
  5
E1
330
CA
100
AcDbEntity
  8
Layer 1
 62
   179
420
  2301728
370
    70
100
AcDbVertex
100
AcDb2dVertex
 10
7.458970811631944
 20
-11.40162489149306
 30
0.0
  0
VERTEX
  5
E2
330
CA
100
AcDbEntity
  8
Layer 1
 62
   179
420
  2301728
370
    70
100
AcDbVertex
100
AcDb2dVertex
 10
7.458970811631944
 20
-10.90162489149306
 30
0.0
  0
VERTEX
  5
E3
330
CA
100
AcDbEntity
  8
Layer 1
 62
   179
420
  2301728
370
    70
100
AcDbVertex
100
AcDb2dVertex
 10
6.236748589409721
 20
-10.90162489149306
 30
0.0
  0
VERTEX
  5
E4
330
CA
100
AcDbEntity
  8
Layer 1
 62
   179
420
  2301728
370
    70
100
AcDbVertex
100
AcDb2dVertex
 10
6.236748589409721
 20
-11.40162489149306
 30
0.0
  0
VERTEX
  5
E5
330
CA
100
AcDbEntity
  8
Layer 1
 62
   179
420
  2301728
370
    70
100
AcDbVertex
100
AcDb2dVertex
 10
5.0145263671875
 20
-11.40162489149306
 30
0.0
  0
VERTEX
  5
E6
330
CA
100
AcDbEntity
  8
Layer 1
 62
   179
420
  2301728
370
    70
100
AcDbVertex
100
AcDb2dVertex
 10
5.0145263671875
 20
-10.90162489149306
 30
0.0
  0
VERTEX
  5
E7
330
CA
100
AcDbEntity
  8
Layer 1
 62
   179
420
  2301728
370
    70
100
AcDbVertex
100
AcDb2dVertex
 10
3.792304144965278
 20
-10.90162489149306
 30
0.0
  0
VERTEX
  5
E8
330
CA
100
AcDbEntity
  8
Layer 1
 62
   179
420
  2301728
370
    70
100
AcDbVertex
100
AcDb2dVertex
 10
3.792304144965278
 20
-11.40162489149306
 30
0.0
  0
VERTEX
  5
E9
330
CA
100
AcDbEntity
  8
Layer 1
 62
   179
420
  2301728
370
    70
100
AcDbVertex
100
AcDb2dVertex
 10
2.570081922743055
 20
-11.40162489149306
 30
0.0
  0
VERTEX
  5
EA
330
CA
100
AcDbEntity
  8
Layer 1
 62
   179
420
  2301728
370
    70
100
AcDbVertex
100
AcDb2dVertex
 10
2.570081922743055
 20
-10.90162489149306
 30
0.0
  0
VERTEX
  5
EB
330
CA
100
AcDbEntity
  8
Layer 1
 62
   179
420
  2301728
370
    70
100
AcDbVertex
100
AcDb2dVertex
 10
1.847859700520833
 20
-10.90162489149306
 30
0.0
  0
VERTEX
  5
EC
330
CA
100
AcDbEntity
  8
Layer 1
 62
   179
420
  2301728
370
    70
100
AcDbVertex
100
AcDb2dVertex
 10
1.847859700520833
 20
-10.17940266927083
 30
0.0
  0
VERTEX
  5
ED
330
CA
100
AcDbEntity
  8
Layer 1
 62
   179
420
  2301728
370
    70
100
AcDbVertex
100
AcDb2dVertex
 10
1.347859700520833
 20
-10.17940266927083
 30
0.0
  0
VERTEX
  5
EE
330
CA
100
AcDbEntity
  8
Layer 1
 62
   179
420
  2301728
370
    70
100
AcDbVertex
100
AcDb2dVertex
 10
1.347859700520833
 20
-8.95718044704861
 30
0.0
  0
VERTEX
  5
EF
330
CA
100
AcDbEntity
  8
Layer 1
 62
   179
420
  2301728
370
    70
100
AcDbVertex
100
AcDb2dVertex
 10
1.847859700520833
 20
-8.95718044704861
 30
0.0
  0
VERTEX
  5
F0
330
CA
100
AcDbEntity
  8
Layer 1
 62
   179
420
  2301728
370
    70
100
AcDbVertex
100
AcDb2dVertex
 10
1.847859700520833
 20
-7.734958224826388
 30
0.0
  0
VERTEX
  5
F1
330
CA
100
AcDbEntity
  8
Layer 1
 62
   179
420
  2301728
370
    70
100
AcDbVertex
100
AcDb2dVertex
 10
1.347859700520833
 20
-7.734958224826388
 30
0.0
  0
VERTEX
  5
F2
330
CA
100
AcDbEntity
  8
Layer 1
 62
   179
420
  2301728
370
    70
100
AcDbVertex
100
AcDb2dVertex
 10
1.347859700520833
 20
-6.512736002604166
 30
0.0
  0
VERTEX
  5
F3
330
CA
100
AcDbEntity
  8
Layer 1
 62
   179
420
  2301728
370
    70
100
AcDbVertex
100
AcDb2dVertex
 10
1.847859700520833
 20
-6.512736002604166
 30
0.0
  0
VERTEX
  5
F4
330
CA
100
AcDbEntity
  8
Layer 1
 62
   179
420
  2301728
370
    70
100
AcDbVertex
100
AcDb2dVertex
 10
1.847859700520833
 20
-5.290513780381944
 30
0.0
  0
VERTEX
  5
F5
330
CA
100
AcDbEntity
  8
Layer 1
 62
   179
420
  2301728
370
    70
100
AcDbVertex
100
AcDb2dVertex
 10
1.347859700520833
 20
-5.290513780381944
 30
0.0
  0
VERTEX
  5
F6
330
CA
100
AcDbEntity
  8
Layer 1
 62
   179
420
  2301728
370
    70
100
AcDbVertex
100
AcDb2dVertex
 10
1.347859700520833
 20
-4.068291558159722
 30
0.0
  0
VERTEX
  5
F7
330
CA
100
AcDbEntity
  8
Layer 1
 62
   179
420
  2301728
370
    70
100
AcDbVertex
100
AcDb2dVertex
 10
1.847859700520833
 20
-4.068291558159722
 30
0.0
  0
VERTEX
  5
F8
330
CA
100
AcDbEntity
  8
Layer 1
 62
   179
420
  2301728
370
    70
100
AcDbVertex
100
AcDb2dVertex
 10
1.847859700520833
 20
-2.8460693359375
 30
0.0
  0
VERTEX
  5
F9
330
CA
100
AcDbEntity
  8
Layer 1
 62
   179
420
  2301728
370
    70
100
AcDbVertex
100
AcDb2dVertex
 10
1.347859700520833
 20
-2.8460693359375
 30
0.0
  0
VERTEX
  5
FA
330
CA
100
AcDbEntity
  8
Layer 1
 62
   179
420
  2301728
370
    70
100
AcDbVertex
100
AcDb2dVertex
 10
1.347859700520833
 20
-1.623847113715278
 30
0.0
  0
VERTEX
  5
FB
330
CA
100
AcDbEntity
  8
Layer 1
 62
   179
420
  2301728
370
    70
100
AcDbVertex
100
AcDb2dVertex
 10
1.847859700520833
 20
-1.623847113715278
 30
0.0
  0
VERTEX
  5
FC
330
CA
100
AcDbEntity
  8
Layer 1
 62
   179
420
  2301728
370
    70
100
AcDbVertex
100
AcDb2dVertex
 10
1.847859700520833
 20
-0.9016248914930555
 30
0.0
  0
VERTEX
  5
FD
330
CA
100
AcDbEntity
  8
Layer 1
 62
   179
420
  2301728
370
    70
100
AcDbVertex
100
AcDb2dVertex
 10
2.570081922743055
 20
-0.9016248914930555
 30
0.0
  0
VERTEX
  5
FE
330
CA
100
AcDbEntity
  8
Layer 1
 62
   179
420
  2301728
370
    70
100
AcDbVertex
100
AcDb2dVertex
 10
2.570081922743055
 20
-0.4016248914930555
 30
0.0
  0
VERTEX
  5
FF
330
CA
100
AcDbEntity
  8
Layer 1
 62
   179
420
  2301728
370
    70
100
AcDbVertex
100
AcDb2dVertex
 10
3.792304144965278
 20
-0.4016248914930555
 30
0.0
  0
VERTEX
  5
100
330
CA
100
AcDbEntity
  8
Layer 1
 62
   179
420
  2301728
370
    70
100
AcDbVertex
100
AcDb2dVertex
 10
3.792304144965278
 20
-0.9016248914930555
 30
0.0
  0
VERTEX
  5
101
330
CA
100
AcDbEntity
  8
Layer 1
 62
   179
420
  2301728
370
    70
100
AcDbVertex
100
AcDb2dVertex
 10
5.0145263671875
 20
-0.9016248914930555
 30
0.0
  0
VERTEX
  5
102
330
CA
100
AcDbEntity
  8
Layer 1
 62
   179
420
  2301728
370
    70
100
AcDbVertex
100
AcDb2dVertex
 10
5.0145263671875
 20
-0.4016248914930555
 30
0.0
  0
VERTEX
  5
103
330
CA
100
AcDbEntity
  8
Layer 1
 62
   179
420
  2301728
370
    70
100
AcDbVertex
100
AcDb2dVertex
 10
6.236748589409721
 20
-0.4016248914930555
 30
0.0
  0
VERTEX
  5
104
330
CA
100
AcDbEntity
  8
Layer 1
 62
   179
420
  2301728
370
    70
100
AcDbVertex
100
AcDb2dVertex
 10
6.236748589409721
 20
-0.9016248914930555
 30
0.0
  0
VERTEX
  5
105
330
CA
100
AcDbEntity
  8
Layer 1
 62
   179
420
  2301728
370
    70
100
AcDbVertex
100
AcDb2dVertex
 10
7.458970811631944
 20
-0.9016248914930555
 30
0.0
  0
VERTEX
  5
106
330
CA
100
AcDbEntity
  8
Layer 1
 62
   179
420
  2301728
370
    70
100
AcDbVertex
100
AcDb2dVertex
 10
7.458970811631944
 20
-0.4016248914930555
 30
0.0
  0
VERTEX
  5
107
330
CA
100
AcDbEntity
  8
Layer 1
 62
   179
420
  2301728
370
    70
100
AcDbVertex
100
AcDb2dVertex
 10
8.681193033854166
 20
-0.4016248914930555
 30
0.0
  0
VERTEX
  5
108
330
CA
100
AcDbEntity
  8
Layer 1
 62
   179
420
  2301728
370
    70
100
AcDbVertex
100
AcDb2dVertex
 10
8.681193033854166
 20
-0.9016248914930555
 30
0.0
  0
VERTEX
  5
109
330
CA
100
AcDbEntity
  8
Layer 1
 62
   179
420
  2301728
370
    70
100
AcDbVertex
100
AcDb2dVertex
 10
9.903415256076388
 20
-0.9016248914930555
 30
0.0
  0
VERTEX
  5
10A
330
CA
100
AcDbEntity
  8
Layer 1
 62
   179
420
  2301728
370
    70
100
AcDbVertex
100
AcDb2dVertex
 10
9.903415256076388
 20
-0.4016248914930555
 30
0.0
  0
VERTEX
  5
10B
330
CA
100
AcDbEntity
  8
Layer 1
 62
   179
420
  2301728
370
    70
100
AcDbVertex
100
AcDb2dVertex
 10
11.12563747829861
 20
-0.4016248914930555
 30
0.0
  0
VERTEX
  5
10C
330
CA
100
AcDbEntity
  8
Layer 1
 62
   179
420
  2301728
370
    70
100
AcDbVertex
100
AcDb2dVertex
 10
11.12563747829861
 20
-0.9016248914930555
 30
0.0
  0
VERTEX
  5
10D
330
CA
100
AcDbEntity
  8
Layer 1
 62
   179
420
  2301728
370
    70
100
AcDbVertex
100
AcDb2dVertex
 10
11.84785970052083
 20
-0.9016248914930555
 30
0.0
  0
VERTEX
  5
10E
330
CA
100
AcDbEntity
  8
Layer 1
 62
   179
420
  2301728
370
    70
100
AcDbVertex
100
AcDb2dVertex
 10
11.84785970052083
 20
-1.623847113715278
 30
0.0
  0
VERTEX
  5
10F
330
CA
100
AcDbEntity
  8
Layer 1
 62
   179
420
  2301728
370
    70
100
AcDbVertex
100
AcDb2dVertex
 10
12.34785970052083
 20
-1.623847113715278
 30
0.0
  0
SEQEND
  5
110
330
CA
100
AcDbEntity
  8
Layer 1
370
    70
  0
POLYLINE
  5
111
330
1F
100
AcDbEntity
  8
Layer 1
 62
   179
420
  2301728
370
    70
100
AcDb2dPolyline
 66
     1
 10
0.0
 20
0.0
 30
0.0
  0
VERTEX
  5
112
330
111
100
AcDbEntity
  8
Layer 1
 62
   179
420
  2301728
370
    70
100
AcDbVertex
100
AcDb2dVertex
 10
36.79694281684028
 20
-4.545383029513888
 30
0.0
  0
VERTEX
  5
113
330
111
100
AcDbEntity
  8
Layer 1
 62
   179
420
  2301728
370
    70
100
AcDbVertex
100
AcDb2dVertex
 10
41.79694281684028
 20
-4.545383029513888
 30
0.0
  0
VERTEX
  5
114
330
111
100
AcDbEntity
  8
Layer 1
 62
   179
420
  2301728
370
    70
100
AcDbVertex
100
AcDb2dVertex
 10
41.79694281684028
 20
-3.545383029513889
 30
0.0
  0
VERTEX
  5
115
330
111
100
AcDbEntity
  8
Layer 1
 62
   179
420
  2301728
370
    70
100
AcDbVertex
100
AcDb2dVertex
 10
36.79694281684028
 20
-3.545383029513889
 30
0.0
  0
VERTEX
  5
116
330
111
100
AcDbEntity
  8
Layer 1
 62
   179
420
  2301728
370
    70
100
AcDbVertex
100
AcDb2dVertex
 10
36.79694281684028
 20
-4.545383029513888
 30
0.0
  0
SEQEND
  5
117
330
111
100
AcDbEntity
  8
Layer 1
370
    70
  0
POLYLINE
  5
118
330
1F
100
AcDbEntity
  8
Layer 1
 62
   179
420
  2301728
370
    70
100
AcDb2dPolyline
 66
     1
 10
0.0
 20
0.0
 30
0.0
  0
VERTEX
  5
119
330
118
100
AcDbEntity
  8
Layer 1
 62
   179
420
  2301728
370
    70
100
AcDbVertex
100
AcDb2dVertex
 10
36.79694281684028
 20
-5.795383029513888
 30
0.0
  0
VERTEX
  5
11A
330
118
100
AcDbEntity
  8
Layer 1
 62
   179
420
  2301728
370
    70
100
AcDbVertex
100
AcDb2dVertex
 10
41.79694281684028
 20
-5.795383029513888
 30
0.0
  0
VERTEX
  5
11B
330
118
100
AcDbEntity
  8
Layer 1
 62
   179
420
  2301728
370
    70
100
AcDbVertex
100
AcDb2dVertex
 10
41.79694281684028
 20
-4.795383029513888
 30
0.0
  0
VERTEX
  5
11C
330
118
100
AcDbEntity
  8
Layer 1
 62
   179
420
  2301728
370
    70
100
AcDbVertex
100
AcDb2dVertex
 10
36.79694281684028
 20
-4.795383029513888
 30
0.0
  0
VERTEX
  5
11D
330
118
100
AcDbEntity
  8
Layer 1
 62
   179
420
  2301728
370
    70
100
AcDbVertex
100
AcDb2dVertex
 10
36.79694281684028
 20
-5.795383029513888
 30
0.0
  0
SEQEND
  5
11E
330
118
100
AcDbEntity
  8
Layer 1
370
    70
  0
SPLINE
  5
11F
330
1F
100
AcDbEntity
  8
Layer 1
 62
   179
420
  2301728
370
    70
100
AcDbSpline
210
0.0
220
0.0
230
1.0
 70
    11
 71
     3
 72
    32
 73
    28
 74
     0
 42
0.0000000001
 43
0.0000000001
 40
0.0
 40
0.0
 40
0.0
 40
0.0
 40
1.0
 40
1.0
 40
1.0
 40
2.0
 40
2.0
 40
2.0
 40
3.0
 40
3.0
 40
3.0
 40
4.0
 40
4.0
 40
4.0
 40
5.0
 40
5.0
 40
5.0
 40
6.0
 40
6.0
 40
6.0
 40
7.0
 40
7.0
 40
7.0
 40
8.0
 40
8.0
 40
8.0
 40
9.0
 40
9.0
 40
9.0
 40
9.0
 10
43.04694281684028
 20
-4.795383029513888
 30
0.0
 10
43.21360948350694
 20
-4.795383029513888
 30
0.0
 10
43.38027615017361
 20
-4.795383029513888
 30
0.0
 10
43.54694281684028
 20
-4.795383029513888
 30
0.0
 10
43.54694281684028
 20
-5.128716362847222
 30
0.0
 10
43.54694281684028
 20
-5.462049696180555
 30
0.0
 10
43.54694281684028
 20
-5.795383029513888
 30
0.0
 10
43.04694281684028
 20
-5.795383029513888
 30
0.0
 10
42.54694281684028
 20
-5.795383029513888
 30
0.0
 10
42.04694281684028
 20
-5.795383029513888
 30
0.0
 10
42.04694281684028
 20
-5.462049696180555
 30
0.0
 10
42.04694281684028
 20
-5.128716362847222
 30
0.0
 10
42.04694281684028
 20
-4.795383029513888
 30
0.0
 10
42.21360948350694
 20
-4.795383029513888
 30
0.0
 10
42.38027615017361
 20
-4.795383029513888
 30
0.0
 10
42.54694281684028
 20
-4.795383029513888
 30
0.0
 10
42.54694281684028
 20
-4.962049696180555
 30
0.0
 10
42.54694281684028
 20
-5.128716362847222
 30
0.0
 10
42.54694281684028
 20
-5.295383029513888
 30
0.0
 10
42.54694281684028
 20
-5.433458116319444
 30
0.0
 10
42.65888129340278
 20
-5.545383029513888
 30
0.0
 10
42.79694281684028
 20
-5.545383029513888
 30
0.0
 10
42.93501790364583
 20
-5.545383029513888
 30
0.0
 10
43.04694281684028
 20
-5.433458116319444
 30
0.0
 10
43.04694281684028
 20
-5.295383029513888
 30
0.0
 10
43.04694281684028
 20
-5.128716362847222
 30
0.0
 10
43.04694281684028
 20
-4.962049696180555
 30
0.0
 10
43.04694281684028
 20
-4.795383029513888
 30
0.0
  0
POLYLINE
  5
120
330
1F
100
AcDbEntity
  8
Layer 1
 62
   179
420
  2301728
370
    70
100
AcDb2dPolyline
 66
     1
 10
0.0
 20
0.0
 30
0.0
  0
VERTEX
  5
121
330
120
100
AcDbEntity
  8
Layer 1
 62
   179
420
  2301728
370
    70
100
AcDbVertex
100
AcDb2dVertex
 10
36.79694281684028
 20
-3.295383029513889
 30
0.0
  0
VERTEX
  5
122
330
120
100
AcDbEntity
  8
Layer 1
 62
   179
420
  2301728
370
    70
100
AcDbVertex
100
AcDb2dVertex
 10
39.79694281684028
 20
-3.295383029513889
 30
0.0
  0
VERTEX
  5
123
330
120
100
AcDbEntity
  8
Layer 1
 62
   179
420
  2301728
370
    70
100
AcDbVertex
100
AcDb2dVertex
 10
39.79694281684028
 20
-2.295383029513889
 30
0.0
  0
VERTEX
  5
124
330
120
100
AcDbEntity
  8
Layer 1
 62
   179
420
  2301728
370
    70
100
AcDbVertex
100
AcDb2dVertex
 10
36.79694281684028
 20
-2.295383029513889
 30
0.0
  0
VERTEX
  5
125
330
120
100
AcDbEntity
  8
Layer 1
 62
   179
420
  2301728
370
    70
100
AcDbVertex
100
AcDb2dVertex
 10
36.79694281684028
 20
-3.295383029513889
 30
0.0
  0
SEQEND
  5
126
330
120
100
AcDbEntity
  8
Layer 1
370
    70
  0
SPLINE
  5
127
330
1F
100
AcDbEntity
  8
Layer 1
 62
   179
420
  2301728
370
    70
100
AcDbSpline
210
0.0
220
0.0
230
1.0
 70
    11
 71
     3
 72
    32
 73
    28
 74
     0
 42
0.0000000001
 43
0.0000000001
 40
0.0
 40
0.0
 40
0.0
 40
0.0
 40
1.0
 40
1.0
 40
1.0
 40
2.0
 40
2.0
 40
2.0
 40
3.0
 40
3.0
 40
3.0
 40
4.0
 40
4.0
 40
4.0
 40
5.0
 40
5.0
 40
5.0
 40
6.0
 40
6.0
 40
6.0
 40
7.0
 40
7.0
 40
7.0
 40
8.0
 40
8.0
 40
8.0
 40
9.0
 40
9.0
 40
9.0
 40
9.0
 10
43.04694281684028
 20
-3.545383029513889
 30
0.0
 10
43.21360948350694
 20
-3.545383029513889
 30
0.0
 10
43.38027615017361
 20
-3.545383029513889
 30
0.0
 10
43.54694281684028
 20
-3.545383029513889
 30
0.0
 10
43.54694281684028
 20
-3.878716362847222
 30
0.0
 10
43.54694281684028
 20
-4.212049696180555
 30
0.0
 10
43.54694281684028
 20
-4.545383029513888
 30
0.0
 10
43.04694281684028
 20
-4.545383029513888
 30
0.0
 10
42.54694281684028
 20
-4.545383029513888
 30
0.0
 10
42.04694281684028
 20
-4.545383029513888
 30
0.0
 10
42.04694281684028
 20
-4.212049696180555
 30
0.0
 10
42.04694281684028
 20
-3.878716362847222
 30
0.0
 10
42.04694281684028
 20
-3.545383029513889
 30
0.0
 10
42.21360948350694
 20
-3.545383029513889
 30
0.0
 10
42.38027615017361
 20
-3.545383029513889
 30
0.0
 10
42.54694281684028
 20
-3.545383029513889
 30
0.0
 10
42.54694281684028
 20
-3.712049696180555
 30
0.0
 10
42.54694281684028
 20
-3.878716362847222
 30
0.0
 10
42.54694281684028
 20
-4.045383029513888
 30
0.0
 10
42.54694281684028
 20
-4.183458116319445
 30
0.0
 10
42.65888129340278
 20
-4.295383029513888
 30
0.0
 10
42.79694281684028
 20
-4.295383029513888
 30
0.0
 10
42.93501790364583
 20
-4.295383029513888
 30
0.0
 10
43.04694281684028
 20
-4.183458116319445
 30
0.0
 10
43.04694281684028
 20
-4.045383029513888
 30
0.0
 10
43.04694281684028
 20
-3.878716362847222
 30
0.0
 10
43.04694281684028
 20
-3.712049696180555
 30
0.0
 10
43.04694281684028
 20
-3.545383029513889
 30
0.0
  0
POLYLINE
  5
128
330
1F
100
AcDbEntity
  8
Layer 1
 62
   179
420
  2301728
370
    70
100
AcDb2dPolyline
 66
     1
 10
0.0
 20
0.0
 30
0.0
  0
VERTEX
  5
129
330
128
100
AcDbEntity
  8
Layer 1
 62
   179
420
  2301728
370
    70
100
AcDbVertex
100
AcDb2dVertex
 10
12.32807074652778
 20
-13.01759168836806
 30
0.0
  0
VERTEX
  5
12A
330
128
100
AcDbEntity
  8
Layer 1
 62
   179
420
  2301728
370
    70
100
AcDbVertex
100
AcDb2dVertex
 10
12.32807074652778
 20
-14.23981391059028
 30
0.0
  0
VERTEX
  5
12B
330
128
100
AcDbEntity
  8
Layer 1
 62
   179
420
  2301728
370
    70
100
AcDbVertex
100
AcDb2dVertex
 10
11.82807074652778
 20
-14.23981391059028
 30
0.0
  0
VERTEX
  5
12C
330
128
100
AcDbEntity
  8
Layer 1
 62
   179
420
  2301728
370
    70
100
AcDbVertex
100
AcDb2dVertex
 10
11.82807074652778
 20
-15.4620361328125
 30
0.0
  0
VERTEX
  5
12D
330
128
100
AcDbEntity
  8
Layer 1
 62
   179
420
  2301728
370
    70
100
AcDbVertex
100
AcDb2dVertex
 10
12.32807074652778
 20
-15.4620361328125
 30
0.0
  0
VERTEX
  5
12E
330
128
100
AcDbEntity
  8
Layer 1
 62
   179
420
  2301728
370
    70
100
AcDbVertex
100
AcDb2dVertex
 10
12.32807074652778
 20
-16.68425835503472
 30
0.0
  0
VERTEX
  5
12F
330
128
100
AcDbEntity
  8
Layer 1
 62
   179
420
  2301728
370
    70
100
AcDbVertex
100
AcDb2dVertex
 10
11.82807074652778
 20
-16.68425835503472
 30
0.0
  0
VERTEX
  5
130
330
128
100
AcDbEntity
  8
Layer 1
 62
   179
420
  2301728
370
    70
100
AcDbVertex
100
AcDb2dVertex
 10
11.82807074652778
 20
-17.90648057725694
 30
0.0
  0
VERTEX
  5
131
330
128
100
AcDbEntity
  8
Layer 1
 62
   179
420
  2301728
370
    70
100
AcDbVertex
100
AcDb2dVertex
 10
12.32807074652778
 20
-17.90648057725694
 30
0.0
  0
VERTEX
  5
132
330
128
100
AcDbEntity
  8
Layer 1
 62
   179
420
  2301728
370
    70
100
AcDbVertex
100
AcDb2dVertex
 10
12.32807074652778
 20
-19.12870279947916
 30
0.0
  0
VERTEX
  5
133
330
128
100
AcDbEntity
  8
Layer 1
 62
   179
420
  2301728
370
    70
100
AcDbVertex
100
AcDb2dVertex
 10
11.82807074652778
 20
-19.12870279947916
 30
0.0
  0
VERTEX
  5
134
330
128
100
AcDbEntity
  8
Layer 1
 62
   179
420
  2301728
370
    70
100
AcDbVertex
100
AcDb2dVertex
 10
11.82807074652778
 20
-20.35092502170139
 30
0.0
  0
VERTEX
  5
135
330
128
100
AcDbEntity
  8
Layer 1
 62
   179
420
  2301728
370
    70
100
AcDbVertex
100
AcDb2dVertex
 10
12.32807074652778
 20
-20.35092502170139
 30
0.0
  0
VERTEX
  5
136
330
128
100
AcDbEntity
  8
Layer 1
 62
   179
420
  2301728
370
    70
100
AcDbVertex
100
AcDb2dVertex
 10
12.32807074652778
 20
-21.57314724392361
 30
0.0
  0
VERTEX
  5
137
330
128
100
AcDbEntity
  8
Layer 1
 62
   179
420
  2301728
370
    70
100
AcDbVertex
100
AcDb2dVertex
 10
11.82807074652778
 20
-21.57314724392361
 30
0.0
  0
VERTEX
  5
138
330
128
100
AcDbEntity
  8
Layer 1
 62
   179
420
  2301728
370
    70
100
AcDbVertex
100
AcDb2dVertex
 10
11.82807074652778
 20
-22.79536946614583
 30
0.0
  0
VERTEX
  5
139
330
128
100
AcDbEntity
  8
Layer 1
 62
   179
420
  2301728
370
    70
100
AcDbVertex
100
AcDb2dVertex
 10
11.10584174262153
 20
-22.79536946614583
 30
0.0
  0
VERTEX
  5
13A
330
128
100
AcDbEntity
  8
Layer 1
 62
   179
420
  2301728
370
    70
100
AcDbVertex
100
AcDb2dVertex
 10
11.10584174262153
 20
-22.29536946614583
 30
0.0
  0
VERTEX
  5
13B
330
128
100
AcDbEntity
  8
Layer 1
 62
   179
420
  2301728
370
    70
100
AcDbVertex
100
AcDb2dVertex
 10
9.883619520399305
 20
-22.29536946614583
 30
0.0
  0
VERTEX
  5
13C
330
128
100
AcDbEntity
  8
Layer 1
 62
   179
420
  2301728
370
    70
100
AcDbVertex
100
AcDb2dVertex
 10
9.883619520399305
 20
-22.79536946614583
 30
0.0
  0
VERTEX
  5
13D
330
128
100
AcDbEntity
  8
Layer 1
 62
   179
420
  2301728
370
    70
100
AcDbVertex
100
AcDb2dVertex
 10
8.661397298177082
 20
-22.79536946614583
 30
0.0
  0
VERTEX
  5
13E
330
128
100
AcDbEntity
  8
Layer 1
 62
   179
420
  2301728
370
    70
100
AcDbVertex
100
AcDb2dVertex
 10
8.661397298177082
 20
-22.29536946614583
 30
0.0
  0
VERTEX
  5
13F
330
128
100
AcDbEntity
  8
Layer 1
 62
   179
420
  2301728
370
    70
100
AcDbVertex
100
AcDb2dVertex
 10
7.439175075954861
 20
-22.29536946614583
 30
0.0
  0
VERTEX
  5
140
330
128
100
AcDbEntity
  8
Layer 1
 62
   179
420
  2301728
370
    70
100
AcDbVertex
100
AcDb2dVertex
 10
7.439175075954861
 20
-22.79536946614583
 30
0.0
  0
VERTEX
  5
141
330
128
100
AcDbEntity
  8
Layer 1
 62
   179
420
  2301728
370
    70
100
AcDbVertex
100
AcDb2dVertex
 10
6.216952853732638
 20
-22.79536946614583
 30
0.0
  0
VERTEX
  5
142
330
128
100
AcDbEntity
  8
Layer 1
 62
   179
420
  2301728
370
    70
100
AcDbVertex
100
AcDb2dVertex
 10
6.216952853732638
 20
-22.29536946614583
 30
0.0
  0
VERTEX
  5
143
330
128
100
AcDbEntity
  8
Layer 1
 62
   179
420
  2301728
370
    70
100
AcDbVertex
100
AcDb2dVertex
 10
4.994730631510416
 20
-22.29536946614583
 30
0.0
  0
VERTEX
  5
144
330
128
100
AcDbEntity
  8
Layer 1
 62
   179
420
  2301728
370
    70
100
AcDbVertex
100
AcDb2dVertex
 10
4.994730631510416
 20
-22.79536946614583
 30
0.0
  0
VERTEX
  5
145
330
128
100
AcDbEntity
  8
Layer 1
 62
   179
420
  2301728
370
    70
100
AcDbVertex
100
AcDb2dVertex
 10
3.772508409288194
 20
-22.79536946614583
 30
0.0
  0
VERTEX
  5
146
330
128
100
AcDbEntity
  8
Layer 1
 62
   179
420
  2301728
370
    70
100
AcDbVertex
100
AcDb2dVertex
 10
3.772508409288194
 20
-22.29536946614583
 30
0.0
  0
VERTEX
  5
147
330
128
100
AcDbEntity
  8
Layer 1
 62
   179
420
  2301728
370
    70
100
AcDbVertex
100
AcDb2dVertex
 10
2.550286187065972
 20
-22.29536946614583
 30
0.0
  0
VERTEX
  5
148
330
128
100
AcDbEntity
  8
Layer 1
 62
   179
420
  2301728
370
    70
100
AcDbVertex
100
AcDb2dVertex
 10
2.550286187065972
 20
-22.79536946614583
 30
0.0
  0
VERTEX
  5
149
330
128
100
AcDbEntity
  8
Layer 1
 62
   179
420
  2301728
370
    70
100
AcDbVertex
100
AcDb2dVertex
 10
1.32806396484375
 20
-22.79536946614583
 30
0.0
  0
VERTEX
  5
14A
330
128
100
AcDbEntity
  8
Layer 1
 62
   179
420
  2301728
370
    70
100
AcDbVertex
100
AcDb2dVertex
 10
1.32806396484375
 20
-21.57314724392361
 30
0.0
  0
VERTEX
  5
14B
330
128
100
AcDbEntity
  8
Layer 1
 62
   179
420
  2301728
370
    70
100
AcDbVertex
100
AcDb2dVertex
 10
1.82806396484375
 20
-21.57314724392361
 30
0.0
  0
VERTEX
  5
14C
330
128
100
AcDbEntity
  8
Layer 1
 62
   179
420
  2301728
370
    70
100
AcDbVertex
100
AcDb2dVertex
 10
1.82806396484375
 20
-20.35092502170139
 30
0.0
  0
VERTEX
  5
14D
330
128
100
AcDbEntity
  8
Layer 1
 62
   179
420
  2301728
370
    70
100
AcDbVertex
100
AcDb2dVertex
 10
1.32806396484375
 20
-20.35092502170139
 30
0.0
  0
VERTEX
  5
14E
330
128
100
AcDbEntity
  8
Layer 1
 62
   179
420
  2301728
370
    70
100
AcDbVertex
100
AcDb2dVertex
 10
1.32806396484375
 20
-19.12870279947916
 30
0.0
  0
VERTEX
  5
14F
330
128
100
AcDbEntity
  8
Layer 1
 62
   179
420
  2301728
370
    70
100
AcDbVertex
100
AcDb2dVertex
 10
1.82806396484375
 20
-19.12870279947916
 30
0.0
  0
VERTEX
  5
150
330
128
100
AcDbEntity
  8
Layer 1
 62
   179
420
  2301728
370
    70
100
AcDbVertex
100
AcDb2dVertex
 10
1.82806396484375
 20
-17.90648057725694
 30
0.0
  0
VERTEX
  5
151
330
128
100
AcDbEntity
  8
Layer 1
 62
   179
420
  2301728
370
    70
100
AcDbVertex
100
AcDb2dVertex
 10
1.32806396484375
 20
-17.90648057725694
 30
0.0
  0
VERTEX
  5
152
330
128
100
AcDbEntity
  8
Layer 1
 62
   179
420
  2301728
370
    70
100
AcDbVertex
100
AcDb2dVertex
 10
1.32806396484375
 20
-16.68425835503472
 30
0.0
  0
VERTEX
  5
153
330
128
100
AcDbEntity
  8
Layer 1
 62
   179
420
  2301728
370
    70
100
AcDbVertex
100
AcDb2dVertex
 10
1.82806396484375
 20
-16.68425835503472
 30
0.0
  0
VERTEX
  5
154
330
128
100
AcDbEntity
  8
Layer 1
 62
   179
420
  2301728
370
    70
100
AcDbVertex
100
AcDb2dVertex
 10
1.82806396484375
 20
-15.4620361328125
 30
0.0
  0
VERTEX
  5
155
330
128
100
AcDbEntity
  8
Layer 1
 62
   179
420
  2301728
370
    70
100
AcDbVertex
100
AcDb2dVertex
 10
1.32806396484375
 20
-15.4620361328125
 30
0.0
  0
VERTEX
  5
156
330
128
100
AcDbEntity
  8
Layer 1
 62
   179
420
  2301728
370
    70
100
AcDbVertex
100
AcDb2dVertex
 10
1.32806396484375
 20
-14.23981391059028
 30
0.0
  0
VERTEX
  5
157
330
128
100
AcDbEntity
  8
Layer 1
 62
   179
420
  2301728
370
    70
100
AcDbVertex
100
AcDb2dVertex
 10
1.82806396484375
 20
-14.23981391059028
 30
0.0
  0
VERTEX
  5
158
330
128
100
AcDbEntity
  8
Layer 1
 62
   179
420
  2301728
370
    70
100
AcDbVertex
100
AcDb2dVertex
 10
1.82806396484375
 20
-13.01759168836806
 30
0.0
  0
VERTEX
  5
159
330
128
100
AcDbEntity
  8
Layer 1
 62
   179
420
  2301728
370
    70
100
AcDbVertex
100
AcDb2dVertex
 10
1.32806396484375
 20
-13.01759168836806
 30
0.0
  0
VERTEX
  5
15A
330
128
100
AcDbEntity
  8
Layer 1
 62
   179
420
  2301728
370
    70
100
AcDbVertex
100
AcDb2dVertex
 10
1.32806396484375
 20
-11.79536946614583
 30
0.0
  0
VERTEX
  5
15B
330
128
100
AcDbEntity
  8
Layer 1
 62
   179
420
  2301728
370
    70
100
AcDbVertex
100
AcDb2dVertex
 10
2.550286187065972
 20
-11.79536946614583
 30
0.0
  0
VERTEX
  5
15C
330
128
100
AcDbEntity
  8
Layer 1
 62
   179
420
  2301728
370
    70
100
AcDbVertex
100
AcDb2dVertex
 10
2.550286187065972
 20
-12.29536946614583
 30
0.0
  0
VERTEX
  5
15D
330
128
100
AcDbEntity
  8
Layer 1
 62
   179
420
  2301728
370
    70
100
AcDbVertex
100
AcDb2dVertex
 10
3.772508409288194
 20
-12.29536946614583
 30
0.0
  0
VERTEX
  5
15E
330
128
100
AcDbEntity
  8
Layer 1
 62
   179
420
  2301728
370
    70
100
AcDbVertex
100
AcDb2dVertex
 10
3.772508409288194
 20
-11.79536946614583
 30
0.0
  0
VERTEX
  5
15F
330
128
100
AcDbEntity
  8
Layer 1
 62
   179
420
  2301728
370
    70
100
AcDbVertex
100
AcDb2dVertex
 10
4.994730631510416
 20
-11.79536946614583
 30
0.0
  0
VERTEX
  5
160
330
128
100
AcDbEntity
  8
Layer 1
 62
   179
420
  2301728
370
    70
100
AcDbVertex
100
AcDb2dVertex
 10
4.994730631510416
 20
-12.29536946614583
 30
0.0
  0
VERTEX
  5
161
330
128
100
AcDbEntity
  8
Layer 1
 62
   179
420
  2301728
370
    70
100
AcDbVertex
100
AcDb2dVertex
 10
6.216952853732638
 20
-12.29536946614583
 30
0.0
  0
VERTEX
  5
162
330
128
100
AcDbEntity
  8
Layer 1
 62
   179
420
  2301728
370
    70
100
AcDbVertex
100
AcDb2dVertex
 10
6.216952853732638
 20
-11.79536946614583
 30
0.0
  0
VERTEX
  5
163
330
128
100
AcDbEntity
  8
Layer 1
 62
   179
420
  2301728
370
    70
100
AcDbVertex
100
AcDb2dVertex
 10
7.439175075954861
 20
-11.79536946614583
 30
0.0
  0
VERTEX
  5
164
330
128
100
AcDbEntity
  8
Layer 1
 62
   179
420
  2301728
370
    70
100
AcDbVertex
100
AcDb2dVertex
 10
7.439175075954861
 20
-12.29536946614583
 30
0.0
  0
VERTEX
  5
165
330
128
100
AcDbEntity
  8
Layer 1
 62
   179
420
  2301728
370
    70
100
AcDbVertex
100
AcDb2dVertex
 10
8.661397298177082
 20
-12.29536946614583
 30
0.0
  0
VERTEX
  5
166
330
128
100
AcDbEntity
  8
Layer 1
 62
   179
420
  2301728
370
    70
100
AcDbVertex
100
AcDb2dVertex
 10
8.661397298177082
 20
-11.79536946614583
 30
0.0
  0
VERTEX
  5
167
330
128
100
AcDbEntity
  8
Layer 1
 62
   179
420
  2301728
370
    70
100
AcDbVertex
100
AcDb2dVertex
 10
9.883619520399305
 20
-11.79536946614583
 30
0.0
  0
VERTEX
  5
168
330
128
100
AcDbEntity
  8
Layer 1
 62
   179
420
  2301728
370
    70
100
AcDbVertex
100
AcDb2dVertex
 10
9.883619520399305
 20
-12.29536946614583
 30
0.0
  0
VERTEX
  5
169
330
128
100
AcDbEntity
  8
Layer 1
 62
   179
420
  2301728
370
    70
100
AcDbVertex
100
AcDb2dVertex
 10
11.10584174262153
 20
-12.29536946614583
 30
0.0
  0
VERTEX
  5
16A
330
128
100
AcDbEntity
  8
Layer 1
 62
   179
420
  2301728
370
    70
100
AcDbVertex
100
AcDb2dVertex
 10
11.10584174262153
 20
-11.79536946614583
 30
0.0
  0
VERTEX
  5
16B
330
128
100
AcDbEntity
  8
Layer 1
 62
   179
420
  2301728
370
    70
100
AcDbVertex
100
AcDb2dVertex
 10
11.82807074652778
 20
-11.79536946614583
 30
0.0
  0
VERTEX
  5
16C
330
128
100
AcDbEntity
  8
Layer 1
 62
   179
420
  2301728
370
    70
100
AcDbVertex
100
AcDb2dVertex
 10
11.82807074652778
 20
-13.01759168836806
 30
0.0
  0
VERTEX
  5
16D
330
128
100
AcDbEntity
  8
Layer 1
 62
   179
420
  2301728
370
    70
100
AcDbVertex
100
AcDb2dVertex
 10
12.32807074652778
 20
-13.01759168836806
 30
0.0
  0
SEQEND
  5
16E
330
128
100
AcDbEntity
  8
Layer 1
370
    70
  0
POLYLINE
  5
16F
330
1F
100
AcDbEntity
  8
Layer 1
 62
   179
420
  2301728
370
    70
100
AcDb2dPolyline
 66
     1
 10
0.0
 20
0.0
 30
0.0
  0
VERTEX
  5
170
330
16F
100
AcDbEntity
  8
Layer 1
 62
   179
420
  2301728
370
    70
100
AcDbVertex
100
AcDb2dVertex
 10
4.82806396484375
 20
-19.29536946614583
 30
0.0
  0
VERTEX
  5
171
330
16F
100
AcDbEntity
  8
Layer 1
 62
   179
420
  2301728
370
    70
100
AcDbVertex
100
AcDb2dVertex
 10
8.82806396484375
 20
-19.29536946614583
 30
0.0
  0
VERTEX
  5
172
330
16F
100
AcDbEntity
  8
Layer 1
 62
   179
420
  2301728
370
    70
100
AcDbVertex
100
AcDb2dVertex
 10
8.82806396484375
 20
-15.29536946614583
 30
0.0
  0
VERTEX
  5
173
330
16F
100
AcDbEntity
  8
Layer 1
 62
   179
420
  2301728
370
    70
100
AcDbVertex
100
AcDb2dVertex
 10
4.82806396484375
 20
-15.29536946614583
 30
0.0
  0
VERTEX
  5
174
330
16F
100
AcDbEntity
  8
Layer 1
 62
   179
420
  2301728
370
    70
100
AcDbVertex
100
AcDb2dVertex
 10
4.82806396484375
 20
-19.29536946614583
 30
0.0
  0
SEQEND
  5
175
330
16F
100
AcDbEntity
  8
Layer 1
370
    70
  0
POLYLINE
  5
176
330
1F
100
AcDbEntity
  8
Layer 1
 62
   179
420
  2301728
370
    70
100
AcDb2dPolyline
 66
     1
 10
0.0
 20
0.0
 30
0.0
  0
VERTEX
  5
177
330
176
100
AcDbEntity
  8
Layer 1
 62
   179
420
  2301728
370
    70
100
AcDbVertex
100
AcDb2dVertex
 10
20.07807074652778
 20
-9.795369466145832
 30
0.0
  0
VERTEX
  5
178
330
176
100
AcDbEntity
  8
Layer 1
 62
   179
420
  2301728
370
    70
100
AcDbVertex
100
AcDb2dVertex
 10
22.07807074652778
 20
-9.795369466145832
 30
0.0
  0
VERTEX
  5
179
330
176
100
AcDbEntity
  8
Layer 1
 62
   179
420
  2301728
370
    70
100
AcDbVertex
100
AcDb2dVertex
 10
22.07807074652778
 20
-7.795369466145833
 30
0.0
  0
VERTEX
  5
17A
330
176
100
AcDbEntity
  8
Layer 1
 62
   179
420
  2301728
370
    70
100
AcDbVertex
100
AcDb2dVertex
 10
20.07807074652778
 20
-7.795369466145833
 30
0.0
  0
VERTEX
  5
17B
330
176
100
AcDbEntity
  8
Layer 1
 62
   179
420
  2301728
370
    70
100
AcDbVertex
100
AcDb2dVertex
 10
20.07807074652778
 20
-9.795369466145832
 30
0.0
  0
SEQEND
  5
17C
330
176
100
AcDbEntity
  8
Layer 1
370
    70
  0
POLYLINE
  5
17D
330
1F
100
AcDbEntity
  8
Layer 1
 62
   179
420
  2301728
370
    70
100
AcDb2dPolyline
 66
     1
 10
0.0
 20
0.0
 30
0.0
  0
VERTEX
  5
17E
330
17D
100
AcDbEntity
  8
Layer 1
 62
   179
420
  2301728
370
    70
100
AcDbVertex
100
AcDb2dVertex
 10
23.82807074652778
 20
-1.517618815104167
 30
0.0
  0
VERTEX
  5
17F
330
17D
100
AcDbEntity
  8
Layer 1
 62
   179
420
  2301728
370
    70
100
AcDbVertex
100
AcDb2dVertex
 10
23.82807074652778
 20
-2.739841037326389
 30
0.0
  0
VERTEX
  5
180
330
17D
100
AcDbEntity
  8
Layer 1
 62
   179
420
  2301728
370
    70
100
AcDbVertex
100
AcDb2dVertex
 10
23.32807074652778
 20
-2.739841037326389
 30
0.0
  0
VERTEX
  5
181
330
17D
100
AcDbEntity
  8
Layer 1
 62
   179
420
  2301728
370
    70
100
AcDbVertex
100
AcDb2dVertex
 10
23.32807074652778
 20
-3.962063259548611
 30
0.0
  0
VERTEX
  5
182
330
17D
100
AcDbEntity
  8
Layer 1
 62
   179
420
  2301728
370
    70
100
AcDbVertex
100
AcDb2dVertex
 10
23.82807074652778
 20
-3.962063259548611
 30
0.0
  0
VERTEX
  5
183
330
17D
100
AcDbEntity
  8
Layer 1
 62
   179
420
  2301728
370
    70
100
AcDbVertex
100
AcDb2dVertex
 10
23.82807074652778
 20
-5.184285481770833
 30
0.0
  0
VERTEX
  5
184
330
17D
100
AcDbEntity
  8
Layer 1
 62
   179
420
  2301728
370
    70
100
AcDbVertex
100
AcDb2dVertex
 10
23.32807074652778
 20
-5.184285481770833
 30
0.0
  0
VERTEX
  5
185
330
17D
100
AcDbEntity
  8
Layer 1
 62
   179
420
  2301728
370
    70
100
AcDbVertex
100
AcDb2dVertex
 10
23.32807074652778
 20
-6.406507703993055
 30
0.0
  0
VERTEX
  5
186
330
17D
100
AcDbEntity
  8
Layer 1
 62
   179
420
  2301728
370
    70
100
AcDbVertex
100
AcDb2dVertex
 10
23.82807074652778
 20
-6.406507703993055
 30
0.0
  0
VERTEX
  5
187
330
17D
100
AcDbEntity
  8
Layer 1
 62
   179
420
  2301728
370
    70
100
AcDbVertex
100
AcDb2dVertex
 10
23.82807074652778
 20
-7.628729926215278
 30
0.0
  0
VERTEX
  5
188
330
17D
100
AcDbEntity
  8
Layer 1
 62
   179
420
  2301728
370
    70
100
AcDbVertex
100
AcDb2dVertex
 10
23.32807074652778
 20
-7.628729926215278
 30
0.0
  0
VERTEX
  5
189
330
17D
100
AcDbEntity
  8
Layer 1
 62
   179
420
  2301728
370
    70
100
AcDbVertex
100
AcDb2dVertex
 10
23.32807074652778
 20
-8.8509521484375
 30
0.0
  0
VERTEX
  5
18A
330
17D
100
AcDbEntity
  8
Layer 1
 62
   179
420
  2301728
370
    70
100
AcDbVertex
100
AcDb2dVertex
 10
23.82807074652778
 20
-8.8509521484375
 30
0.0
  0
VERTEX
  5
18B
330
17D
100
AcDbEntity
  8
Layer 1
 62
   179
420
  2301728
370
    70
100
AcDbVertex
100
AcDb2dVertex
 10
23.82807074652778
 20
-10.07314724392361
 30
0.0
  0
VERTEX
  5
18C
330
17D
100
AcDbEntity
  8
Layer 1
 62
   179
420
  2301728
370
    70
100
AcDbVertex
100
AcDb2dVertex
 10
23.32807074652778
 20
-10.07314724392361
 30
0.0
  0
VERTEX
  5
18D
330
17D
100
AcDbEntity
  8
Layer 1
 62
   179
420
  2301728
370
    70
100
AcDbVertex
100
AcDb2dVertex
 10
23.32807074652778
 20
-11.29536946614583
 30
0.0
  0
VERTEX
  5
18E
330
17D
100
AcDbEntity
  8
Layer 1
 62
   179
420
  2301728
370
    70
100
AcDbVertex
100
AcDb2dVertex
 10
22.60584852430555
 20
-11.29536946614583
 30
0.0
  0
VERTEX
  5
18F
330
17D
100
AcDbEntity
  8
Layer 1
 62
   179
420
  2301728
370
    70
100
AcDbVertex
100
AcDb2dVertex
 10
22.60584852430555
 20
-10.79536946614583
 30
0.0
  0
VERTEX
  5
190
330
17D
100
AcDbEntity
  8
Layer 1
 62
   179
420
  2301728
370
    70
100
AcDbVertex
100
AcDb2dVertex
 10
21.38362630208333
 20
-10.79536946614583
 30
0.0
  0
VERTEX
  5
191
330
17D
100
AcDbEntity
  8
Layer 1
 62
   179
420
  2301728
370
    70
100
AcDbVertex
100
AcDb2dVertex
 10
21.38362630208333
 20
-11.29536946614583
 30
0.0
  0
VERTEX
  5
192
330
17D
100
AcDbEntity
  8
Layer 1
 62
   179
420
  2301728
370
    70
100
AcDbVertex
100
AcDb2dVertex
 10
20.16140407986111
 20
-11.29536946614583
 30
0.0
  0
VERTEX
  5
193
330
17D
100
AcDbEntity
  8
Layer 1
 62
   179
420
  2301728
370
    70
100
AcDbVertex
100
AcDb2dVertex
 10
20.16140407986111
 20
-10.79536946614583
 30
0.0
  0
VERTEX
  5
194
330
17D
100
AcDbEntity
  8
Layer 1
 62
   179
420
  2301728
370
    70
100
AcDbVertex
100
AcDb2dVertex
 10
18.93918185763889
 20
-10.79536946614583
 30
0.0
  0
VERTEX
  5
195
330
17D
100
AcDbEntity
  8
Layer 1
 62
   179
420
  2301728
370
    70
100
AcDbVertex
100
AcDb2dVertex
 10
18.93918185763889
 20
-11.29536946614583
 30
0.0
  0
VERTEX
  5
196
330
17D
100
AcDbEntity
  8
Layer 1
 62
   179
420
  2301728
370
    70
100
AcDbVertex
100
AcDb2dVertex
 10
17.71695963541666
 20
-11.29536946614583
 30
0.0
  0
VERTEX
  5
197
330
17D
100
AcDbEntity
  8
Layer 1
 62
   179
420
  2301728
370
    70
100
AcDbVertex
100
AcDb2dVertex
 10
17.71695963541666
 20
-10.79536946614583
 30
0.0
  0
VERTEX
  5
198
330
17D
100
AcDbEntity
  8
Layer 1
 62
   179
420
  2301728
370
    70
100
AcDbVertex
100
AcDb2dVertex
 10
16.49473741319444
 20
-10.79536946614583
 30
0.0
  0
VERTEX
  5
199
330
17D
100
AcDbEntity
  8
Layer 1
 62
   179
420
  2301728
370
    70
100
AcDbVertex
100
AcDb2dVertex
 10
16.49473741319444
 20
-11.29536946614583
 30
0.0
  0
VERTEX
  5
19A
330
17D
100
AcDbEntity
  8
Layer 1
 62
   179
420
  2301728
370
    70
100
AcDbVertex
100
AcDb2dVertex
 10
15.27251519097222
 20
-11.29536946614583
 30
0.0
  0
VERTEX
  5
19B
330
17D
100
AcDbEntity
  8
Layer 1
 62
   179
420
  2301728
370
    70
100
AcDbVertex
100
AcDb2dVertex
 10
15.27251519097222
 20
-10.79536946614583
 30
0.0
  0
VERTEX
  5
19C
330
17D
100
AcDbEntity
  8
Layer 1
 62
   179
420
  2301728
370
    70
100
AcDbVertex
100
AcDb2dVertex
 10
14.05029296875
 20
-10.79536946614583
 30
0.0
  0
VERTEX
  5
19D
330
17D
100
AcDbEntity
  8
Layer 1
 62
   179
420
  2301728
370
    70
100
AcDbVertex
100
AcDb2dVertex
 10
14.05029296875
 20
-11.29536946614583
 30
0.0
  0
VERTEX
  5
19E
330
17D
100
AcDbEntity
  8
Layer 1
 62
   179
420
  2301728
370
    70
100
AcDbVertex
100
AcDb2dVertex
 10
12.82807074652778
 20
-11.29536946614583
 30
0.0
  0
VERTEX
  5
19F
330
17D
100
AcDbEntity
  8
Layer 1
 62
   179
420
  2301728
370
    70
100
AcDbVertex
100
AcDb2dVertex
 10
12.82807074652778
 20
-10.07314724392361
 30
0.0
  0
VERTEX
  5
1A0
330
17D
100
AcDbEntity
  8
Layer 1
 62
   179
420
  2301728
370
    70
100
AcDbVertex
100
AcDb2dVertex
 10
13.32807074652778
 20
-10.07314724392361
 30
0.0
  0
VERTEX
  5
1A1
330
17D
100
AcDbEntity
  8
Layer 1
 62
   179
420
  2301728
370
    70
100
AcDbVertex
100
AcDb2dVertex
 10
13.32807074652778
 20
-8.8509521484375
 30
0.0
  0
VERTEX
  5
1A2
330
17D
100
AcDbEntity
  8
Layer 1
 62
   179
420
  2301728
370
    70
100
AcDbVertex
100
AcDb2dVertex
 10
12.82807074652778
 20
-8.8509521484375
 30
0.0
  0
VERTEX
  5
1A3
330
17D
100
AcDbEntity
  8
Layer 1
 62
   179
420
  2301728
370
    70
100
AcDbVertex
100
AcDb2dVertex
 10
12.82807074652778
 20
-7.628729926215278
 30
0.0
  0
VERTEX
  5
1A4
330
17D
100
AcDbEntity
  8
Layer 1
 62
   179
420
  2301728
370
    70
100
AcDbVertex
100
AcDb2dVertex
 10
13.32807074652778
 20
-7.628729926215278
 30
0.0
  0
VERTEX
  5
1A5
330
17D
100
AcDbEntity
  8
Layer 1
 62
   179
420
  2301728
370
    70
100
AcDbVertex
100
AcDb2dVertex
 10
13.32807074652778
 20
-6.406507703993055
 30
0.0
  0
VERTEX
  5
1A6
330
17D
100
AcDbEntity
  8
Layer 1
 62
   179
420
  2301728
370
    70
100
AcDbVertex
100
AcDb2dVertex
 10
12.82807074652778
 20
-6.406507703993055
 30
0.0
  0
VERTEX
  5
1A7
330
17D
100
AcDbEntity
  8
Layer 1
 62
   179
420
  2301728
370
    70
100
AcDbVertex
100
AcDb2dVertex
 10
12.82807074652778
 20
-5.184285481770833
 30
0.0
  0
VERTEX
  5
1A8
330
17D
100
AcDbEntity
  8
Layer 1
 62
   179
420
  2301728
370
    70
100
AcDbVertex
100
AcDb2dVertex
 10
13.32807074652778
 20
-5.184285481770833
 30
0.0
  0
VERTEX
  5
1A9
330
17D
100
AcDbEntity
  8
Layer 1
 62
   179
420
  2301728
370
    70
100
AcDbVertex
100
AcDb2dVertex
 10
13.32807074652778
 20
-3.962063259548611
 30
0.0
  0
VERTEX
  5
1AA
330
17D
100
AcDbEntity
  8
Layer 1
 62
   179
420
  2301728
370
    70
100
AcDbVertex
100
AcDb2dVertex
 10
12.82807074652778
 20
-3.962063259548611
 30
0.0
  0
VERTEX
  5
1AB
330
17D
100
AcDbEntity
  8
Layer 1
 62
   179
420
  2301728
370
    70
100
AcDbVertex
100
AcDb2dVertex
 10
12.82807074652778
 20
-2.739841037326389
 30
0.0
  0
VERTEX
  5
1AC
330
17D
100
AcDbEntity
  8
Layer 1
 62
   179
420
  2301728
370
    70
100
AcDbVertex
100
AcDb2dVertex
 10
13.32807074652778
 20
-2.739841037326389
 30
0.0
  0
VERTEX
  5
1AD
330
17D
100
AcDbEntity
  8
Layer 1
 62
   179
420
  2301728
370
    70
100
AcDbVertex
100
AcDb2dVertex
 10
13.32807074652778
 20
-1.517618815104167
 30
0.0
  0
VERTEX
  5
1AE
330
17D
100
AcDbEntity
  8
Layer 1
 62
   179
420
  2301728
370
    70
100
AcDbVertex
100
AcDb2dVertex
 10
12.82807074652778
 20
-1.517618815104167
 30
0.0
  0
VERTEX
  5
1AF
330
17D
100
AcDbEntity
  8
Layer 1
 62
   179
420
  2301728
370
    70
100
AcDbVertex
100
AcDb2dVertex
 10
12.82807074652778
 20
-0.2953965928819444
 30
0.0
  0
VERTEX
  5
1B0
330
17D
100
AcDbEntity
  8
Layer 1
 62
   179
420
  2301728
370
    70
100
AcDbVertex
100
AcDb2dVertex
 10
14.05029296875
 20
-0.2953965928819444
 30
0.0
  0
VERTEX
  5
1B1
330
17D
100
AcDbEntity
  8
Layer 1
 62
   179
420
  2301728
370
    70
100
AcDbVertex
100
AcDb2dVertex
 10
14.05029296875
 20
-0.7953965928819444
 30
0.0
  0
VERTEX
  5
1B2
330
17D
100
AcDbEntity
  8
Layer 1
 62
   179
420
  2301728
370
    70
100
AcDbVertex
100
AcDb2dVertex
 10
15.27251519097222
 20
-0.7953965928819444
 30
0.0
  0
VERTEX
  5
1B3
330
17D
100
AcDbEntity
  8
Layer 1
 62
   179
420
  2301728
370
    70
100
AcDbVertex
100
AcDb2dVertex
 10
15.27251519097222
 20
-0.2953965928819444
 30
0.0
  0
VERTEX
  5
1B4
330
17D
100
AcDbEntity
  8
Layer 1
 62
   179
420
  2301728
370
    70
100
AcDbVertex
100
AcDb2dVertex
 10
16.49473741319444
 20
-0.2953965928819444
 30
0.0
  0
VERTEX
  5
1B5
330
17D
100
AcDbEntity
  8
Layer 1
 62
   179
420
  2301728
370
    70
100
AcDbVertex
100
AcDb2dVertex
 10
16.49473741319444
 20
-0.7953965928819444
 30
0.0
  0
VERTEX
  5
1B6
330
17D
100
AcDbEntity
  8
Layer 1
 62
   179
420
  2301728
370
    70
100
AcDbVertex
100
AcDb2dVertex
 10
17.71695963541666
 20
-0.7953965928819444
 30
0.0
  0
VERTEX
  5
1B7
330
17D
100
AcDbEntity
  8
Layer 1
 62
   179
420
  2301728
370
    70
100
AcDbVertex
100
AcDb2dVertex
 10
17.71695963541666
 20
-0.2953965928819444
 30
0.0
  0
VERTEX
  5
1B8
330
17D
100
AcDbEntity
  8
Layer 1
 62
   179
420
  2301728
370
    70
100
AcDbVertex
100
AcDb2dVertex
 10
18.93918185763889
 20
-0.2953965928819444
 30
0.0
  0
VERTEX
  5
1B9
330
17D
100
AcDbEntity
  8
Layer 1
 62
   179
420
  2301728
370
    70
100
AcDbVertex
100
AcDb2dVertex
 10
18.93918185763889
 20
-0.7953965928819444
 30
0.0
  0
VERTEX
  5
1BA
330
17D
100
AcDbEntity
  8
Layer 1
 62
   179
420
  2301728
370
    70
100
AcDbVertex
100
AcDb2dVertex
 10
20.16140407986111
 20
-0.7953965928819444
 30
0.0
  0
VERTEX
  5
1BB
330
17D
100
AcDbEntity
  8
Layer 1
 62
   179
420
  2301728
370
    70
100
AcDbVertex
100
AcDb2dVertex
 10
20.16140407986111
 20
-0.2953965928819444
 30
0.0
  0
VERTEX
  5
1BC
330
17D
100
AcDbEntity
  8
Layer 1
 62
   179
420
  2301728
370
    70
100
AcDbVertex
100
AcDb2dVertex
 10
21.38362630208333
 20
-0.2953965928819444
 30
0.0
  0
VERTEX
  5
1BD
330
17D
100
AcDbEntity
  8
Layer 1
 62
   179
420
  2301728
370
    70
100
AcDbVertex
100
AcDb2dVertex
 10
21.38362630208333
 20
-0.7953965928819444
 30
0.0
  0
VERTEX
  5
1BE
330
17D
100
AcDbEntity
  8
Layer 1
 62
   179
420
  2301728
370
    70
100
AcDbVertex
100
AcDb2dVertex
 10
22.60584852430555
 20
-0.7953965928819444
 30
0.0
  0
VERTEX
  5
1BF
330
17D
100
AcDbEntity
  8
Layer 1
 62
   179
420
  2301728
370
    70
100
AcDbVertex
100
AcDb2dVertex
 10
22.60584852430555
 20
-0.2953965928819444
 30
0.0
  0
VERTEX
  5
1C0
330
17D
100
AcDbEntity
  8
Layer 1
 62
   179
420
  2301728
370
    70
100
AcDbVertex
100
AcDb2dVertex
 10
23.32807074652778
 20
-0.2953965928819444
 30
0.0
  0
VERTEX
  5
1C1
330
17D
100
AcDbEntity
  8
Layer 1
 62
   179
420
  2301728
370
    70
100
AcDbVertex
100
AcDb2dVertex
 10
23.32807074652778
 20
-1.517618815104167
 30
0.0
  0
VERTEX
  5
1C2
330
17D
100
AcDbEntity
  8
Layer 1
 62
   179
420
  2301728
370
    70
100
AcDbVertex
100
AcDb2dVertex
 10
23.82807074652778
 20
-1.517618815104167
 30
0.0
  0
SEQEND
  5
1C3
330
17D
100
AcDbEntity
  8
Layer 1
370
    70
  0
POLYLINE
  5
1C4
330
1F
100
AcDbEntity
  8
Layer 1
 62
   179
420
  2301728
370
    70
100
AcDb2dPolyline
 66
     1
 10
0.0
 20
0.0
 30
0.0
  0
VERTEX
  5
1C5
330
1C4
100
AcDbEntity
  8
Layer 1
 62
   179
420
  2301728
370
    70
100
AcDbVertex
100
AcDb2dVertex
 10
35.36541069878472
 20
-1.623860677083333
 30
0.0
  0
VERTEX
  5
1C6
330
1C4
100
AcDbEntity
  8
Layer 1
 62
   179
420
  2301728
370
    70
100
AcDbVertex
100
AcDb2dVertex
 10
35.36541069878472
 20
-2.846082899305555
 30
0.0
  0
VERTEX
  5
1C7
330
1C4
100
AcDbEntity
  8
Layer 1
 62
   179
420
  2301728
370
    70
100
AcDbVertex
100
AcDb2dVertex
 10
34.86541069878472
 20
-2.846082899305555
 30
0.0
  0
VERTEX
  5
1C8
330
1C4
100
AcDbEntity
  8
Layer 1
 62
   179
420
  2301728
370
    70
100
AcDbVertex
100
AcDb2dVertex
 10
34.86541069878472
 20
-4.068305121527778
 30
0.0
  0
VERTEX
  5
1C9
330
1C4
100
AcDbEntity
  8
Layer 1
 62
   179
420
  2301728
370
    70
100
AcDbVertex
100
AcDb2dVertex
 10
35.36541069878472
 20
-4.068305121527778
 30
0.0
  0
VERTEX
  5
1CA
330
1C4
100
AcDbEntity
  8
Layer 1
 62
   179
420
  2301728
370
    70
100
AcDbVertex
100
AcDb2dVertex
 10
35.36541069878472
 20
-5.29052734375
 30
0.0
  0
VERTEX
  5
1CB
330
1C4
100
AcDbEntity
  8
Layer 1
 62
   179
420
  2301728
370
    70
100
AcDbVertex
100
AcDb2dVertex
 10
34.86541069878472
 20
-5.29052734375
 30
0.0
  0
VERTEX
  5
1CC
330
1C4
100
AcDbEntity
  8
Layer 1
 62
   179
420
  2301728
370
    70
100
AcDbVertex
100
AcDb2dVertex
 10
34.86541069878472
 20
-6.512749565972221
 30
0.0
  0
VERTEX
  5
1CD
330
1C4
100
AcDbEntity
  8
Layer 1
 62
   179
420
  2301728
370
    70
100
AcDbVertex
100
AcDb2dVertex
 10
35.36541069878472
 20
-6.512749565972221
 30
0.0
  0
VERTEX
  5
1CE
330
1C4
100
AcDbEntity
  8
Layer 1
 62
   179
420
  2301728
370
    70
100
AcDbVertex
100
AcDb2dVertex
 10
35.36541069878472
 20
-7.734971788194444
 30
0.0
  0
VERTEX
  5
1CF
330
1C4
100
AcDbEntity
  8
Layer 1
 62
   179
420
  2301728
370
    70
100
AcDbVertex
100
AcDb2dVertex
 10
34.86541069878472
 20
-7.734971788194444
 30
0.0
  0
VERTEX
  5
1D0
330
1C4
100
AcDbEntity
  8
Layer 1
 62
   179
420
  2301728
370
    70
100
AcDbVertex
100
AcDb2dVertex
 10
34.86541069878472
 20
-8.957194010416666
 30
0.0
  0
VERTEX
  5
1D1
330
1C4
100
AcDbEntity
  8
Layer 1
 62
   179
420
  2301728
370
    70
100
AcDbVertex
100
AcDb2dVertex
 10
35.36541069878472
 20
-8.957194010416666
 30
0.0
  0
VERTEX
  5
1D2
330
1C4
100
AcDbEntity
  8
Layer 1
 62
   179
420
  2301728
370
    70
100
AcDbVertex
100
AcDb2dVertex
 10
35.36541069878472
 20
-10.17941623263889
 30
0.0
  0
VERTEX
  5
1D3
330
1C4
100
AcDbEntity
  8
Layer 1
 62
   179
420
  2301728
370
    70
100
AcDbVertex
100
AcDb2dVertex
 10
34.86541069878472
 20
-10.17941623263889
 30
0.0
  0
VERTEX
  5
1D4
330
1C4
100
AcDbEntity
  8
Layer 1
 62
   179
420
  2301728
370
    70
100
AcDbVertex
100
AcDb2dVertex
 10
34.86541069878472
 20
-11.40165201822917
 30
0.0
  0
VERTEX
  5
1D5
330
1C4
100
AcDbEntity
  8
Layer 1
 62
   179
420
  2301728
370
    70
100
AcDbVertex
100
AcDb2dVertex
 10
34.1431884765625
 20
-11.40165201822917
 30
0.0
  0
VERTEX
  5
1D6
330
1C4
100
AcDbEntity
  8
Layer 1
 62
   179
420
  2301728
370
    70
100
AcDbVertex
100
AcDb2dVertex
 10
34.1431884765625
 20
-10.90162489149306
 30
0.0
  0
VERTEX
  5
1D7
330
1C4
100
AcDbEntity
  8
Layer 1
 62
   179
420
  2301728
370
    70
100
AcDbVertex
100
AcDb2dVertex
 10
32.92096625434028
 20
-10.90162489149306
 30
0.0
  0
VERTEX
  5
1D8
330
1C4
100
AcDbEntity
  8
Layer 1
 62
   179
420
  2301728
370
    70
100
AcDbVertex
100
AcDb2dVertex
 10
32.92096625434028
 20
-11.40165201822917
 30
0.0
  0
VERTEX
  5
1D9
330
1C4
100
AcDbEntity
  8
Layer 1
 62
   179
420
  2301728
370
    70
100
AcDbVertex
100
AcDb2dVertex
 10
31.69874403211805
 20
-11.40165201822917
 30
0.0
  0
VERTEX
  5
1DA
330
1C4
100
AcDbEntity
  8
Layer 1
 62
   179
420
  2301728
370
    70
100
AcDbVertex
100
AcDb2dVertex
 10
31.69874403211805
 20
-10.90162489149306
 30
0.0
  0
VERTEX
  5
1DB
330
1C4
100
AcDbEntity
  8
Layer 1
 62
   179
420
  2301728
370
    70
100
AcDbVertex
100
AcDb2dVertex
 10
30.47652180989583
 20
-10.90162489149306
 30
0.0
  0
VERTEX
  5
1DC
330
1C4
100
AcDbEntity
  8
Layer 1
 62
   179
420
  2301728
370
    70
100
AcDbVertex
100
AcDb2dVertex
 10
30.47652180989583
 20
-11.40165201822917
 30
0.0
  0
VERTEX
  5
1DD
330
1C4
100
AcDbEntity
  8
Layer 1
 62
   179
420
  2301728
370
    70
100
AcDbVertex
100
AcDb2dVertex
 10
29.25429958767361
 20
-11.40165201822917
 30
0.0
  0
VERTEX
  5
1DE
330
1C4
100
AcDbEntity
  8
Layer 1
 62
   179
420
  2301728
370
    70
100
AcDbVertex
100
AcDb2dVertex
 10
29.25429958767361
 20
-10.90162489149306
 30
0.0
  0
VERTEX
  5
1DF
330
1C4
100
AcDbEntity
  8
Layer 1
 62
   179
420
  2301728
370
    70
100
AcDbVertex
100
AcDb2dVertex
 10
28.03207736545139
 20
-10.90162489149306
 30
0.0
  0
VERTEX
  5
1E0
330
1C4
100
AcDbEntity
  8
Layer 1
 62
   179
420
  2301728
370
    70
100
AcDbVertex
100
AcDb2dVertex
 10
28.03207736545139
 20
-11.40165201822917
 30
0.0
  0
VERTEX
  5
1E1
330
1C4
100
AcDbEntity
  8
Layer 1
 62
   179
420
  2301728
370
    70
100
AcDbVertex
100
AcDb2dVertex
 10
26.80985514322916
 20
-11.40165201822917
 30
0.0
  0
VERTEX
  5
1E2
330
1C4
100
AcDbEntity
  8
Layer 1
 62
   179
420
  2301728
370
    70
100
AcDbVertex
100
AcDb2dVertex
 10
26.80985514322916
 20
-10.90162489149306
 30
0.0
  0
VERTEX
  5
1E3
330
1C4
100
AcDbEntity
  8
Layer 1
 62
   179
420
  2301728
370
    70
100
AcDbVertex
100
AcDb2dVertex
 10
25.58763292100694
 20
-10.90162489149306
 30
0.0
  0
VERTEX
  5
1E4
330
1C4
100
AcDbEntity
  8
Layer 1
 62
   179
420
  2301728
370
    70
100
AcDbVertex
100
AcDb2dVertex
 10
25.58763292100694
 20
-11.40165201822917
 30
0.0
  0
VERTEX
  5
1E5
330
1C4
100
AcDbEntity
  8
Layer 1
 62
   179
420
  2301728
370
    70
100
AcDbVertex
100
AcDb2dVertex
 10
24.36541069878472
 20
-11.40165201822917
 30
0.0
  0
VERTEX
  5
1E6
330
1C4
100
AcDbEntity
  8
Layer 1
 62
   179
420
  2301728
370
    70
100
AcDbVertex
100
AcDb2dVertex
 10
24.36541069878472
 20
-10.17941623263889
 30
0.0
  0
VERTEX
  5
1E7
330
1C4
100
AcDbEntity
  8
Layer 1
 62
   179
420
  2301728
370
    70
100
AcDbVertex
100
AcDb2dVertex
 10
24.86541069878472
 20
-10.17941623263889
 30
0.0
  0
VERTEX
  5
1E8
330
1C4
100
AcDbEntity
  8
Layer 1
 62
   179
420
  2301728
370
    70
100
AcDbVertex
100
AcDb2dVertex
 10
24.86541069878472
 20
-8.957194010416666
 30
0.0
  0
VERTEX
  5
1E9
330
1C4
100
AcDbEntity
  8
Layer 1
 62
   179
420
  2301728
370
    70
100
AcDbVertex
100
AcDb2dVertex
 10
24.36541069878472
 20
-8.957194010416666
 30
0.0
  0
VERTEX
  5
1EA
330
1C4
100
AcDbEntity
  8
Layer 1
 62
   179
420
  2301728
370
    70
100
AcDbVertex
100
AcDb2dVertex
 10
24.36541069878472
 20
-7.734971788194444
 30
0.0
  0
VERTEX
  5
1EB
330
1C4
100
AcDbEntity
  8
Layer 1
 62
   179
420
  2301728
370
    70
100
AcDbVertex
100
AcDb2dVertex
 10
24.86541069878472
 20
-7.734971788194444
 30
0.0
  0
VERTEX
  5
1EC
330
1C4
100
AcDbEntity
  8
Layer 1
 62
   179
420
  2301728
370
    70
100
AcDbVertex
100
AcDb2dVertex
 10
24.86541069878472
 20
-6.512749565972221
 30
0.0
  0
VERTEX
  5
1ED
330
1C4
100
AcDbEntity
  8
Layer 1
 62
   179
420
  2301728
370
    70
100
AcDbVertex
100
AcDb2dVertex
 10
24.36541069878472
 20
-6.512749565972221
 30
0.0
  0
VERTEX
  5
1EE
330
1C4
100
AcDbEntity
  8
Layer 1
 62
   179
420
  2301728
370
    70
100
AcDbVertex
100
AcDb2dVertex
 10
24.36541069878472
 20
-5.29052734375
 30
0.0
  0
VERTEX
  5
1EF
330
1C4
100
AcDbEntity
  8
Layer 1
 62
   179
420
  2301728
370
    70
100
AcDbVertex
100
AcDb2dVertex
 10
24.86541069878472
 20
-5.29052734375
 30
0.0
  0
VERTEX
  5
1F0
330
1C4
100
AcDbEntity
  8
Layer 1
 62
   179
420
  2301728
370
    70
100
AcDbVertex
100
AcDb2dVertex
 10
24.86541069878472
 20
-4.068305121527778
 30
0.0
  0
VERTEX
  5
1F1
330
1C4
100
AcDbEntity
  8
Layer 1
 62
   179
420
  2301728
370
    70
100
AcDbVertex
100
AcDb2dVertex
 10
24.36541069878472
 20
-4.068305121527778
 30
0.0
  0
VERTEX
  5
1F2
330
1C4
100
AcDbEntity
  8
Layer 1
 62
   179
420
  2301728
370
    70
100
AcDbVertex
100
AcDb2dVertex
 10
24.36541069878472
 20
-2.846082899305555
 30
0.0
  0
VERTEX
  5
1F3
330
1C4
100
AcDbEntity
  8
Layer 1
 62
   179
420
  2301728
370
    70
100
AcDbVertex
100
AcDb2dVertex
 10
24.86541069878472
 20
-2.846082899305555
 30
0.0
  0
VERTEX
  5
1F4
330
1C4
100
AcDbEntity
  8
Layer 1
 62
   179
420
  2301728
370
    70
100
AcDbVertex
100
AcDb2dVertex
 10
24.86541069878472
 20
-1.623860677083333
 30
0.0
  0
VERTEX
  5
1F5
330
1C4
100
AcDbEntity
  8
Layer 1
 62
   179
420
  2301728
370
    70
100
AcDbVertex
100
AcDb2dVertex
 10
24.36541069878472
 20
-1.623860677083333
 30
0.0
  0
VERTEX
  5
1F6
330
1C4
100
AcDbEntity
  8
Layer 1
 62
   179
420
  2301728
370
    70
100
AcDbVertex
100
AcDb2dVertex
 10
24.36541069878472
 20
-0.4016384548611111
 30
0.0
  0
VERTEX
  5
1F7
330
1C4
100
AcDbEntity
  8
Layer 1
 62
   179
420
  2301728
370
    70
100
AcDbVertex
100
AcDb2dVertex
 10
25.58763292100694
 20
-0.4016384548611111
 30
0.0
  0
VERTEX
  5
1F8
330
1C4
100
AcDbEntity
  8
Layer 1
 62
   179
420
  2301728
370
    70
100
AcDbVertex
100
AcDb2dVertex
 10
25.58763292100694
 20
-0.901638454861111
 30
0.0
  0
VERTEX
  5
1F9
330
1C4
100
AcDbEntity
  8
Layer 1
 62
   179
420
  2301728
370
    70
100
AcDbVertex
100
AcDb2dVertex
 10
26.80985514322916
 20
-0.901638454861111
 30
0.0
  0
VERTEX
  5
1FA
330
1C4
100
AcDbEntity
  8
Layer 1
 62
   179
420
  2301728
370
    70
100
AcDbVertex
100
AcDb2dVertex
 10
26.80985514322916
 20
-0.4016384548611111
 30
0.0
  0
VERTEX
  5
1FB
330
1C4
100
AcDbEntity
  8
Layer 1
 62
   179
420
  2301728
370
    70
100
AcDbVertex
100
AcDb2dVertex
 10
28.03207736545139
 20
-0.4016384548611111
 30
0.0
  0
VERTEX
  5
1FC
330
1C4
100
AcDbEntity
  8
Layer 1
 62
   179
420
  2301728
370
    70
100
AcDbVertex
100
AcDb2dVertex
 10
28.03207736545139
 20
-0.901638454861111
 30
0.0
  0
VERTEX
  5
1FD
330
1C4
100
AcDbEntity
  8
Layer 1
 62
   179
420
  2301728
370
    70
100
AcDbVertex
100
AcDb2dVertex
 10
29.25429958767361
 20
-0.901638454861111
 30
0.0
  0
VERTEX
  5
1FE
330
1C4
100
AcDbEntity
  8
Layer 1
 62
   179
420
  2301728
370
    70
100
AcDbVertex
100
AcDb2dVertex
 10
29.25429958767361
 20
-0.4016384548611111
 30
0.0
  0
VERTEX
  5
1FF
330
1C4
100
AcDbEntity
  8
Layer 1
 62
   179
420
  2301728
370
    70
100
AcDbVertex
100
AcDb2dVertex
 10
30.47652180989583
 20
-0.4016384548611111
 30
0.0
  0
VERTEX
  5
200
330
1C4
100
AcDbEntity
  8
Layer 1
 62
   179
420
  2301728
370
    70
100
AcDbVertex
100
AcDb2dVertex
 10
30.47652180989583
 20
-0.901638454861111
 30
0.0
  0
VERTEX
  5
201
330
1C4
100
AcDbEntity
  8
Layer 1
 62
   179
420
  2301728
370
    70
100
AcDbVertex
100
AcDb2dVertex
 10
31.69874403211805
 20
-0.901638454861111
 30
0.0
  0
VERTEX
  5
202
330
1C4
100
AcDbEntity
  8
Layer 1
 62
   179
420
  2301728
370
    70
100
AcDbVertex
100
AcDb2dVertex
 10
31.69874403211805
 20
-0.4016384548611111
 30
0.0
  0
VERTEX
  5
203
330
1C4
100
AcDbEntity
  8
Layer 1
 62
   179
420
  2301728
370
    70
100
AcDbVertex
100
AcDb2dVertex
 10
32.92096625434028
 20
-0.4016384548611111
 30
0.0
  0
VERTEX
  5
204
330
1C4
100
AcDbEntity
  8
Layer 1
 62
   179
420
  2301728
370
    70
100
AcDbVertex
100
AcDb2dVertex
 10
32.92096625434028
 20
-0.901638454861111
 30
0.0
  0
VERTEX
  5
205
330
1C4
100
AcDbEntity
  8
Layer 1
 62
   179
420
  2301728
370
    70
100
AcDbVertex
100
AcDb2dVertex
 10
34.1431884765625
 20
-0.901638454861111
 30
0.0
  0
VERTEX
  5
206
330
1C4
100
AcDbEntity
  8
Layer 1
 62
   179
420
  2301728
370
    70
100
AcDbVertex
100
AcDb2dVertex
 10
34.1431884765625
 20
-0.4016384548611111
 30
0.0
  0
VERTEX
  5
207
330
1C4
100
AcDbEntity
  8
Layer 1
 62
   179
420
  2301728
370
    70
100
AcDbVertex
100
AcDb2dVertex
 10
34.86541069878472
 20
-0.4016384548611111
 30
0.0
  0
VERTEX
  5
208
330
1C4
100
AcDbEntity
  8
Layer 1
 62
   179
420
  2301728
370
    70
100
AcDbVertex
100
AcDb2dVertex
 10
34.86541069878472
 20
-1.623860677083333
 30
0.0
  0
VERTEX
  5
209
330
1C4
100
AcDbEntity
  8
Layer 1
 62
   179
420
  2301728
370
    70
100
AcDbVertex
100
AcDb2dVertex
 10
35.36541069878472
 20
-1.623860677083333
 30
0.0
  0
SEQEND
  5
20A
330
1C4
100
AcDbEntity
  8
Layer 1
370
    70
  0
POLYLINE
  5
20B
330
1F
100
AcDbEntity
  8
Layer 1
 62
   179
420
  2301728
370
    70
100
AcDb2dPolyline
 66
     1
 10
0.0
 20
0.0
 30
0.0
  0
VERTEX
  5
20C
330
20B
100
AcDbEntity
  8
Layer 1
 62
   179
420
  2301728
370
    70
100
AcDbVertex
100
AcDb2dVertex
 10
36.67192925347222
 20
-22.79536946614583
 30
0.0
  0
VERTEX
  5
20D
330
20B
100
AcDbEntity
  8
Layer 1
 62
   179
420
  2301728
370
    70
100
AcDbVertex
100
AcDb2dVertex
 10
46.67192925347222
 20
-22.79536946614583
 30
0.0
  0
VERTEX
  5
20E
330
20B
100
AcDbEntity
  8
Layer 1
 62
   179
420
  2301728
370
    70
100
AcDbVertex
100
AcDb2dVertex
 10
46.67192925347222
 20
-17.79536946614583
 30
0.0
  0
VERTEX
  5
20F
330
20B
100
AcDbEntity
  8
Layer 1
 62
   179
420
  2301728
370
    70
100
AcDbVertex
100
AcDb2dVertex
 10
36.67192925347222
 20
-17.79536946614583
 30
0.0
  0
VERTEX
  5
210
330
20B
100
AcDbEntity
  8
Layer 1
 62
   179
420
  2301728
370
    70
100
AcDbVertex
100
AcDb2dVertex
 10
36.67192925347222
 20
-22.79536946614583
 30
0.0
  0
SEQEND
  5
211
330
20B
100
AcDbEntity
  8
Layer 1
370
    70
  0
POLYLINE
  5
212
330
1F
100
AcDbEntity
  8
Layer 1
 62
   179
420
  2301728
370
    70
100
AcDb2dPolyline
 66
     1
 10
0.0
 20
0.0
 30
0.0
  0
VERTEX
  5
213
330
212
100
AcDbEntity
  8
Layer 1
 62
   179
420
  2301728
370
    70
100
AcDbVertex
100
AcDb2dVertex
 10
36.67194281684028
 20
-16.79539659288194
 30
0.0
  0
VERTEX
  5
214
330
212
100
AcDbEntity
  8
Layer 1
 62
   179
420
  2301728
370
    70
100
AcDbVertex
100
AcDb2dVertex
 10
46.67192925347222
 20
-16.79539659288194
 30
0.0
  0
VERTEX
  5
215
330
212
100
AcDbEntity
  8
Layer 1
 62
   179
420
  2301728
370
    70
100
AcDbVertex
100
AcDb2dVertex
 10
46.67192925347222
 20
-11.79539659288194
 30
0.0
  0
VERTEX
  5
216
330
212
100
AcDbEntity
  8
Layer 1
 62
   179
420
  2301728
370
    70
100
AcDbVertex
100
AcDb2dVertex
 10
36.67194281684028
 20
-11.79539659288194
 30
0.0
  0
VERTEX
  5
217
330
212
100
AcDbEntity
  8
Layer 1
 62
   179
420
  2301728
370
    70
100
AcDbVertex
100
AcDb2dVertex
 10
36.67194281684028
 20
-16.79539659288194
 30
0.0
  0
SEQEND
  5
218
330
212
100
AcDbEntity
  8
Layer 1
370
    70
  0
POLYLINE
  5
219
330
1F
100
AcDbEntity
  8
Layer 1
 62
   179
420
  2301728
370
    70
100
AcDb2dPolyline
 66
     1
 10
0.0
 20
0.0
 30
0.0
  0
VERTEX
  5
21A
330
219
100
AcDbEntity
  8
Layer 1
 62
   179
420
  2301728
370
    70
100
AcDbVertex
100
AcDb2dVertex
 10
36.67194281684028
 20
-11.40165201822917
 30
0.0
  0
VERTEX
  5
21B
330
219
100
AcDbEntity
  8
Layer 1
 62
   179
420
  2301728
370
    70
100
AcDbVertex
100
AcDb2dVertex
 10
43.67194281684028
 20
-11.40165201822917
 30
0.0
  0
VERTEX
  5
21C
330
219
100
AcDbEntity
  8
Layer 1
 62
   179
420
  2301728
370
    70
100
AcDbVertex
100
AcDb2dVertex
 10
43.67194281684028
 20
-6.401652018229166
 30
0.0
  0
VERTEX
  5
21D
330
219
100
AcDbEntity
  8
Layer 1
 62
   179
420
  2301728
370
    70
100
AcDbVertex
100
AcDb2dVertex
 10
36.67194281684028
 20
-6.401652018229166
 30
0.0
  0
VERTEX
  5
21E
330
219
100
AcDbEntity
  8
Layer 1
 62
   179
420
  2301728
370
    70
100
AcDbVertex
100
AcDb2dVertex
 10
36.67194281684028
 20
-11.40165201822917
 30
0.0
  0
SEQEND
  5
21F
330
219
100
AcDbEntity
  8
Layer 1
370
    70
  0
SPLINE
  5
220
330
1F
100
AcDbEntity
  8
Layer 1
 62
   179
420
  2301728
370
    70
100
AcDbSpline
210
0.0
220
0.0
230
1.0
 70
    11
 71
     3
 72
    17
 73
    13
 74
     0
 42
0.0000000001
 43
0.0000000001
 40
0.0
 40
0.0
 40
0.0
 40
0.0
 40
1.0
 40
1.0
 40
1.0
 40
2.0
 40
2.0
 40
2.0
 40
3.0
 40
3.0
 40
3.0
 40
4.0
 40
4.0
 40
4.0
 40
4.0
 10
39.74747721354166
 20
-8.262898763020832
 30
0.0
 10
39.74747721354166
 20
-8.44858127170139
 30
0.0
 10
39.49978298611111
 20
-8.599107530381945
 30
0.0
 10
39.1942138671875
 20
-8.599107530381945
 30
0.0
 10
38.88868543836805
 20
-8.599107530381945
 30
0.0
 10
38.6409912109375
 20
-8.44858127170139
 30
0.0
 10
38.6409912109375
 20
-8.262898763020832
 30
0.0
 10
38.6409912109375
 20
-8.077189127604166
 30
0.0
 10
38.88868543836805
 20
-7.926662868923611
 30
0.0
 10
39.1942138671875
 20
-7.926662868923611
 30
0.0
 10
39.49978298611111
 20
-7.926662868923611
 30
0.0
 10
39.74747721354166
 20
-8.077189127604166
 30
0.0
 10
39.74747721354166
 20
-8.262898763020832
 30
0.0
  0
SPLINE
  5
221
330
1F
100
AcDbEntity
  8
Layer 1
 62
   179
420
  2301728
370
    70
100
AcDbSpline
210
0.0
220
0.0
230
1.0
 70
    11
 71
     3
 72
    17
 73
    13
 74
     0
 42
0.0000000001
 43
0.0000000001
 40
0.0
 40
0.0
 40
0.0
 40
0.0
 40
1.0
 40
1.0
 40
1.0
 40
2.0
 40
2.0
 40
2.0
 40
3.0
 40
3.0
 40
3.0
 40
4.0
 40
4.0
 40
4.0
 40
4.0
 10
39.74747721354166
 20
-7.187215169270833
 30
0.0
 10
39.74747721354166
 20
-7.372897677951388
 30
0.0
 10
39.49978298611111
 20
-7.523423936631944
 30
0.0
 10
39.1942138671875
 20
-7.523423936631944
 30
0.0
 10
38.88868543836805
 20
-7.523423936631944
 30
0.0
 10
38.6409912109375
 20
-7.372897677951388
 30
0.0
 10
38.6409912109375
 20
-7.187215169270833
 30
0.0
 10
38.6409912109375
 20
-7.001505533854166
 30
0.0
 10
38.88868543836805
 20
-6.850979275173611
 30
0.0
 10
39.1942138671875
 20
-6.850979275173611
 30
0.0
 10
39.49978298611111
 20
-6.850979275173611
 30
0.0
 10
39.74747721354166
 20
-7.001505533854166
 30
0.0
 10
39.74747721354166
 20
-7.187215169270833
 30
0.0
  0
SPLINE
  5
222
330
1F
100
AcDbEntity
  8
Layer 1
 62
   179
420
  2301728
370
    70
100
AcDbSpline
210
0.0
220
0.0
230
1.0
 70
    11
 71
     3
 72
    17
 73
    13
 74
     0
 42
0.0000000001
 43
0.0000000001
 40
0.0
 40
0.0
 40
0.0
 40
0.0
 40
1.0
 40
1.0
 40
1.0
 40
2.0
 40
2.0
 40
2.0
 40
3.0
 40
3.0
 40
3.0
 40
4.0
 40
4.0
 40
4.0
 40
4.0
 10
39.74747721354166
 20
-10.4910888671875
 30
0.0
 10
39.74747721354166
 20
-10.67677137586806
 30
0.0
 10
39.49978298611111
 20
-10.82732476128472
 30
0.0
 10
39.1942138671875
 20
-10.82732476128472
 30
0.0
 10
38.88868543836805
 20
-10.82732476128472
 30
0.0
 10
38.6409912109375
 20
-10.67677137586806
 30
0.0
 10
38.6409912109375
 20
-10.4910888671875
 30
0.0
 10
38.6409912109375
 20
-10.30540635850694
 30
0.0
 10
38.88868543836805
 20
-10.15485297309028
 30
0.0
 10
39.1942138671875
 20
-10.15485297309028
 30
0.0
 10
39.49978298611111
 20
-10.15485297309028
 30
0.0
 10
39.74747721354166
 20
-10.30540635850694
 30
0.0
 10
39.74747721354166
 20
-10.4910888671875
 30
0.0
  0
SPLINE
  5
223
330
1F
100
AcDbEntity
  8
Layer 1
 62
   179
420
  2301728
370
    70
100
AcDbSpline
210
0.0
220
0.0
230
1.0
 70
    11
 71
     3
 72
    17
 73
    13
 74
     0
 42
0.0000000001
 43
0.0000000001
 40
0.0
 40
0.0
 40
0.0
 40
0.0
 40
1.0
 40
1.0
 40
1.0
 40
2.0
 40
2.0
 40
2.0
 40
3.0
 40
3.0
 40
3.0
 40
4.0
 40
4.0
 40
4.0
 40
4.0
 10
38.0694580078125
 20
-7.178724500868055
 30
0.0
 10
38.0694580078125
 20
-7.387437608506944
 30
0.0
 10
37.9002685546875
 20
-7.556627061631944
 30
0.0
 10
37.69155544704861
 20
-7.556627061631944
 30
0.0
 10
37.48284233940972
 20
-7.556627061631944
 30
0.0
 10
37.31365288628472
 20
-7.387437608506944
 30
0.0
 10
37.31365288628472
 20
-7.178724500868055
 30
0.0
 10
37.31365288628472
 20
-6.970038519965278
 30
0.0
 10
37.48284233940972
 20
-6.800849066840278
 30
0.0
 10
37.69155544704861
 20
-6.800849066840278
 30
0.0
 10
37.9002685546875
 20
-6.800849066840278
 30
0.0
 10
38.0694580078125
 20
-6.970038519965278
 30
0.0
 10
38.0694580078125
 20
-7.178724500868055
 30
0.0
  0
SPLINE
  5
224
330
1F
100
AcDbEntity
  8
Layer 1
 62
   179
420
  2301728
370
    70
100
AcDbSpline
210
0.0
220
0.0
230
1.0
 70
    11
 71
     3
 72
    17
 73
    13
 74
     0
 42
0.0000000001
 43
0.0000000001
 40
0.0
 40
0.0
 40
0.0
 40
0.0
 40
1.0
 40
1.0
 40
1.0
 40
2.0
 40
2.0
 40
2.0
 40
3.0
 40
3.0
 40
3.0
 40
4.0
 40
4.0
 40
4.0
 40
4.0
 10
38.0694580078125
 20
-10.48262532552083
 30
0.0
 10
38.0694580078125
 20
-10.69133843315972
 30
0.0
 10
37.9002685546875
 20
-10.86052788628472
 30
0.0
 10
37.69155544704861
 20
-10.86052788628472
 30
0.0
 10
37.48284233940972
 20
-10.86052788628472
 30
0.0
 10
37.31365288628472
 20
-10.69133843315972
 30
0.0
 10
37.31365288628472
 20
-10.48262532552083
 30
0.0
 10
37.31365288628472
 20
-10.27393934461806
 30
0.0
 10
37.48284233940972
 20
-10.10474989149306
 30
0.0
 10
37.69155544704861
 20
-10.10474989149306
 30
0.0
 10
37.9002685546875
 20
-10.10474989149306
 30
0.0
 10
38.0694580078125
 20
-10.27393934461806
 30
0.0
 10
38.0694580078125
 20
-10.48262532552083
 30
0.0
  0
SPLINE
  5
225
330
1F
100
AcDbEntity
  8
Layer 1
 62
   179
420
  2301728
370
    70
100
AcDbSpline
210
0.0
220
0.0
230
1.0
 70
    11
 71
     3
 72
    17
 73
    13
 74
     0
 42
0.0000000001
 43
0.0000000001
 40
0.0
 40
0.0
 40
0.0
 40
0.0
 40
1.0
 40
1.0
 40
1.0
 40
2.0
 40
2.0
 40
2.0
 40
3.0
 40
3.0
 40
3.0
 40
4.0
 40
4.0
 40
4.0
 40
4.0
 10
38.0694580078125
 20
-8.269788953993055
 30
0.0
 10
38.0694580078125
 20
-8.478502061631945
 30
0.0
 10
37.9002685546875
 20
-8.647691514756945
 30
0.0
 10
37.69155544704861
 20
-8.647691514756945
 30
0.0
 10
37.48284233940972
 20
-8.647691514756945
 30
0.0
 10
37.31365288628472
 20
-8.478502061631945
 30
0.0
 10
37.31365288628472
 20
-8.269788953993055
 30
0.0
 10
37.31365288628472
 20
-8.061102973090277
 30
0.0
 10
37.48284233940972
 20
-7.891913519965278
 30
0.0
 10
37.69155544704861
 20
-7.891913519965278
 30
0.0
 10
37.9002685546875
 20
-7.891913519965278
 30
0.0
 10
38.0694580078125
 20
-8.061102973090277
 30
0.0
 10
38.0694580078125
 20
-8.269788953993055
 30
0.0
  0
SPLINE
  5
226
330
1F
100
AcDbEntity
  8
Layer 1
 62
   179
420
  2301728
370
    70
100
AcDbSpline
210
0.0
220
0.0
230
1.0
 70
    11
 71
     3
 72
    17
 73
    13
 74
     0
 42
0.0000000001
 43
0.0000000001
 40
0.0
 40
0.0
 40
0.0
 40
0.0
 40
1.0
 40
1.0
 40
1.0
 40
2.0
 40
2.0
 40
2.0
 40
3.0
 40
3.0
 40
3.0
 40
4.0
 40
4.0
 40
4.0
 40
4.0
 10
38.0694580078125
 20
-9.360826280381945
 30
0.0
 10
38.0694580078125
 20
-9.569539388020832
 30
0.0
 10
37.9002685546875
 20
-9.738728841145832
 30
0.0
 10
37.69155544704861
 20
-9.738728841145832
 30
0.0
 10
37.48284233940972
 20
-9.738728841145832
 30
0.0
 10
37.31365288628472
 20
-9.569539388020832
 30
0.0
 10
37.31365288628472
 20
-9.360826280381945
 30
0.0
 10
37.31365288628472
 20
-9.152140299479166
 30
0.0
 10
37.48284233940972
 20
-8.982950846354166
 30
0.0
 10
37.69155544704861
 20
-8.982950846354166
 30
0.0
 10
37.9002685546875
 20
-8.982950846354166
 30
0.0
 10
38.0694580078125
 20
-9.152140299479166
 30
0.0
 10
38.0694580078125
 20
-9.360826280381945
 30
0.0
  0
SPLINE
  5
227
330
1F
100
AcDbEntity
  8
Layer 1
 62
   179
420
  2301728
370
    70
100
AcDbSpline
210
0.0
220
0.0
230
1.0
 70
    11
 71
     3
 72
    17
 73
    13
 74
     0
 42
0.0000000001
 43
0.0000000001
 40
0.0
 40
0.0
 40
0.0
 40
0.0
 40
1.0
 40
1.0
 40
1.0
 40
2.0
 40
2.0
 40
2.0
 40
3.0
 40
3.0
 40
3.0
 40
4.0
 40
4.0
 40
4.0
 40
4.0
 10
39.71674262152778
 20
-9.40005154079861
 30
0.0
 10
39.71674262152778
 20
-9.585734049479166
 30
0.0
 10
39.46904839409722
 20
-9.736260308159721
 30
0.0
 10
39.16347927517361
 20
-9.736260308159721
 30
0.0
 10
38.85795084635416
 20
-9.736260308159721
 30
0.0
 10
38.61025661892361
 20
-9.585734049479166
 30
0.0
 10
38.61025661892361
 20
-9.40005154079861
 30
0.0
 10
38.61025661892361
 20
-9.214341905381945
 30
0.0
 10
38.85795084635416
 20
-9.063815646701388
 30
0.0
 10
39.16347927517361
 20
-9.063815646701388
 30
0.0
 10
39.46904839409722
 20
-9.063815646701388
 30
0.0
 10
39.71674262152778
 20
-9.214341905381945
 30
0.0
 10
39.71674262152778
 20
-9.40005154079861
 30
0.0
  0
ENDSEC
  0
SECTION
  2
OBJECTS
  0
DICTIONARY
  5
C
330
0
100
AcDbDictionary
281
     1
  3
ACAD_GROUP
350
D
  3
ACAD_LAYOUT
350
1A
  3
ACAD_MLINESTYLE
350
17
  3
ACAD_PLOTSETTINGS
350
19
  3
ACAD_PLOTSTYLENAME
350
E
  3
ACAD_TABLESTYLE
350
228
  3
ACAD_VISUALSTYLE
350
2A
  0
DICTIONARY
  5
D
102
{ACAD_REACTORS
330
C
102
}
330
C
100
AcDbDictionary
281
     1
  0
DICTIONARY
  5
1A
102
{ACAD_REACTORS
330
C
102
}
330
C
100
AcDbDictionary
281
     1
  3
Layout1
350
1E
  3
Layout2
350
26
  3
Model
350
22
  0
DICTIONARY
  5
17
102
{ACAD_REACTORS
330
C
102
}
330
C
100
AcDbDictionary
281
     1
  3
Standard
350
18
  0
DICTIONARY
  5
19
102
{ACAD_REACTORS
330
C
102
}
330
C
100
AcDbDictionary
281
     1
  0
ACDBDICTIONARYWDFLT
  5
E
102
{ACAD_REACTORS
330
C
102
}
330
C
100
AcDbDictionary
281
     1
  3
Normal
350
F
100
AcDbDictionaryWithDefault
340
F
  0
DICTIONARY
  5
228
102
{ACAD_REACTORS
330
C
102
}
330
C
100
AcDbDictionary
281
     1
  0
DICTIONARY
  5
2A
102
{ACAD_REACTORS
330
C
102
}
330
C
100
AcDbDictionary
281
     1
  3
2dWireframe
350
2F
  3
3D Hidden
350
31
  3
3dWireframe
350
30
  3
Basic
350
32
  3
Brighten
350
36
  3
ColorChange
350
3A
  3
Conceptual
350
34
  3
Dim
350
35
  3
Facepattern
350
39
  3
Flat
350
2B
  3
FlatWithEdges
350
2C
  3
Gouraud
350
2D
  3
GouraudWithEdges
350
2E
  3
Linepattern
350
38
  3
Realistic
350
33
  3
Thicken
350
37
  0
LAYOUT
  5
1E
102
{ACAD_REACTORS
330
1A
102
}
330
1A
100
AcDbPlotSettings
  1

  2
none_device
  4

  6

 40
0.0
 41
0.0
 42
0.0
 43
0.0
 44
0.0
 45
0.0
 46
0.0
 47
0.0
 48
0.0
 49
0.0
140
0.0
141
0.0
142
1.0
143
1.0
 70
   688
 72
     0
 73
     0
 74
     5
  7

 75
    16
 76
     0
 77
     2
 78
   300
147
1.0
148
0.0
149
0.0
100
AcDbLayout
  1
Layout1
 70
     1
 71
     1
 10
0.0
 20
0.0
 11
12.0
 21
9.0
 12
0.0
 22
0.0
 32
0.0
 14
1.000000000000000E+20
 24
1.000000000000000E+20
 34
1.000000000000000E+20
 15
-1.000000000000000E+20
 25
-1.000000000000000E+20
 35
-1.000000000000000E+20
146
0.0
 13
0.0
 23
0.0
 33
0.0
 16
1.0
 26
0.0
 36
0.0
 17
0.0
 27
1.0
 37
0.0
 76
     0
330
1B
  0
LAYOUT
  5
26
102
{ACAD_REACTORS
330
1A
102
}
330
1A
100
AcDbPlotSettings
  1

  2
none_device
  4

  6

 40
0.0
 41
0.0
 42
0.0
 43
0.0
 44
0.0
 45
0.0
 46
0.0
 47
0.0
 48
0.0
 49
0.0
140
0.0
141
0.0
142
1.0
143
1.0
 70
   688
 72
     0
 73
     0
 74
     5
  7

 75
    16
 76
     0
 77
     2
 78
   300
147
1.0
148
0.0
149
0.0
100
AcDbLayout
  1
Layout2
 70
     1
 71
     2
 10
0.0
 20
0.0
 11
0.0
 21
0.0
 12
0.0
 22
0.0
 32
0.0
 14
0.0
 24
0.0
 34
0.0
 15
0.0
 25
0.0
 35
0.0
146
0.0
 13
0.0
 23
0.0
 33
0.0
 16
1.0
 26
0.0
 36
0.0
 17
0.0
 27
1.0
 37
0.0
 76
     0
330
23
  0
LAYOUT
  5
22
102
{ACAD_REACTORS
330
1A
102
}
330
1A
100
AcDbPlotSettings
  1

  2
none_device
  4

  6

 40
0.0
 41
0.0
 42
0.0
 43
0.0
 44
0.0
 45
0.0
 46
0.0
 47
0.0
 48
0.0
 49
0.0
140
0.0
141
0.0
142
1.0
143
1.0
 70
  1712
 72
     0
 73
     0
 74
     0
  7

 75
     0
 76
     0
 77
     2
 78
   300
147
1.0
148
0.0
149
0.0
100
AcDbLayout
  1
Model
 70
     1
 71
     0
 10
0.0
 20
0.0
 11
12.0
 21
9.0
 12
0.0
 22
0.0
 32
0.0
 14
1.000000000000000E+20
 24
1.000000000000000E+20
 34
1.000000000000000E+20
 15
-1.000000000000000E+20
 25
-1.000000000000000E+20
 35
-1.000000000000000E+20
146
0.0
 13
0.0
 23
0.0
 33
0.0
 16
1.0
 26
0.0
 36
0.0
 17
0.0
 27
1.0
 37
0.0
 76
     0
330
1F
331
29
  0
MLINESTYLE
  5
18
102
{ACAD_REACTORS
330
17
102
}
330
17
100
AcDbMlineStyle
  2
Standard
 70
     0
  3

 62
   256
 51
90.0
 52
90.0
 71
     2
 49
0.5
 62
   256
  6
BYLAYER
 49
-0.5
 62
   256
  6
BYLAYER
  0
ACDBPLACEHOLDER
  5
F
102
{ACAD_REACTORS
330
E
102
}
330
E
  0
VISUALSTYLE
  5
2F
102
{ACAD_REACTORS
330
2A
102
}
330
2A
100
AcDbVisualStyle
  2
2dWireframe
 70
     4
 71
     0
 72
     2
 73
     0
 90
        0
 40
-0.6
 41
-30.0
 62
     5
 63
     7
421
 16777215
 74
     1
 91
        4
 64
     7
 65
   257
 75
     1
175
     1
 42
1.0
 92
        0
 66
   257
 43
1.0
 76
     1
 77
     6
 78
     2
 67
     7
 79
     5
170
     0
171
     0
290
     0
174
     0
 93
        1
 44
0.0
173
     0
291
     0
 45
0.0
1001
ACAD
1000
AcDbSavedByObjectVersion
1070
     0
  0
VISUALSTYLE
  5
31
102
{ACAD_REACTORS
330
2A
102
}
330
2A
100
AcDbVisualStyle
  2
3D Hidden
 70
     6
 71
     1
 72
     2
 73
     2
 90
        0
 40
-0.6
 41
-30.0
 62
     5
 63
     7
421
 16777215
 74
     2
 91
        2
 64
     7
 65
   257
 75
     2
175
     1
 42
40.0
 92
        0
 66
   257
 43
1.0
 76
     1
 77
     6
 78
     2
 67
     7
 79
     3
170
     0
171
     0
290
     0
174
     0
 93
        1
 44
0.0
173
     0
291
     0
 45
0.0
1001
ACAD
1000
AcDbSavedByObjectVersion
1070
     0
  0
VISUALSTYLE
  5
30
102
{ACAD_REACTORS
330
2A
102
}
330
2A
100
AcDbVisualStyle
  2
3dWireframe
 70
     5
 71
     0
 72
     2
 73
     0
 90
        0
 40
-0.6
 41
-30.0
 62
     5
 63
     7
421
 16777215
 74
     1
 91
        4
 64
     7
 65
   257
 75
     1
175
     1
 42
1.0
 92
        0
 66
   257
 43
1.0
 76
     1
 77
     6
 78
     2
 67
     7
 79
     5
170
     0
171
     0
290
     0
174
     0
 93
        1
 44
0.0
173
     0
291
     0
 45
0.0
1001
ACAD
1000
AcDbSavedByObjectVersion
1070
     0
  0
VISUALSTYLE
  5
32
102
{ACAD_REACTORS
330
2A
102
}
330
2A
100
AcDbVisualStyle
  2
Basic
 70
     7
 71
     1
 72
     0
 73
     1
 90
        0
 40
-0.6
 41
-30.0
 62
     5
 63
     7
421
 16777215
 74
     0
 91
        4
 64
     7
 65
   257
 75
     1
175
     1
 42
1.0
 92
        8
 66
     7
 43
1.0
 76
     1
 77
     6
 78
     2
 67
     7
 79
     5
170
     0
171
     0
290
     0
174
     0
 93
        1
 44
0.0
173
     0
291
     1
 45
0.0
1001
ACAD
1000
AcDbSavedByObjectVersion
1070
     0
  0
VISUALSTYLE
  5
36
102
{ACAD_REACTORS
330
2A
102
}
330
2A
100
AcDbVisualStyle
  2
Brighten
 70
    12
 71
     2
 72
     2
 73
     0
 90
        0
 40
-0.6
 41
-30.0
 62
     5
 63
     7
421
 16777215
 74
     1
 91
        4
 64
     7
 65
   257
 75
     1
175
     1
 42
1.0
 92
        8
 66
     7
 43
1.0
 76
     1
 77
     6
 78
     2
 67
     7
 79
     5
170
     0
171
     0
290
     0
174
     0
 93
        1
 44
50.0
173
     0
291
     1
 45
0.0
1001
ACAD
1000
AcDbSavedByObjectVersion
1070
     0
  0
VISUALSTYLE
  5
3A
102
{ACAD_REACTORS
330
2A
102
}
330
2A
100
AcDbVisualStyle
  2
ColorChange
 70
    16
 71
     2
 72
     2
 73
     3
 90
        0
 40
-0.6
 41
-30.0
 62
     5
 63
     8
421
  8421504
 74
     1
 91
        4
 64
     7
 65
   257
 75
     1
175
     1
 42
1.0
 92
        8
 66
     8
424
  8421504
 43
1.0
 76
     1
 77
     6
 78
     2
 67
     7
 79
     5
170
     0
171
     0
290
     0
174
     0
 93
        1
 44
0.0
173
     0
291
     1
 45
0.0
1001
ACAD
1000
AcDbSavedByObjectVersion
1070
     0
  0
VISUALSTYLE
  5
34
102
{ACAD_REACTORS
330
2A
102
}
330
2A
100
AcDbVisualStyle
  2
Conceptual
 70
     9
 71
     3
 72
     2
 73
     0
 90
        0
 40
-0.6
 41
-30.0
 62
     5
 63
     7
421
 16777215
 74
     2
 91
        2
 64
     7
 65
   257
 75
     1
175
     1
 42
40.0
 92
        8
 66
     7
 43
1.0
 76
     1
 77
     6
 78
     2
 67
     7
 79
     3
170
     0
171
     0
290
     0
174
     0
 93
        1
 44
0.0
173
     0
291
     0
 45
0.0
1001
ACAD
1000
AcDbSavedByObjectVersion
1070
     0
  0
VISUALSTYLE
  5
35
102
{ACAD_REACTORS
330
2A
102
}
330
2A
100
AcDbVisualStyle
  2
Dim
 70
    11
 71
     2
 72
     2
 73
     0
 90
        0
 40
-0.6
 41
-30.0
 62
     5
 63
     7
421
 16777215
 74
     1
 91
        4
 64
     7
 65
   257
 75
     1
175
     1
 42
1.0
 92
        8
 66
     7
 43
1.0
 76
     1
 77
     6
 78
     2
 67
     7
 79
     5
170
     0
171
     0
290
     0
174
     0
 93
        1
 44
-50.0
173
     0
291
     1
 45
0.0
1001
ACAD
1000
AcDbSavedByObjectVersion
1070
     0
  0
VISUALSTYLE
  5
39
102
{ACAD_REACTORS
330
2A
102
}
330
2A
100
AcDbVisualStyle
  2
Facepattern
 70
    15
 71
     2
 72
     2
 73
     0
 90
        0
 40
-0.6
 41
-30.0
 62
     5
 63
     7
421
 16777215
 74
     1
 91
        4
 64
     7
 65
   257
 75
     1
175
     1
 42
1.0
 92
        8
 66
     7
 43
1.0
 76
     1
 77
     6
 78
     2
 67
     7
 79
     5
170
     0
171
     0
290
     0
174
     0
 93
        1
 44
0.0
173
     0
291
     1
 45
0.0
1001
ACAD
1000
AcDbSavedByObjectVersion
1070
     0
  0
VISUALSTYLE
  5
2B
102
{ACAD_REACTORS
330
2A
102
}
330
2A
100
AcDbVisualStyle
  2
Flat
 70
     0
 71
     2
 72
     1
 73
     1
 90
        2
 40
-0.6
 41
30.0
 62
     5
 63
     7
421
 16777215
 74
     0
 91
        4
 64
     7
 65
   257
 75
     1
175
     1
 42
1.0
 92
        8
 66
     7
 43
1.0
 76
     1
 77
     6
 78
     2
 67
     7
 79
     5
170
     0
171
     0
290
     0
174
     0
 93
       13
 44
0.0
173
     0
291
     1
 45
0.0
1001
ACAD
1000
AcDbSavedByObjectVersion
1070
     0
  0
VISUALSTYLE
  5
2C
102
{ACAD_REACTORS
330
2A
102
}
330
2A
100
AcDbVisualStyle
  2
FlatWithEdges
 70
     1
 71
     2
 72
     1
 73
     1
 90
        2
 40
-0.6
 41
30.0
 62
     5
 63
     7
421
 16777215
 74
     1
 91
        4
 64
     7
 65
   257
 75
     1
175
     1
 42
1.0
 92
        0
 66
   257
 43
1.0
 76
     1
 77
     6
 78
     2
 67
     7
 79
     5
170
     0
171
     0
290
     0
174
     0
 93
       13
 44
0.0
173
     0
291
     1
 45
0.0
1001
ACAD
1000
AcDbSavedByObjectVersion
1070
     0
  0
VISUALSTYLE
  5
2D
102
{ACAD_REACTORS
330
2A
102
}
330
2A
100
AcDbVisualStyle
  2
Gouraud
 70
     2
 71
     2
 72
     2
 73
     1
 90
        2
 40
-0.6
 41
30.0
 62
     5
 63
     7
421
 16777215
 74
     0
 91
        4
 64
     7
 65
   257
 75
     1
175
     1
 42
1.0
 92
        0
 66
     7
 43
1.0
 76
     1
 77
     6
 78
     2
 67
     7
 79
     5
170
     0
171
     0
290
     0
174
     0
 93
       13
 44
0.0
173
     0
291
     1
 45
0.0
1001
ACAD
1000
AcDbSavedByObjectVersion
1070
     0
  0
VISUALSTYLE
  5
2E
102
{ACAD_REACTORS
330
2A
102
}
330
2A
100
AcDbVisualStyle
  2
GouraudWithEdges
 70
     3
 71
     2
 72
     2
 73
     1
 90
        2
 40
-0.6
 41
30.0
 62
     5
 63
     7
421
 16777215
 74
     1
 91
        4
 64
     7
 65
   257
 75
     1
175
     1
 42
1.0
 92
        0
 66
   257
 43
1.0
 76
     1
 77
     6
 78
     2
 67
     7
 79
     5
170
     0
171
     0
290
     0
174
     0
 93
       13
 44
0.0
173
     0
291
     1
 45
0.0
1001
ACAD
1000
AcDbSavedByObjectVersion
1070
     0
  0
VISUALSTYLE
  5
38
102
{ACAD_REACTORS
330
2A
102
}
330
2A
100
AcDbVisualStyle
  2
Linepattern
 70
    14
 71
     2
 72
     2
 73
     0
 90
        0
 40
-0.6
 41
-30.0
 62
     5
 63
     7
421
 16777215
 74
     1
 91
        4
 64
     7
 65
   257
 75
     7
175
     7
 42
1.0
 92
        8
 66
     7
 43
1.0
 76
     1
 77
     6
 78
     2
 67
     7
 79
     5
170
     0
171
     0
290
     0
174
     0
 93
        1
 44
0.0
173
     0
291
     1
 45
0.0
1001
ACAD
1000
AcDbSavedByObjectVersion
1070
     0
  0
VISUALSTYLE
  5
33
102
{ACAD_REACTORS
330
2A
102
}
330
2A
100
AcDbVisualStyle
  2
Realistic
 70
     8
 71
     2
 72
     2
 73
     0
 90
        0
 40
-0.6
 41
-30.0
 62
     5
 63
     7
421
 16777215
 74
     1
 91
        0
 64
     7
 65
   257
 75
     1
175
     1
 42
1.0
 92
        8
 66
     8
424
  7895160
 43
1.0
 76
     1
 77
     6
 78
     2
 67
     7
 79
     5
170
     0
171
     0
290
     0
174
     0
 93
       13
 44
0.0
173
     0
291
     0
 45
0.0
1001
ACAD
1000
AcDbSavedByObjectVersion
1070
     0
  0
VISUALSTYLE
  5
37
102
{ACAD_REACTORS
330
2A
102
}
330
2A
100
AcDbVisualStyle
  2
Thicken
 70
    13
 71
     2
 72
     2
 73
     0
 90
        0
 40
-0.6
 41
-30.0
 62
     5
 63
     7
421
 16777215
 74
     1
 91
        4
 64
     7
 65
   257
 75
     1
175
     1
 42
1.0
 92
       12
 66
     7
 43
1.0
 76
     1
 77
     6
 78
     2
 67
     7
 79
     5
170
     0
171
     0
290
     0
174
     0
 93
        1
 44
0.0
173
     0
291
     1
 45
0.0
1001
ACAD
1000
AcDbSavedByObjectVersion
1070
     0
  0
ENDSEC
  0
EOF
