  0
SECTION
  2
HEADER
  9
$ACADVER
  1
AC1014
  9
$HANDSEED
  5
FFFF
  9
$MEASUREMENT
 70
     1
  0
ENDSEC
  0
SECTION
  2
TABLES
  0
TABLE
  2
VPORT
  5
8
330
0
100
AcDbSymbolTable
 70
     4
  0
VPORT
  5
2E
330
8
100
AcDbSymbolTableRecord
100
AcDbViewportTableRecord
  2
*ACTIVE
 70
     0
 10
0.0
 20
0.0
 11
1.0
 21
1.0
 12
210.0
 22
148.5
 13
0.0
 23
0.0
 14
10.0
 24
10.0
 15
10.0
 25
10.0
 16
0.0
 26
0.0
 36
1.0
 17
0.0
 27
0.0
 37
0.0
 40
341.0
 41
1.24
 42
50.0
 43
0.0
 44
0.0
 50
0.0
 51
0.0
 71
     0
 72
   100
 73
     1
 74
     3
 75
     0
 76
     0
 77
     0
 78
     0
  0
ENDTAB
  0
TABLE
  2
LTYPE
  5
5
330
0
100
AcDbSymbolTable
 70
     1
  0
LTYPE
  5
14
330
5
100
AcDbSymbolTableRecord
100
AcDbLinetypeTableRecord
  2
BYBLOCK
 70
     0
  3

 72
    65
 73
     0
 40
0.0
  0
LTYPE
  5
15
330
5
100
AcDbSymbolTableRecord
100
AcDbLinetypeTableRecord
  2
BYLAYER
 70
     0
  3

 72
    65
 73
     0
 40
0.0
  0
LTYPE
  5
16
330
5
100
AcDbSymbolTableRecord
100
AcDbLinetypeTableRecord
  2
CONTINUOUS
 70
     0
  3
Solid line
 72
    65
 73
     0
 40
0.0
  0
ENDTAB
  0
TABLE
  2
LAYER
  5
2
100
AcDbSymbolTable
 70
2
  0
LAYER
  5
50
100
AcDbSymbolTableRecord
100
AcDbLayerTableRecord
  2
0
 70
0
  6
CONTINUOUS
  0
LAYER
  5
51
100
AcDbSymbolTableRecord
100
AcDbLayerTableRecord
  2
Layer_1
 70
0
  6
CONTINUOUS
  0
ENDTAB
  0
TABLE
  2
STYLE
  5
3
330
0
100
AcDbSymbolTable
 70
     1
  0
STYLE
  5
11
330
3
100
AcDbSymbolTableRecord
100
AcDbTextStyleTableRecord
  2
STANDARD
 70
     0
 40
0.0
 41
1.0
 50
0.0
 71
     0
 42
2.5
  3
txt
  4

  0
ENDTAB
  0
TABLE
  2
VIEW
  5
6
330
0
100
AcDbSymbolTable
 70
     0
  0
ENDTAB
  0
TABLE
  2
UCS
  5
7
330
0
100
AcDbSymbolTable
 70
     0
  0
ENDTAB
  0
TABLE
  2
APPID
  5
9
330
0
100
AcDbSymbolTable
 70
     2
  0
APPID
  5
12
330
9
100
AcDbSymbolTableRecord
100
AcDbRegAppTableRecord
  2
ACAD
 70
     0
  0
ENDTAB
  0
TABLE
  2
DIMSTYLE
  5
A
330
0
100
AcDbSymbolTable
 70
     1
  0
DIMSTYLE
105
27
330
A
100
AcDbSymbolTableRecord
100
AcDbDimStyleTableRecord
  2
ISO-25
 70
     0
  3

  4

  5

  6

  7

 40
1.0
 41
2.5
 42
0.625
 43
3.75
 44
1.25
 45
0.0
 46
0.0
 47
0.0
 48
0.0
140
2.5
141
2.5
142
0.0
143
0.03937007874016
144
1.0
145
0.0
146
1.0
147
0.625
 71
     0
 72
     0
 73
     0
 74
     0
 75
     0
 76
     0
 77
     1
 78
     8
170
     0
171
     3
172
     1
173
     0
174
     0
175
     0
176
     0
177
     0
178
     0
270
     2
271
     2
272
     2
273
     2
274
     3
340
11
275
     0
280
     0
281
     0
282
     0
283
     0
284
     8
285
     0
286
     0
287
     3
288
     0
  0
ENDTAB
  0
TABLE
  2
BLOCK_RECORD
  5
1
330
0
100
AcDbSymbolTable
 70
     1
  0
BLOCK_RECORD
  5
1F
330
1
100
AcDbSymbolTableRecord
100
AcDbBlockTableRecord
  2
*MODEL_SPACE
  0
BLOCK_RECORD
  5
1B
330
1
100
AcDbSymbolTableRecord
100
AcDbBlockTableRecord
  2
*PAPER_SPACE
  0
ENDTAB
  0
ENDSEC
  0
SECTION
  2
BLOCKS
  0
BLOCK
  5
20
330
1F
100
AcDbEntity
  8
0
100
AcDbBlockBegin
  2
*MODEL_SPACE
 70
     0
 10
0.0
 20
0.0
 30
0.0
  3
*MODEL_SPACE
  1

  0
ENDBLK
  5
21
330
1F
100
AcDbEntity
  8
0
100
AcDbBlockEnd
  0
BLOCK
  5
1C
330
1B
100
AcDbEntity
 67
     1
  8
0
100
AcDbBlockBegin
  2
*PAPER_SPACE
  1

  0
ENDBLK
  5
1D
330
1B
100
AcDbEntity
 67
     1
  8
0
100
AcDbBlockEnd
  0
ENDSEC
  0
SECTION
  2
ENTITIES
  0
SPLINE
  5
100
100
AcDbEntity
  8
Layer_1
 62
7
100
AcDbSpline
 70
0
 71
3
 72
16
 73
12
 74
10
 40
0.000000
 40
0.000000
 40
0.000000
 40
0.000000
 40
34.675333
 40
68.320491
 40
102.995833
 40
137.671168
 40
171.316324
 40
205.991665
 40
213.660974
 40
221.171256
 40
228.564470
 40
228.564470
 40
228.564470
 40
228.564470
 10
162.847944
 20
596.518988
 30
0.0
 10
151.937246
 20
591.940949
 30
0.0
 10
130.439999
 20
582.920881
 30
0.0
 10
112.168093
 20
551.199207
 30
0.0
 10
111.319666
 20
515.508741
 30
0.0
 10
128.816926
 20
483.988430
 30
0.0
 10
159.463545
 20
465.465664
 30
0.0
 10
186.164551
 20
464.942137
 30
0.0
 10
202.036026
 20
469.891500
 30
0.0
 10
208.968294
 20
472.885294
 30
0.0
 10
213.205357
 20
475.488311
 30
0.0
 10
215.307248
 20
476.779596
 30
0.0
 11
162.847944
 21
596.518988
 31
0.0
 11
132.531303
 21
579.688063
 31
0.0
 11
115.153763
 21
550.878035
 31
0.0
 11
114.407864
 21
516.210716
 31
0.0
 11
131.238792
 21
485.894075
 31
0.0
 11
160.048819
 21
468.516535
 31
0.0
 11
194.716136
 21
467.770636
 31
0.0
 11
202.043076
 21
470.036525
 31
0.0
 11
208.917930
 21
473.059888
 31
0.0
 11
215.307248
 21
476.779596
 31
0.0
  0
SPLINE
  5
101
100
AcDbEntity
  8
Layer_1
 62
7
100
AcDbSpline
 70
0
 71
3
 72
10
 73
6
 74
4
 40
0.000000
 40
0.000000
 40
0.000000
 40
0.000000
 40
22.766856
 40
45.228906
 40
74.354688
 40
74.354688
 40
74.354688
 40
74.354688
 10
215.307248
 20
476.779596
 30
0.0
 10
222.346710
 20
474.195426
 30
0.0
 10
236.331388
 20
469.061684
 30
0.0
 10
261.990675
 20
462.891774
 30
0.0
 10
276.617098
 20
473.732982
 30
0.0
 10
284.874976
 20
479.853780
 30
0.0
 11
215.307248
 21
476.779596
 31
0.0
 11
236.836999
 21
469.376923
 31
0.0
 11
259.088911
 21
466.311621
 31
0.0
 11
284.874976
 21
479.853780
 31
0.0
  0
SPLINE
  5
102
100
AcDbEntity
  8
Layer_1
 62
7
100
AcDbSpline
 70
0
 71
3
 72
10
 73
6
 74
4
 40
0.000000
 40
0.000000
 40
0.000000
 40
0.000000
 40
9.130117
 40
12.618097
 40
17.576280
 40
17.576280
 40
17.576280
 40
17.576280
 10
284.874976
 20
479.853780
 30
0.0
 10
287.141501
 20
482.187129
 30
0.0
 10
290.273907
 20
485.411889
 30
0.0
 10
288.605514
 20
492.366326
 30
0.0
 10
285.301654
 20
491.652822
 30
0.0
 10
283.362176
 20
491.233972
 30
0.0
 11
284.874976
 21
479.853780
 31
0.0
 11
289.407464
 21
487.779409
 31
0.0
 11
288.318355
 21
491.092993
 31
0.0
 11
283.362176
 21
491.233972
 31
0.0
  0
SPLINE
  5
103
100
AcDbEntity
  8
Layer_1
 62
7
100
AcDbSpline
 70
0
 71
3
 72
10
 73
6
 74
4
 40
0.000000
 40
0.000000
 40
0.000000
 40
0.000000
 40
24.128212
 40
43.529030
 40
62.947538
 40
62.947538
 40
62.947538
 40
62.947538
 10
283.362176
 20
491.233972
 30
0.0
 10
276.916252
 20
485.919296
 30
0.0
 10
265.287343
 20
476.331238
 30
0.0
 10
243.034045
 20
477.563617
 30
0.0
 10
231.025061
 20
482.252928
 30
0.0
 10
225.017832
 20
484.598652
 30
0.0
 11
283.362176
 21
491.233972
 31
0.0
 11
262.869289
 21
478.497718
 31
0.0
 11
243.468527
 21
478.544703
 31
0.0
 11
225.017832
 21
484.598652
 31
0.0
  0
SPLINE
  5
104
100
AcDbEntity
  8
Layer_1
 62
7
100
AcDbSpline
 70
0
 71
3
 72
10
 73
6
 74
4
 40
0.000000
 40
0.000000
 40
0.000000
 40
0.000000
 40
4.495626
 40
8.760858
 40
12.826428
 40
12.826428
 40
12.826428
 40
12.826428
 10
225.017832
 20
484.598652
 30
0.0
 10
223.584272
 20
485.036835
 30
0.0
 10
220.790619
 20
485.890745
 30
0.0
 10
216.833953
 20
487.537409
 30
0.0
 10
214.395103
 20
488.867864
 30
0.0
 10
213.204904
 20
489.517148
 30
0.0
 11
225.017832
 21
484.598652
 31
0.0
 11
220.741146
 21
485.984513
 31
0.0
 11
216.806704
 21
487.631442
 31
0.0
 11
213.204904
 21
489.517148
 31
0.0
  0
SPLINE
  5
105
100
AcDbEntity
  8
Layer_1
 62
7
100
AcDbSpline
 70
0
 71
3
 72
22
 73
18
 74
16
 40
0.000000
 40
0.000000
 40
0.000000
 40
0.000000
 40
7.811727
 40
15.757089
 40
23.903821
 40
52.549198
 40
80.342571
 40
108.987948
 40
137.633326
 40
165.426701
 40
194.072076
 40
223.035346
 40
251.069191
 40
279.539020
 40
286.420073
 40
293.077657
 40
297.465225
 40
297.465225
 40
297.465225
 40
297.465225
 10
213.204904
 20
489.517148
 30
0.0
 10
211.110729
 20
487.962370
 30
0.0
 10
206.886554
 20
484.826218
 30
0.0
 10
199.688914
 20
481.303643
 30
0.0
 10
185.510141
 20
476.617966
 30
0.0
 10
162.826434
 20
477.057485
 30
0.0
 10
137.502222
 20
492.375627
 30
0.0
 10
123.064377
 20
518.353440
 30
0.0
 10
123.709488
 20
548.064440
 30
0.0
 10
139.003384
 20
573.437066
 30
0.0
 10
165.111498
 20
587.902895
 30
0.0
 10
194.929479
 20
587.224004
 30
0.0
 10
220.761756
 20
572.390140
 30
0.0
 10
231.122750
 20
552.410976
 30
0.0
 10
233.090447
 20
538.630844
 30
0.0
 10
233.588430
 20
532.519680
 30
0.0
 10
235.572710
 20
529.368371
 30
0.0
 10
236.360944
 20
528.116548
 30
0.0
 11
213.204904
 21
489.517148
 31
0.0
 11
206.794472
 21
485.052907
 31
0.0
 11
199.687469
 21
481.500543
 31
0.0
 11
191.944984
 21
478.966148
 31
0.0
 11
163.306225
 21
479.581858
 31
0.0
 11
139.507025
 21
493.936985
 31
0.0
 11
125.603376
 21
518.981868
 31
0.0
 11
126.219086
 21
547.620628
 31
0.0
 11
140.574213
 21
571.419830
 31
0.0
 11
165.619096
 21
585.323476
 31
0.0
 11
194.577244
 21
584.778849
 31
0.0
 11
218.699628
 21
570.495743
 31
0.0
 11
231.977776
 21
545.311980
 31
0.0
 11
233.034252
 21
538.512513
 31
0.0
 11
234.260942
 21
531.968916
 31
0.0
 11
236.360944
 21
528.116548
 31
0.0
  0
SPLINE
  5
106
100
AcDbEntity
  8
Layer_1
 62
7
100
AcDbSpline
 70
0
 71
3
 72
10
 73
6
 74
4
 40
0.000000
 40
0.000000
 40
0.000000
 40
0.000000
 40
8.058653
 40
15.081647
 40
25.364549
 40
25.364549
 40
25.364549
 40
25.364549
 10
236.360944
 20
528.116548
 30
0.0
 10
237.703837
 20
525.792181
 30
0.0
 10
240.217040
 20
521.442164
 30
0.0
 10
242.703017
 20
513.132464
 30
0.0
 10
241.462322
 20
507.386468
 30
0.0
 10
240.725120
 20
503.972284
 30
0.0
 11
236.360944
 21
528.116548
 31
0.0
 11
240.094100
 21
520.974739
 31
0.0
 11
241.899857
 21
514.187863
 31
0.0
 11
240.725120
 21
503.972284
 31
0.0
  0
SPLINE
  5
107
100
AcDbEntity
  8
Layer_1
 62
7
100
AcDbSpline
 70
0
 71
3
 72
10
 73
6
 74
4
 40
0.000000
 40
0.000000
 40
0.000000
 40
0.000000
 40
8.211784
 40
17.818189
 40
28.647290
 40
28.647290
 40
28.647290
 40
28.647290
 10
240.725120
 20
503.972284
 30
0.0
 10
241.476417
 20
501.175713
 30
0.0
 10
243.106605
 20
495.107626
 30
0.0
 10
254.171712
 20
492.172054
 30
0.0
 10
260.056731
 20
495.940019
 30
0.0
 10
263.175296
 20
497.936724
 30
0.0
 11
240.725120
 21
503.972284
 31
0.0
 11
244.094549
 21
496.483603
 31
0.0
 11
253.255659
 21
493.592738
 31
0.0
 11
263.175296
 21
497.936724
 31
0.0
  0
SPLINE
  5
108
100
AcDbEntity
  8
Layer_1
 62
7
100
AcDbSpline
 70
0
 71
3
 72
10
 73
6
 74
4
 40
0.000000
 40
0.000000
 40
0.000000
 40
0.000000
 40
12.772268
 40
24.202219
 40
33.274275
 40
33.274275
 40
33.274275
 40
33.274275
 10
263.175296
 20
497.936724
 30
0.0
 10
265.388539
 20
501.815937
 30
0.0
 10
269.582423
 20
509.166672
 30
0.0
 10
265.395848
 20
520.597521
 30
0.0
 10
260.807579
 20
525.617183
 30
0.0
 10
258.777288
 20
527.838364
 30
0.0
 11
263.175296
 21
497.936724
 31
0.0
 11
267.798960
 21
509.842713
 31
0.0
 11
264.474851
 21
520.778620
 31
0.0
 11
258.777288
 21
527.838364
 31
0.0
  0
SPLINE
  5
109
100
AcDbEntity
  8
Layer_1
 62
7
100
AcDbSpline
 70
0
 71
3
 72
10
 73
6
 74
4
 40
0.000000
 40
0.000000
 40
0.000000
 40
0.000000
 40
10.422348
 40
17.737904
 40
33.697429
 40
33.697429
 40
33.697429
 40
33.697429
 10
258.777288
 20
527.838364
 30
0.0
 10
256.018145
 20
529.928096
 30
0.0
 10
251.322331
 20
533.484633
 30
0.0
 10
243.196151
 20
541.608125
 30
0.0
 10
241.917265
 20
549.562828
 30
0.0
 10
241.040344
 20
555.017300
 30
0.0
 11
258.777288
 21
527.838364
 31
0.0
 11
250.644273
 21
534.355987
 31
0.0
 11
245.708804
 21
539.755848
 31
0.0
 11
241.040344
 21
555.017300
 31
0.0
  0
SPLINE
  5
10a
100
AcDbEntity
  8
Layer_1
 62
7
100
AcDbSpline
 70
0
 71
3
 72
10
 73
6
 74
4
 40
0.000000
 40
0.000000
 40
0.000000
 40
0.000000
 40
32.063246
 40
63.505197
 40
95.971888
 40
95.971888
 40
95.971888
 40
95.971888
 10
241.040344
 20
555.017300
 30
0.0
 10
235.875712
 20
564.552712
 30
0.0
 10
225.646524
 20
583.438766
 30
0.0
 10
195.311685
 20
599.682224
 30
0.0
 10
173.784251
 20
597.584611
 30
0.0
 10
162.847944
 20
596.518988
 30
0.0
 11
241.040344
 21
555.017300
 31
0.0
 11
223.037170
 21
581.549119
 31
0.0
 11
195.314350
 21
596.382918
 31
0.0
 11
162.847944
 21
596.518988
 31
0.0
  0
LWPOLYLINE
  5
10b
100
AcDbEntity
  8
Layer_1
 62
7
100
AcDbPolyline
 90
2
 70
1
 10
162.847944
 20
596.518988
 30
0.0
 10
162.847944
 20
596.518988
 30
0.0
  0
SPLINE
  5
10c
100
AcDbEntity
  8
Layer_1
 62
7
100
AcDbSpline
 70
0
 71
3
 72
25
 73
21
 74
19
 40
0.000000
 40
0.000000
 40
0.000000
 40
0.000000
 40
1.458008
 40
2.895150
 40
4.353158
 40
5.811166
 40
7.248307
 40
8.706315
 40
10.164323
 40
11.601465
 40
13.059473
 40
14.517481
 40
15.954622
 40
17.412630
 40
18.870638
 40
20.307780
 40
21.765788
 40
23.223796
 40
24.660937
 40
26.118945
 40
26.118945
 40
26.118945
 40
26.118945
 10
255.917211
 20
502.836176
 30
0.0
 10
255.867291
 20
502.347695
 30
0.0
 10
255.768166
 20
501.377723
 30
0.0
 10
254.999116
 20
500.095890
 30
0.0
 10
253.873098
 20
499.142881
 30
0.0
 10
252.478736
 20
498.637437
 30
0.0
 10
250.999160
 20
498.637437
 30
0.0
 10
249.606751
 20
499.142881
 30
0.0
 10
248.472935
 20
500.095890
 30
0.0
 10
247.732858
 20
501.377723
 30
0.0
 10
247.474460
 20
502.836176
 30
0.0
 10
247.732858
 20
504.294629
 30
0.0
 10
248.472935
 20
505.576462
 30
0.0
 10
249.606751
 20
506.529471
 30
0.0
 10
250.999160
 20
507.034915
 30
0.0
 10
252.478736
 20
507.034915
 30
0.0
 10
253.873098
 20
506.529471
 30
0.0
 10
254.999116
 20
505.576462
 30
0.0
 10
255.768166
 20
504.294629
 30
0.0
 10
255.867291
 20
503.324657
 30
0.0
 10
255.917211
 20
502.836176
 30
0.0
 11
255.917211
 21
502.836176
 31
0.0
 11
255.662874
 21
501.400523
 31
0.0
 11
254.944303
 21
500.155922
 31
0.0
 11
253.828159
 21
499.217833
 31
0.0
 11
252.457679
 21
498.720269
 31
0.0
 11
251.020537
 21
498.720269
 31
0.0
 11
249.650057
 21
499.217833
 31
0.0
 11
248.533913
 21
500.155922
 31
0.0
 11
247.815342
 21
501.400523
 31
0.0
 11
247.561005
 21
502.836176
 31
0.0
 11
247.815342
 21
504.271829
 31
0.0
 11
248.533913
 21
505.516430
 31
0.0
 11
249.650057
 21
506.454519
 31
0.0
 11
251.020537
 21
506.952083
 31
0.0
 11
252.457679
 21
506.952083
 31
0.0
 11
253.828159
 21
506.454519
 31
0.0
 11
254.944303
 21
505.516430
 31
0.0
 11
255.662874
 21
504.271829
 31
0.0
 11
255.917211
 21
502.836176
 31
0.0
  0
LWPOLYLINE
  5
10d
100
AcDbEntity
  8
Layer_1
 62
7
100
AcDbPolyline
 90
2
 70
1
 10
255.917211
 20
502.836176
 30
0.0
 10
255.917211
 20
502.836176
 30
0.0
  0
SPLINE
  5
10e
100
AcDbEntity
  8
Layer_1
 62
7
100
AcDbSpline
 70
0
 71
3
 72
16
 73
12
 74
10
 40
0.000000
 40
0.000000
 40
0.000000
 40
0.000000
 40
21.411385
 40
42.188564
 40
63.603134
 40
85.013339
 40
105.784584
 40
127.194789
 40
145.226224
 40
162.651719
 40
180.214205
 40
180.214205
 40
180.214205
 40
180.214205
 10
129.553324
 20
546.177583
 30
0.0
 10
127.988127
 20
539.040850
 30
0.0
 10
124.904093
 20
524.978775
 30
0.0
 10
134.436902
 20
504.479845
 30
0.0
 10
152.159428
 20
491.370802
 30
0.0
 10
174.290957
 20
488.995441
 30
0.0
 10
194.541443
 20
497.906464
 30
0.0
 10
207.029832
 20
514.901455
 30
0.0
 10
209.855136
 20
534.160368
 30
0.0
 10
204.924476
 20
551.980133
 30
0.0
 10
196.366286
 20
560.167614
 30
0.0
 10
192.070436
 20
564.277383
 30
0.0
 11
129.553324
 21
546.177583
 31
0.0
 11
127.280780
 21
524.887141
 31
0.0
 11
135.658878
 21
505.874023
 31
0.0
 11
152.903316
 21
493.177047
 31
0.0
 11
174.192122
 21
490.900293
 31
0.0
 11
193.202201
 21
499.270569
 31
0.0
 11
205.897540
 21
516.510791
 31
0.0
 11
208.576897
 21
534.342047
 31
0.0
 11
203.621479
 21
551.048085
 31
0.0
 11
192.070436
 21
564.277383
 31
0.0
  0
LWPOLYLINE
  5
10f
100
AcDbEntity
  8
Layer_1
 62
7
100
AcDbPolyline
 90
2
 70
1
 10
192.070436
 20
564.277383
 30
0.0
 10
186.293652
 20
549.411463
 30
0.0
  0
SPLINE
  5
110
100
AcDbEntity
  8
Layer_1
 62
7
100
AcDbSpline
 70
0
 71
3
 72
13
 73
9
 74
7
 40
0.000000
 40
0.000000
 40
0.000000
 40
0.000000
 40
6.551687
 40
12.894399
 40
19.446087
 40
25.997773
 40
32.340486
 40
38.892170
 40
38.892170
 40
38.892170
 40
38.892170
 10
186.293652
 20
549.411463
 30
0.0
 10
185.175016
 20
547.475590
 30
0.0
 10
182.973426
 20
543.665593
 30
0.0
 10
176.594244
 20
541.004477
 30
0.0
 10
169.880790
 20
541.727129
 30
0.0
 10
164.440904
 20
545.727173
 30
0.0
 10
161.532387
 20
551.997421
 30
0.0
 10
162.481065
 20
556.294290
 30
0.0
 10
162.963092
 20
558.477543
 30
0.0
 11
186.293652
 21
549.411463
 31
0.0
 11
182.414089
 21
544.131918
 31
0.0
 11
176.609167
 21
541.575971
 31
0.0
 11
170.095332
 21
542.279231
 31
0.0
 11
164.815785
 21
546.158790
 31
0.0
 11
162.259834
 21
551.963712
 31
0.0
 11
162.963092
 21
558.477543
 31
0.0
  0
LWPOLYLINE
  5
111
100
AcDbEntity
  8
Layer_1
 62
7
100
AcDbPolyline
 90
2
 70
1
 10
162.963092
 20
558.477543
 30
0.0
 10
168.335820
 20
572.303663
 30
0.0
  0
SPLINE
  5
112
100
AcDbEntity
  8
Layer_1
 62
7
100
AcDbSpline
 70
0
 71
3
 72
10
 73
6
 74
4
 40
0.000000
 40
0.000000
 40
0.000000
 40
0.000000
 40
16.307767
 40
32.578347
 40
49.426223
 40
49.426223
 40
49.426223
 40
49.426223
 10
168.335820
 20
572.303663
 30
0.0
 10
162.880267
 20
571.727564
 30
0.0
 10
151.981601
 20
570.576681
 30
0.0
 10
137.511209
 20
561.009410
 30
0.0
 10
132.236600
 20
551.178646
 30
0.0
 10
129.553324
 20
546.177583
 30
0.0
 11
168.335820
 21
572.303663
 31
0.0
 11
152.310133
 21
569.283623
 31
0.0
 11
138.747373
 21
560.295671
 31
0.0
 11
129.553324
 21
546.177583
 31
0.0
  0
LWPOLYLINE
  5
113
100
AcDbEntity
  8
Layer_1
 62
7
100
AcDbPolyline
 90
2
 70
1
 10
129.553324
 20
546.177583
 30
0.0
 10
129.553324
 20
546.177583
 30
0.0
  0
SPLINE
  5
114
100
AcDbEntity
  8
Layer_1
 62
7
100
AcDbSpline
 70
0
 71
3
 72
19
 73
15
 74
13
 40
0.000000
 40
0.000000
 40
0.000000
 40
0.000000
 40
2.280901
 40
4.494150
 40
6.775051
 40
9.055952
 40
11.269202
 40
13.550103
 40
15.831003
 40
18.044254
 40
20.325154
 40
22.606055
 40
24.819304
 40
27.100205
 40
27.100205
 40
27.100205
 40
27.100205
 10
171.866590
 20
531.092754
 30
0.0
 10
171.746692
 20
530.323742
 30
0.0
 10
171.510450
 20
528.808526
 30
0.0
 10
169.773721
 20
527.140396
 30
0.0
 10
167.508233
 20
526.522304
 30
0.0
 10
165.218959
 20
527.140396
 30
0.0
 10
163.552175
 20
528.808525
 30
0.0
 10
162.933625
 20
531.092754
 30
0.0
 10
163.552175
 20
533.376983
 30
0.0
 10
165.218959
 20
535.045112
 30
0.0
 10
167.508233
 20
535.663204
 30
0.0
 10
169.773721
 20
535.045112
 30
0.0
 10
171.510450
 20
533.376982
 30
0.0
 10
171.746692
 20
531.861766
 30
0.0
 10
171.866590
 20
531.092754
 30
0.0
 11
171.866590
 21
531.092754
 31
0.0
 11
171.271000
 21
528.890987
 31
0.0
 11
169.705997
 21
527.325982
 31
0.0
 11
167.504229
 21
526.730392
 31
0.0
 11
165.302462
 21
527.325982
 31
0.0
 11
163.737458
 21
528.890987
 31
0.0
 11
163.141867
 21
531.092754
 31
0.0
 11
163.737458
 21
533.294522
 31
0.0
 11
165.302462
 21
534.859526
 31
0.0
 11
167.504229
 21
535.455116
 31
0.0
 11
169.705997
 21
534.859526
 31
0.0
 11
171.271000
 21
533.294522
 31
0.0
 11
171.866590
 21
531.092754
 31
0.0
  0
LWPOLYLINE
  5
115
100
AcDbEntity
  8
Layer_1
 62
7
100
AcDbPolyline
 90
2
 70
1
 10
171.866590
 20
531.092754
 30
0.0
 10
171.866590
 20
531.092754
 30
0.0
  0
SPLINE
  5
116
100
AcDbEntity
  8
Layer_1
 62
7
100
AcDbSpline
 70
0
 71
3
 72
16
 73
12
 74
10
 40
0.000000
 40
0.000000
 40
0.000000
 40
0.000000
 40
21.411385
 40
42.188564
 40
63.603134
 40
85.013339
 40
105.784584
 40
127.194789
 40
145.226224
 40
162.651719
 40
180.214205
 40
180.214205
 40
180.214205
 40
180.214205
 10
249.648840
 20
576.172220
 30
0.0
 10
248.083643
 20
569.035487
 30
0.0
 10
244.999609
 20
554.973412
 30
0.0
 10
254.532418
 20
534.474482
 30
0.0
 10
272.254944
 20
521.365439
 30
0.0
 10
294.386473
 20
518.990078
 30
0.0
 10
314.636959
 20
527.901101
 30
0.0
 10
327.125348
 20
544.896092
 30
0.0
 10
329.950652
 20
564.155005
 30
0.0
 10
325.019992
 20
581.974770
 30
0.0
 10
316.461802
 20
590.162251
 30
0.0
 10
312.165952
 20
594.272020
 30
0.0
 11
249.648840
 21
576.172220
 31
0.0
 11
247.376296
 21
554.881778
 31
0.0
 11
255.754394
 21
535.868660
 31
0.0
 11
272.998832
 21
523.171684
 31
0.0
 11
294.287638
 21
520.894930
 31
0.0
 11
313.297717
 21
529.265206
 31
0.0
 11
325.993056
 21
546.505428
 31
0.0
 11
328.672413
 21
564.336684
 31
0.0
 11
323.716995
 21
581.042722
 31
0.0
 11
312.165952
 21
594.272020
 31
0.0
  0
LWPOLYLINE
  5
117
100
AcDbEntity
  8
Layer_1
 62
7
100
AcDbPolyline
 90
2
 70
1
 10
312.165952
 20
594.272020
 30
0.0
 10
306.389168
 20
579.406100
 30
0.0
  0
SPLINE
  5
118
100
AcDbEntity
  8
Layer_1
 62
7
100
AcDbSpline
 70
0
 71
3
 72
13
 73
9
 74
7
 40
0.000000
 40
0.000000
 40
0.000000
 40
0.000000
 40
6.551687
 40
12.894399
 40
19.446087
 40
25.997773
 40
32.340486
 40
38.892170
 40
38.892170
 40
38.892170
 40
38.892170
 10
306.389168
 20
579.406100
 30
0.0
 10
305.270532
 20
577.470228
 30
0.0
 10
303.068942
 20
573.660230
 30
0.0
 10
296.689760
 20
570.999114
 30
0.0
 10
289.976306
 20
571.721766
 30
0.0
 10
284.536420
 20
575.721810
 30
0.0
 10
281.627903
 20
581.992058
 30
0.0
 10
282.576581
 20
586.288927
 30
0.0
 10
283.058608
 20
588.472180
 30
0.0
 11
306.389168
 21
579.406100
 31
0.0
 11
302.509605
 21
574.126555
 31
0.0
 11
296.704683
 21
571.570608
 31
0.0
 11
290.190848
 21
572.273868
 31
0.0
 11
284.911301
 21
576.153427
 31
0.0
 11
282.355350
 21
581.958349
 31
0.0
 11
283.058608
 21
588.472180
 31
0.0
  0
LWPOLYLINE
  5
119
100
AcDbEntity
  8
Layer_1
 62
7
100
AcDbPolyline
 90
2
 70
1
 10
283.058608
 20
588.472180
 30
0.0
 10
288.431336
 20
602.298300
 30
0.0
  0
SPLINE
  5
11a
100
AcDbEntity
  8
Layer_1
 62
7
100
AcDbSpline
 70
0
 71
3
 72
10
 73
6
 74
4
 40
0.000000
 40
0.000000
 40
0.000000
 40
0.000000
 40
16.307767
 40
32.578347
 40
49.426223
 40
49.426223
 40
49.426223
 40
49.426223
 10
288.431336
 20
602.298300
 30
0.0
 10
282.975783
 20
601.722201
 30
0.0
 10
272.077117
 20
600.571318
 30
0.0
 10
257.606725
 20
591.004047
 30
0.0
 10
252.332116
 20
581.173283
 30
0.0
 10
249.648840
 20
576.172220
 30
0.0
 11
288.431336
 21
602.298300
 31
0.0
 11
272.405649
 21
599.278260
 31
0.0
 11
258.842889
 21
590.290308
 31
0.0
 11
249.648840
 21
576.172220
 31
0.0
  0
LWPOLYLINE
  5
11b
100
AcDbEntity
  8
Layer_1
 62
7
100
AcDbPolyline
 90
2
 70
1
 10
249.648840
 20
576.172220
 30
0.0
 10
249.648840
 20
576.172220
 30
0.0
  0
SPLINE
  5
11c
100
AcDbEntity
  8
Layer_1
 62
7
100
AcDbSpline
 70
0
 71
3
 72
19
 73
15
 74
13
 40
0.000000
 40
0.000000
 40
0.000000
 40
0.000000
 40
2.280901
 40
4.494150
 40
6.775051
 40
9.055952
 40
11.269202
 40
13.550103
 40
15.831003
 40
18.044254
 40
20.325154
 40
22.606055
 40
24.819304
 40
27.100205
 40
27.100205
 40
27.100205
 40
27.100205
 10
291.962106
 20
561.087391
 30
0.0
 10
291.842208
 20
560.318379
 30
0.0
 10
291.605966
 20
558.803163
 30
0.0
 10
289.869237
 20
557.135033
 30
0.0
 10
287.603749
 20
556.516941
 30
0.0
 10
285.314475
 20
557.135033
 30
0.0
 10
283.647691
 20
558.803163
 30
0.0
 10
283.029141
 20
561.087391
 30
0.0
 10
283.647691
 20
563.371620
 30
0.0
 10
285.314475
 20
565.039749
 30
0.0
 10
287.603749
 20
565.657841
 30
0.0
 10
289.869237
 20
565.039749
 30
0.0
 10
291.605966
 20
563.371620
 30
0.0
 10
291.842208
 20
561.856404
 30
0.0
 10
291.962106
 20
561.087391
 30
0.0
 11
291.962106
 21
561.087391
 31
0.0
 11
291.366516
 21
558.885624
 31
0.0
 11
289.801513
 21
557.320619
 31
0.0
 11
287.599745
 21
556.725029
 31
0.0
 11
285.397978
 21
557.320619
 31
0.0
 11
283.832974
 21
558.885624
 31
0.0
 11
283.237383
 21
561.087391
 31
0.0
 11
283.832974
 21
563.289159
 31
0.0
 11
285.397978
 21
564.854163
 31
0.0
 11
287.599745
 21
565.449753
 31
0.0
 11
289.801513
 21
564.854163
 31
0.0
 11
291.366516
 21
563.289159
 31
0.0
 11
291.962106
 21
561.087391
 31
0.0
  0
LWPOLYLINE
  5
11d
100
AcDbEntity
  8
Layer_1
 62
7
100
AcDbPolyline
 90
2
 70
1
 10
291.962106
 20
561.087391
 30
0.0
 10
291.962106
 20
561.087391
 30
0.0
  0
SPLINE
  5
11e
100
AcDbEntity
  8
Layer_1
 62
7
100
AcDbSpline
 70
0
 71
3
 72
19
 73
15
 74
13
 40
0.000000
 40
0.000000
 40
0.000000
 40
0.000000
 40
5.075257
 40
9.999983
 40
15.075239
 40
20.150495
 40
25.075222
 40
30.150480
 40
35.225735
 40
40.150459
 40
45.225714
 40
50.300970
 40
55.225693
 40
60.300948
 40
60.300948
 40
60.300948
 40
60.300948
 10
225.461509
 20
554.972658
 30
0.0
 10
225.194722
 20
553.261520
 30
0.0
 10
224.669059
 20
549.889996
 30
0.0
 10
220.804647
 20
546.178221
 30
0.0
 10
215.763685
 20
544.802897
 30
0.0
 10
210.669797
 20
546.178222
 30
0.0
 10
206.961019
 20
549.889996
 30
0.0
 10
205.584678
 20
554.972657
 30
0.0
 10
206.961018
 20
560.055318
 30
0.0
 10
210.669799
 20
563.767088
 30
0.0
 10
215.763685
 20
565.142409
 30
0.0
 10
220.804646
 20
563.767088
 30
0.0
 10
224.669060
 20
560.055317
 30
0.0
 10
225.194722
 20
556.683795
 30
0.0
 10
225.461509
 20
554.972658
 30
0.0
 11
225.461509
 21
554.972658
 31
0.0
 11
224.136256
 21
550.073480
 31
0.0
 11
220.653951
 21
546.591171
 31
0.0
 11
215.754776
 21
545.265916
 31
0.0
 11
210.855600
 21
546.591171
 31
0.0
 11
207.373293
 21
550.073480
 31
0.0
 11
206.048039
 21
554.972658
 31
0.0
 11
207.373293
 21
559.871833
 31
0.0
 11
210.855600
 21
563.354138
 31
0.0
 11
215.754776
 21
564.679391
 31
0.0
 11
220.653951
 21
563.354138
 31
0.0
 11
224.136256
 21
559.871833
 31
0.0
 11
225.461509
 21
554.972658
 31
0.0
  0
LWPOLYLINE
  5
11f
100
AcDbEntity
  8
Layer_1
 62
7
100
AcDbPolyline
 90
2
 70
1
 10
225.461509
 20
554.972658
 30
0.0
 10
225.461509
 20
554.972658
 30
0.0
  0
SPLINE
  5
120
100
AcDbEntity
  8
Layer_1
 62
7
100
AcDbSpline
 70
0
 71
3
 72
19
 73
15
 74
13
 40
0.000000
 40
0.000000
 40
0.000000
 40
0.000000
 40
2.103102
 40
4.143825
 40
6.246926
 40
8.350028
 40
10.390752
 40
12.493854
 40
14.596955
 40
16.637678
 40
18.740779
 40
20.843879
 40
22.884602
 40
24.987703
 40
24.987703
 40
24.987703
 40
24.987703
 10
219.441296
 20
554.636886
 30
0.0
 10
219.330744
 20
553.927819
 30
0.0
 10
219.112918
 20
552.530716
 30
0.0
 10
217.511570
 20
550.992619
 30
0.0
 10
215.422680
 20
550.422707
 30
0.0
 10
213.311858
 20
550.992619
 30
0.0
 10
211.775003
 20
552.530716
 30
0.0
 10
211.204670
 20
554.636886
 30
0.0
 10
211.775002
 20
556.743055
 30
0.0
 10
213.311859
 20
558.281150
 30
0.0
 10
215.422680
 20
558.851061
 30
0.0
 10
217.511570
 20
558.281151
 30
0.0
 10
219.112918
 20
556.743055
 30
0.0
 10
219.330744
 20
555.345953
 30
0.0
 10
219.441296
 20
554.636886
 30
0.0
 11
219.441296
 21
554.636886
 31
0.0
 11
218.892133
 21
552.606749
 31
0.0
 11
217.449125
 21
551.163738
 31
0.0
 11
215.418988
 21
550.614575
 31
0.0
 11
213.388852
 21
551.163738
 31
0.0
 11
211.945842
 21
552.606749
 31
0.0
 11
211.396679
 21
554.636886
 31
0.0
 11
211.945842
 21
556.667022
 31
0.0
 11
213.388852
 21
558.110031
 31
0.0
 11
215.418988
 21
558.659194
 31
0.0
 11
217.449125
 21
558.110031
 31
0.0
 11
218.892133
 21
556.667022
 31
0.0
 11
219.441296
 21
554.636886
 31
0.0
  0
LWPOLYLINE
  5
121
100
AcDbEntity
  8
Layer_1
 62
7
100
AcDbPolyline
 90
2
 70
1
 10
219.441296
 20
554.636886
 30
0.0
 10
219.441296
 20
554.636886
 30
0.0
  0
SPLINE
  5
122
100
AcDbEntity
  8
Layer_1
 62
7
100
AcDbSpline
 70
0
 71
3
 72
19
 73
15
 74
13
 40
0.000000
 40
0.000000
 40
0.000000
 40
0.000000
 40
5.075257
 40
9.999983
 40
15.075239
 40
20.150495
 40
25.075222
 40
30.150480
 40
35.225735
 40
40.150459
 40
45.225714
 40
50.300970
 40
55.225693
 40
60.300948
 40
60.300948
 40
60.300948
 40
60.300948
 10
231.382709
 20
532.737450
 30
0.0
 10
231.115922
 20
531.026312
 30
0.0
 10
230.590259
 20
527.654788
 30
0.0
 10
226.725847
 20
523.943013
 30
0.0
 10
221.684885
 20
522.567689
 30
0.0
 10
216.590997
 20
523.943014
 30
0.0
 10
212.882219
 20
527.654788
 30
0.0
 10
211.505878
 20
532.737449
 30
0.0
 10
212.882218
 20
537.820110
 30
0.0
 10
216.590999
 20
541.531880
 30
0.0
 10
221.684885
 20
542.907201
 30
0.0
 10
226.725846
 20
541.531880
 30
0.0
 10
230.590260
 20
537.820109
 30
0.0
 10
231.115922
 20
534.448587
 30
0.0
 10
231.382709
 20
532.737450
 30
0.0
 11
231.382709
 21
532.737450
 31
0.0
 11
230.057456
 21
527.838272
 31
0.0
 11
226.575151
 21
524.355963
 31
0.0
 11
221.675976
 21
523.030708
 31
0.0
 11
216.776800
 21
524.355963
 31
0.0
 11
213.294493
 21
527.838272
 31
0.0
 11
211.969239
 21
532.737450
 31
0.0
 11
213.294493
 21
537.636625
 31
0.0
 11
216.776800
 21
541.118930
 31
0.0
 11
221.675976
 21
542.444183
 31
0.0
 11
226.575151
 21
541.118930
 31
0.0
 11
230.057456
 21
537.636625
 31
0.0
 11
231.382709
 21
532.737450
 31
0.0
  0
LWPOLYLINE
  5
123
100
AcDbEntity
  8
Layer_1
 62
7
100
AcDbPolyline
 90
2
 70
1
 10
231.382709
 20
532.737450
 30
0.0
 10
231.382709
 20
532.737450
 30
0.0
  0
SPLINE
  5
124
100
AcDbEntity
  8
Layer_1
 62
7
100
AcDbSpline
 70
0
 71
3
 72
19
 73
15
 74
13
 40
0.000000
 40
0.000000
 40
0.000000
 40
0.000000
 40
2.103102
 40
4.143825
 40
6.246926
 40
8.350028
 40
10.390752
 40
12.493854
 40
14.596955
 40
16.637678
 40
18.740779
 40
20.843879
 40
22.884602
 40
24.987703
 40
24.987703
 40
24.987703
 40
24.987703
 10
225.362496
 20
532.401678
 30
0.0
 10
225.251944
 20
531.692611
 30
0.0
 10
225.034118
 20
530.295508
 30
0.0
 10
223.432770
 20
528.757411
 30
0.0
 10
221.343880
 20
528.187499
 30
0.0
 10
219.233058
 20
528.757411
 30
0.0
 10
217.696203
 20
530.295508
 30
0.0
 10
217.125870
 20
532.401678
 30
0.0
 10
217.696202
 20
534.507847
 30
0.0
 10
219.233059
 20
536.045942
 30
0.0
 10
221.343880
 20
536.615853
 30
0.0
 10
223.432770
 20
536.045943
 30
0.0
 10
225.034118
 20
534.507847
 30
0.0
 10
225.251944
 20
533.110745
 30
0.0
 10
225.362496
 20
532.401678
 30
0.0
 11
225.362496
 21
532.401678
 31
0.0
 11
224.813333
 21
530.371541
 31
0.0
 11
223.370325
 21
528.928530
 31
0.0
 11
221.340188
 21
528.379367
 31
0.0
 11
219.310052
 21
528.928530
 31
0.0
 11
217.867042
 21
530.371541
 31
0.0
 11
217.317879
 21
532.401678
 31
0.0
 11
217.867042
 21
534.431814
 31
0.0
 11
219.310052
 21
535.874823
 31
0.0
 11
221.340188
 21
536.423986
 31
0.0
 11
223.370325
 21
535.874823
 31
0.0
 11
224.813333
 21
534.431814
 31
0.0
 11
225.362496
 21
532.401678
 31
0.0
  0
LWPOLYLINE
  5
125
100
AcDbEntity
  8
Layer_1
 62
7
100
AcDbPolyline
 90
2
 70
1
 10
225.362496
 20
532.401678
 30
0.0
 10
225.362496
 20
532.401678
 30
0.0
  0
SPLINE
  5
126
100
AcDbEntity
  8
Layer_1
 62
7
100
AcDbSpline
 70
0
 71
3
 72
19
 73
15
 74
13
 40
0.000000
 40
0.000000
 40
0.000000
 40
0.000000
 40
5.075257
 40
9.999983
 40
15.075239
 40
20.150495
 40
25.075222
 40
30.150480
 40
35.225735
 40
40.150459
 40
45.225714
 40
50.300970
 40
55.225693
 40
60.300948
 40
60.300948
 40
60.300948
 40
60.300948
 10
229.148069
 20
507.709514
 30
0.0
 10
228.881282
 20
505.998376
 30
0.0
 10
228.355619
 20
502.626852
 30
0.0
 10
224.491207
 20
498.915077
 30
0.0
 10
219.450245
 20
497.539753
 30
0.0
 10
214.356357
 20
498.915078
 30
0.0
 10
210.647579
 20
502.626852
 30
0.0
 10
209.271238
 20
507.709513
 30
0.0
 10
210.647578
 20
512.792174
 30
0.0
 10
214.356359
 20
516.503944
 30
0.0
 10
219.450245
 20
517.879265
 30
0.0
 10
224.491206
 20
516.503944
 30
0.0
 10
228.355620
 20
512.792173
 30
0.0
 10
228.881282
 20
509.420651
 30
0.0
 10
229.148069
 20
507.709514
 30
0.0
 11
229.148069
 21
507.709514
 31
0.0
 11
227.822816
 21
502.810336
 31
0.0
 11
224.340511
 21
499.328027
 31
0.0
 11
219.441336
 21
498.002772
 31
0.0
 11
214.542160
 21
499.328027
 31
0.0
 11
211.059853
 21
502.810336
 31
0.0
 11
209.734599
 21
507.709514
 31
0.0
 11
211.059853
 21
512.608689
 31
0.0
 11
214.542160
 21
516.090994
 31
0.0
 11
219.441336
 21
517.416247
 31
0.0
 11
224.340511
 21
516.090994
 31
0.0
 11
227.822816
 21
512.608689
 31
0.0
 11
229.148069
 21
507.709514
 31
0.0
  0
LWPOLYLINE
  5
127
100
AcDbEntity
  8
Layer_1
 62
7
100
AcDbPolyline
 90
2
 70
1
 10
229.148069
 20
507.709514
 30
0.0
 10
229.148069
 20
507.709514
 30
0.0
  0
SPLINE
  5
128
100
AcDbEntity
  8
Layer_1
 62
7
100
AcDbSpline
 70
0
 71
3
 72
19
 73
15
 74
13
 40
0.000000
 40
0.000000
 40
0.000000
 40
0.000000
 40
2.103102
 40
4.143825
 40
6.246926
 40
8.350028
 40
10.390752
 40
12.493854
 40
14.596955
 40
16.637678
 40
18.740779
 40
20.843879
 40
22.884602
 40
24.987703
 40
24.987703
 40
24.987703
 40
24.987703
 10
223.127856
 20
507.373742
 30
0.0
 10
223.017304
 20
506.664675
 30
0.0
 10
222.799478
 20
505.267572
 30
0.0
 10
221.198130
 20
503.729475
 30
0.0
 10
219.109240
 20
503.159563
 30
0.0
 10
216.998418
 20
503.729475
 30
0.0
 10
215.461563
 20
505.267572
 30
0.0
 10
214.891230
 20
507.373742
 30
0.0
 10
215.461562
 20
509.479911
 30
0.0
 10
216.998419
 20
511.018006
 30
0.0
 10
219.109240
 20
511.587917
 30
0.0
 10
221.198130
 20
511.018007
 30
0.0
 10
222.799478
 20
509.479911
 30
0.0
 10
223.017304
 20
508.082809
 30
0.0
 10
223.127856
 20
507.373742
 30
0.0
 11
223.127856
 21
507.373742
 31
0.0
 11
222.578693
 21
505.343605
 31
0.0
 11
221.135685
 21
503.900594
 31
0.0
 11
219.105548
 21
503.351431
 31
0.0
 11
217.075412
 21
503.900594
 31
0.0
 11
215.632402
 21
505.343605
 31
0.0
 11
215.083239
 21
507.373742
 31
0.0
 11
215.632402
 21
509.403878
 31
0.0
 11
217.075412
 21
510.846887
 31
0.0
 11
219.105548
 21
511.396050
 31
0.0
 11
221.135685
 21
510.846887
 31
0.0
 11
222.578693
 21
509.403878
 31
0.0
 11
223.127856
 21
507.373742
 31
0.0
  0
LWPOLYLINE
  5
129
100
AcDbEntity
  8
Layer_1
 62
7
100
AcDbPolyline
 90
2
 70
1
 10
223.127856
 20
507.373742
 30
0.0
 10
223.127856
 20
507.373742
 30
0.0
  0
SPLINE
  5
12a
100
AcDbEntity
  8
Layer_1
 62
7
100
AcDbSpline
 70
0
 71
3
 72
19
 73
15
 74
13
 40
0.000000
 40
0.000000
 40
0.000000
 40
0.000000
 40
5.075257
 40
9.999983
 40
15.075239
 40
20.150495
 40
25.075222
 40
30.150480
 40
35.225735
 40
40.150459
 40
45.225714
 40
50.300970
 40
55.225693
 40
60.300948
 40
60.300948
 40
60.300948
 40
60.300948
 10
188.477685
 20
563.128511
 30
0.0
 10
188.210898
 20
561.417374
 30
0.0
 10
187.685235
 20
558.045850
 30
0.0
 10
183.820823
 20
554.334075
 30
0.0
 10
178.779861
 20
552.958750
 30
0.0
 10
173.685973
 20
554.334075
 30
0.0
 10
169.977195
 20
558.045849
 30
0.0
 10
168.600854
 20
563.128511
 30
0.0
 10
169.977194
 20
568.211172
 30
0.0
 10
173.685975
 20
571.922941
 30
0.0
 10
178.779861
 20
573.298263
 30
0.0
 10
183.820822
 20
571.922942
 30
0.0
 10
187.685236
 20
568.211171
 30
0.0
 10
188.210898
 20
564.839649
 30
0.0
 10
188.477685
 20
563.128511
 30
0.0
 11
188.477685
 21
563.128511
 31
0.0
 11
187.152432
 21
558.229334
 31
0.0
 11
183.670127
 21
554.747025
 31
0.0
 11
178.770952
 21
553.421770
 31
0.0
 11
173.871776
 21
554.747025
 31
0.0
 11
170.389469
 21
558.229334
 31
0.0
 11
169.064215
 21
563.128511
 31
0.0
 11
170.389469
 21
568.027687
 31
0.0
 11
173.871776
 21
571.509992
 31
0.0
 11
178.770952
 21
572.835245
 31
0.0
 11
183.670127
 21
571.509992
 31
0.0
 11
187.152432
 21
568.027687
 31
0.0
 11
188.477685
 21
563.128511
 31
0.0
  0
LWPOLYLINE
  5
12b
100
AcDbEntity
  8
Layer_1
 62
7
100
AcDbPolyline
 90
2
 70
1
 10
188.477685
 20
563.128511
 30
0.0
 10
188.477685
 20
563.128511
 30
0.0
  0
SPLINE
  5
12c
100
AcDbEntity
  8
Layer_1
 62
7
100
AcDbSpline
 70
0
 71
3
 72
19
 73
15
 74
13
 40
0.000000
 40
0.000000
 40
0.000000
 40
0.000000
 40
2.103102
 40
4.143825
 40
6.246926
 40
8.350028
 40
10.390752
 40
12.493854
 40
14.596955
 40
16.637678
 40
18.740779
 40
20.843879
 40
22.884602
 40
24.987703
 40
24.987703
 40
24.987703
 40
24.987703
 10
182.457472
 20
562.792740
 30
0.0
 10
182.346920
 20
562.083673
 30
0.0
 10
182.129094
 20
560.686570
 30
0.0
 10
180.527746
 20
559.148472
 30
0.0
 10
178.438856
 20
558.578561
 30
0.0
 10
176.328034
 20
559.148472
 30
0.0
 10
174.791179
 20
560.686569
 30
0.0
 10
174.220846
 20
562.792739
 30
0.0
 10
174.791178
 20
564.898909
 30
0.0
 10
176.328035
 20
566.437004
 30
0.0
 10
178.438856
 20
567.006914
 30
0.0
 10
180.527746
 20
566.437004
 30
0.0
 10
182.129094
 20
564.898909
 30
0.0
 10
182.346920
 20
563.501806
 30
0.0
 10
182.457472
 20
562.792740
 30
0.0
 11
182.457472
 21
562.792740
 31
0.0
 11
181.908309
 21
560.762602
 31
0.0
 11
180.465301
 21
559.319592
 31
0.0
 11
178.435164
 21
558.770428
 31
0.0
 11
176.405028
 21
559.319592
 31
0.0
 11
174.962018
 21
560.762602
 31
0.0
 11
174.412855
 21
562.792740
 31
0.0
 11
174.962018
 21
564.822876
 31
0.0
 11
176.405028
 21
566.265885
 31
0.0
 11
178.435164
 21
566.815047
 31
0.0
 11
180.465301
 21
566.265885
 31
0.0
 11
181.908309
 21
564.822876
 31
0.0
 11
182.457472
 21
562.792740
 31
0.0
  0
LWPOLYLINE
  5
12d
100
AcDbEntity
  8
Layer_1
 62
7
100
AcDbPolyline
 90
2
 70
1
 10
182.457472
 20
562.792740
 30
0.0
 10
182.457472
 20
562.792740
 30
0.0
  0
ENDSEC
  0
SECTION
  2
OBJECTS
  0
DICTIONARY
  5
C
330
0
100
AcDbDictionary
  3
ACAD_GROUP
350
D
  3
ACAD_MLINESTYLE
350
17
  0
DICTIONARY
  5
D
330
C
100
AcDbDictionary
  0
DICTIONARY
  5
1A
330
C
100
AcDbDictionary
  0
DICTIONARY
  5
17
330
C
100
AcDbDictionary
  3
STANDARD
350
18
  0
DICTIONARY
  5
19
330
C
100
AcDbDictionary
  0
ENDSEC
  0
EOF
