0
SECTION
2
HEADER
9
$ACADVER
1
AC1014
9
$HANDSEED
5
FFFF
0
ENDSEC
0
SECTION
2
TABLES
0
TABLE
2
VPORT
5
8
100
AcDbSymbolTable
0
ENDTAB
0
TABLE
2
LTYPE
5
5
100
AcDbSymbolTable
0
LTYPE
5
14
100
AcDbSymbolTableRecord
100
AcDbLinetypeTableRecord
2
BYBLOCK
70
0
0
LTYPE
5
15
100
AcDbSymbolTableRecord
100
AcDbLinetypeTableRecord
2
BYLAYER
70
0
0
ENDTAB
0
TABLE
2
LAYER
5
2
100
AcDbSymbolTable
70
2
0
LAYER
5
50
100
AcDbSymbolTableRecord
100
AcDbLayerTableRecord
2
0
70
0
6
CONTINUOUS
0
ENDTAB
0
TABLE
2
STYLE
5
3
100
AcDbSymbolTable
70
1
0
STYLE
5
11
100
AcDbSymbolTableRecord
100
AcDbTextStyleTableRecord
2
STANDARD
70
0
0
ENDTAB
0
TABLE
2
VIEW
5
6
100
AcDbSymbolTable
70
0
0
ENDTAB
0
TABLE
2
UCS
5
7
100
AcDbSymbolTable
70
0
0
ENDTAB
0
TABLE
2
APPID
5
9
100
AcDbSymbolTable
70
2
0
APPID
5
12
100
AcDbSymbolTableRecord
100
AcDbRegAppTableRecord
2
ACAD
70
0
0
ENDTAB
0
TABLE
2
DIMSTYLE
5
A
100
AcDbSymbolTable
70
1
0
ENDTAB
0
TABLE
2
BLOCK_RECORD
5
1
100
AcDbSymbolTable
70
1
0
BLOCK_RECORD
5
1F
100
AcDbSymbolTableRecord
100
AcDbBlockTableRecord
2
*MODEL_SPACE
0
BLOCK_RECORD
5
1B
100
AcDbSymbolTableRecord
100
AcDbBlockTableRecord
2
*PAPER_SPACE
0
ENDTAB
0
ENDSEC
0
SECTION
2
BLOCKS
0
BLOCK
5
20
100
AcDbEntity
100
AcDbBlockBegin
2
*MODEL_SPACE
0
ENDBLK
5
21
100
AcDbEntity
100
AcDbBlockEnd
0
BLOCK
5
1C
100
AcDbEntity
100
AcDbBlockBegin
2
*PAPER_SPACE
0
ENDBLK
5
1D
100
AcDbEntity
100
AcDbBlockEnd
0
ENDSEC
0
SECTION
2
ENTITIES
0
LWPOLYLINE
5
100
100
AcDbEntity
8
0
100
AcDbPolyline
90
8
70
1
43
0.0
10
1.1000000702114561
20
2.2000000702114555
42
-0.41421356237309542
10
2.2000000702114555
20
1.1000000702114556
10
2.2000000702114555
20
-1.1000000702114563
42
-0.41421356237309542
10
1.1000000702114561
20
-2.2000000702114555
10
-1.1000000702114556
20
-2.2000000702114555
42
-0.41421356237309515
10
-2.2000000702114555
20
-1.1000000702114561
10
-2.2000000702114555
20
1.1000000702114561
42
-0.41421356237309509
10
-1.1000000702114561
20
2.2000000702114555
0
LINE
5
101
100
AcDbEntity
8
0
100
AcDbLine
10
1.1000000702114561
20
-2.2000000702114555
30
0
11
-1.1000000702114554
21
-2.2000000702114555
31
0
0
ARC
5
102
100
AcDbEntity
8
0
100
AcDbCircle
10
1.100000070211457
20
-1.100000070211457
30
0
40
1.0999999999999983
100
AcDbArc
50
-90.000000000000057
51
0
0
LINE
5
103
100
AcDbEntity
8
0
100
AcDbLine
10
2.2000000702114555
20
1.1000000702114561
30
0
11
2.2000000702114555
21
-1.1000000702114561
31
0
0
ARC
5
104
100
AcDbEntity
8
0
100
AcDbCircle
10
1.1000000702114558
20
1.1000000702114558
30
0
40
1.0999999999999996
100
AcDbArc
50
0
51
90
0
LINE
5
105
100
AcDbEntity
8
0
100
AcDbLine
10
-1.1000000702114561
20
2.2000000702114555
30
0
11
1.1000000702114561
21
2.2000000702114555
31
0
0
ARC
5
106
100
AcDbEntity
8
0
100
AcDbCircle
10
-1.1000000702114561
20
1.1000000702114561
30
0
40
1.0999999999999994
100
AcDbArc
50
89.999999999999986
51
180
0
LINE
5
107
100
AcDbEntity
8
0
100
AcDbLine
10
-2.2000000702114555
20
-1.1000000702114558
30
0
11
-2.2000000702114555
21
1.1000000702114561
31
0
0
ARC
5
108
100
AcDbEntity
8
0
100
AcDbCircle
10
-1.1000000702114558
20
-1.1000000702114556
30
0
40
1.0999999999999996
100
AcDbArc
50
180
51
270
0
CIRCLE
5
109
100
AcDbEntity
8
0
100
AcDbCircle
10
-1.5000000478714468
20
-1.5000000478714468
30
0
40
0.12999999999999987
0
CIRCLE
5
110
100
AcDbEntity
8
0
100
AcDbCircle
10
1.5000000478714466
20
-1.5000000478714473
30
0
40
0.12999999999999987
0
CIRCLE
5
111
100
AcDbEntity
8
0
100
AcDbCircle
10
1.500000047871447
20
1.5000000478714466
30
0
40
0.12999999999999987
0
CIRCLE
5
112
100
AcDbEntity
8
0
100
AcDbCircle
10
-1.5000000478714466
20
1.5000000478714473
30
0
40
0.12999999999999987
0
LWPOLYLINE
5
113
100
AcDbEntity
8
0
100
AcDbPolyline
90
16
70
1
43
0.0
10
2.0000000638285957
20
1.1000000702114554
10
2.0000000638285953
20
-1.1000000702114563
42
-0.11564999651962955
10
1.9062258489997916
20
-1.5000000478714473
42
1.9846740695806797
10
1.5000000478714466
20
-1.9062258489997923
42
-0.11564999651962944
10
1.1000000702114561
20
-2.0000000638285957
10
-1.1000000702114558
20
-2.0000000638285957
42
-0.11564999651962944
10
-1.5000000478714468
20
-1.9062258489997919
42
1.9846740695806786
10
-1.9062258489997919
20
-1.5000000478714468
42
-0.11564999651962944
10
-2.0000000638285957
20
-1.1000000702114561
10
-2.0000000638285957
20
1.1000000702114558
42
-0.11564999651962955
10
-1.9062258489997916
20
1.5000000478714473
42
1.9846740695806797
10
-1.5000000478714468
20
1.9062258489997919
42
-0.11564999651962944
10
-1.1000000702114558
20
2.0000000638285957
10
1.1000000702114561
20
2.0000000638285953
42
-0.11564999651962955
10
1.500000047871447
20
1.9062258489997916
42
1.9846740695806797
10
1.9062258489997919
20
1.5000000478714468
42
-0.11564999651962966
0
ENDSEC
0
SECTION
2
OBJECTS
0
DICTIONARY
5
C
100
AcDbDictionary
3
ACAD_GROUP
350
D
3
ACAD_MLINESTYLE
350
17
0
DICTIONARY
5
D
100
AcDbDictionary
0
DICTIONARY
5
1A
330
C
100
AcDbDictionary
0
DICTIONARY
5
17
100
AcDbDictionary
0
ENDSEC
0
EOF
