  0
SECTION
  2
HEADER
  9
$ACADVER
  1
AC1009
  9
$INSBASE
 10
0.0
 20
0.0
 30
0.0
  9
$EXTMIN
 10
46.465436139293381
 20
61.11119306942237
 30
0.0
  9
$EXTMAX
 10
512.69517523291506
 20
721.08075855491893
 30
0.0
  9
$LIMMIN
 10
0.0
 20
0.0
  9
$LIMMAX
 10
420.0
 20
297.0
  9
$ORTHOMODE
 70
     1
  9
$REGENMODE
 70
     1
  9
$FILLMODE
 70
     1
  9
$QTEXTMODE
 70
     0
  9
$MIRRTEXT
 70
     0
  9
$DRAGMODE
 70
     2
  9
$LTSCALE
 40
1.0
  9
$OSMODE
 70
  4095
  9
$ATTMODE
 70
     1
  9
$TEXTSIZE
 40
2.5
  9
$TRACEWID
 40
1.0
  9
$TEXTSTYLE
  7
ESTILO_MARC_DC
  9
$CLAYER
  8
C_COTAS
  9
$CELTYPE
  6
BYLAYER
  9
$CECOLOR
 62
   256
  9
$DIMSCALE
 40
1.0
  9
$DIMASZ
 40
2.5
  9
$DIMEXO
 40
0.625
  9
$DIMDLI
 40
3.75
  9
$DIMRND
 40
0.0
  9
$DIMDLE
 40
0.0
  9
$DIMEXE
 40
1.25
  9
$DIMTP
 40
0.0
  9
$DIMTM
 40
0.0
  9
$DIMTXT
 40
2.5
  9
$DIMCEN
 40
2.5
  9
$DIMTSZ
 40
0.0
  9
$DIMTOL
 70
     0
  9
$DIMLIM
 70
     0
  9
$DIMTIH
 70
     0
  9
$DIMTOH
 70
     0
  9
$DIMSE1
 70
     0
  9
$DIMSE2
 70
     0
  9
$DIMTAD
 70
     1
  9
$DIMZIN
 70
     8
  9
$DIMBLK
  1

  9
$DIMASO
 70
     1
  9
$DIMSHO
 70
     1
  9
$DIMPOST
  1

  9
$DIMAPOST
  1

  9
$DIMALT
 70
     0
  9
$DIMALTD
 70
     3
  9
$DIMALTF
 40
0.03937007874016
  9
$DIMLFAC
 40
1.0
  9
$DIMTOFL
 70
     1
  9
$DIMTVP
 40
0.0
  9
$DIMTIX
 70
     0
  9
$DIMSOXD
 70
     0
  9
$DIMSAH
 70
     0
  9
$DIMBLK1
  1

  9
$DIMBLK2
  1

  9
$DIMSTYLE
  2
ISO-25
  9
$DIMCLRD
 70
     0
  9
$DIMCLRE
 70
     0
  9
$DIMCLRT
 70
     0
  9
$DIMTFAC
 40
1.0
  9
$DIMGAP
 40
0.625
  9
$LUNITS
 70
     2
  9
$LUPREC
 70
     4
  9
$SKETCHINC
 40
1.0
  9
$FILLETRAD
 40
0.0
  9
$AUNITS
 70
     0
  9
$AUPREC
 70
     0
  9
$MENU
  1
.
  9
$ELEVATION
 40
0.0
  9
$PELEVATION
 40
0.0
  9
$THICKNESS
 40
0.0
  9
$LIMCHECK
 70
     0
  9
$BLIPMODE
 70
     0
  9
$CHAMFERA
 40
0.0
  9
$CHAMFERB
 40
0.0
  9
$SKPOLY
 70
     0
  9
$TDCREATE
 40
2457206.5218805559
  9
$TDUPDATE
 40
2457609.7988920021
  9
$TDINDWG
 40
1.1664695139000001
  9
$TDUSRTIMER
 40
1.1664694444000001
  9
$USRTIMER
 70
     1
  9
$ANGBASE
 50
0.0
  9
$ANGDIR
 70
     0
  9
$PDMODE
 70
     0
  9
$PDSIZE
 40
0.0
  9
$PLINEWID
 40
0.0
  9
$COORDS
 70
     1
  9
$SPLFRAME
 70
     0
  9
$SPLINETYPE
 70
     6
  9
$SPLINESEGS
 70
     8
  9
$ATTDIA
 70
     1
  9
$ATTREQ
 70
     1
  9
$HANDLING
 70
     1
  9
$HANDSEED
  5
3256A
  9
$SURFTAB1
 70
     6
  9
$SURFTAB2
 70
     6
  9
$SURFTYPE
 70
     6
  9
$SURFU
 70
     6
  9
$SURFV
 70
     6
  9
$UCSNAME
  2

  9
$UCSORG
 10
0.0
 20
0.0
 30
0.0
  9
$UCSXDIR
 10
1.0
 20
0.0
 30
0.0
  9
$UCSYDIR
 10
0.0
 20
1.0
 30
0.0
  9
$PUCSNAME
  2

  9
$PUCSORG
 10
0.0
 20
0.0
 30
0.0
  9
$PUCSXDIR
 10
1.0
 20
0.0
 30
0.0
  9
$PUCSYDIR
 10
0.0
 20
1.0
 30
0.0
  9
$USERI1
 70
     0
  9
$USERI2
 70
     0
  9
$USERI3
 70
     0
  9
$USERI4
 70
     0
  9
$USERI5
 70
     0
  9
$USERR1
 40
0.0
  9
$USERR2
 40
0.0
  9
$USERR3
 40
0.0
  9
$USERR4
 40
0.0
  9
$USERR5
 40
0.0
  9
$WORLDVIEW
 70
     1
  9
$SHADEDGE
 70
     3
  9
$SHADEDIF
 70
    70
  9
$TILEMODE
 70
     1
  9
$MAXACTVP
 70
    64
  9
$PLIMCHECK
 70
     0
  9
$PEXTMIN
 10
1.129416638471948
 20
0.7730833676856337
 30
0.0
  9
$PEXTMAX
 10
10.164749746247541
 20
6.9577503091706987
 30
0.0
  9
$PLIMMIN
 10
-0.1979161059762549
 20
-0.2679166643638311
  9
$PLIMMAX
 10
11.49541659617987
 20
8.0004168307687351
  9
$UNITMODE
 70
     0
  9
$VISRETAIN
 70
     1
  9
$PLINEGEN
 70
     0
  9
$PSLTSCALE
 70
     1
  0
ENDSEC
  0
SECTION
  2
TABLES
  0
TABLE
  2
VPORT
 70
     1
  0
VPORT
  2
*ACTIVE
 70
     0
 10
0.0
 20
0.0
 11
1.0
 21
1.0
 12
279.67076269964508
 22
468.31829175605549
 13
0.0
 23
0.0
 14
10.0
 24
10.0
 15
10.0
 25
10.0
 16
0.0
 26
0.0
 36
1.0
 17
0.0
 27
0.0
 37
0.0
 40
1095.8182118574559
 41
2.8109452736318401
 42
50.0
 43
0.0
 44
0.0
 50
0.0
 51
0.0
 71
     0
 72
  1000
 73
     1
 74
     3
 75
     0
 76
     1
 77
     0
 78
     0
  0
ENDTAB
  0
TABLE
  2
LTYPE
 70
     5
  0
LTYPE
  2
CONTINUOUS
 70
     0
  3
Solid line
 72
    65
 73
     0
 40
0.0
  0
ENDTAB
  0
TABLE
  2
LAYER
 70
    11
  0
LAYER
  2
0
 70
     0
 62
     7
  6
CONTINUOUS
  0
LAYER
  2
C_COTAS
 70
     2
 62
     1
  6
CONTINUOUS
  0
LAYER
  2
DEFPOINTS
 70
     0
 62
   254
  6
CONTINUOUS
  0
LAYER
  2
DLV_DIBUJO_LINEAS_VISIBLE
 70
     0
 62
     7
  6
CONTINUOUS
  0
ENDTAB
  0
TABLE
  2
STYLE
 70
     3
  0
STYLE
  2
STANDARD
 70
     0
 40
0.0
 41
1.0
 50
0.0
 71
     0
 42
2.5
  3
txt
  4

  0
STYLE
  2
ESTILO_MARC_DC
 70
     0
 40
10.0
 41
1.0
 50
0.0
 71
     0
 42
2.5
  3
txt
  4

  0
ENDTAB
  0
TABLE
  2
VIEW
 70
     4
  0
ENDTAB
  0
TABLE
  2
UCS
 70
     0
  0
ENDTAB
  0
TABLE
  2
APPID
 70
    23
  0
APPID
  2
ACAD
 70
     0
  0
APPID
  2
ACADANNOTATIVE
 70
     0
  0
APPID
  2
ACAD_PSEXT
 70
     0
  0
APPID
  2
ACADANNOPO
 70
     0
  0
APPID
  2
ACAD_DSTYLE_DIMJAG
 70
     0
  0
APPID
  2
ACAD_DSTYLE_DIMTALN
 70
     0
  0
APPID
  2
ACAD_MLEADERVER
 70
     0
  0
APPID
  2
ACAD_NAV_VCDISPLAY
 70
     0
  0
APPID
  2
ACAD_EXEMPT_FROM_CAD_STANDARDS
 70
     0
  0
APPID
  2
ACAECLAYERSTANDARD
 70
     0
  0
APPID
  2
ACCMTRANSPARENCY
 70
     0
  0
APPID
  2
ACAD_DIMASSOC_CALC_DIMLFAC
 70
     0
  0
APPID
  2
ACAD_DIMASSOC_DIMLFAC
 70
     0
  0
APPID
  2
ACAD_DIMASSOC_OVERRIDDEN_D
 70
     0
  0
APPID
  2
ACAD_DSTYLE_DIMRADIAL_EXTENSION
 70
     0
  0
APPID
  2
ACAD_DSTYLE_DIMJOGGED_JOGA
 70
     0
  0
APPID
  2
ACAUTHENVIRON
 70
     0
  0
APPID
  2
ACDBDYNAMICBLOCKTRUENAME
 70
     0
  0
APPID
  2
ACDBDYNAMICBLOCKGUID
 70
     0
  0
APPID
  2
ACADANNOMONITORALERTICONDI
 70
     0
  0
APPID
  2
GRADIENTCOLOR1ACI
 70
     0
  0
APPID
  2
GRADIENTCOLOR2ACI
 70
     0
  0
APPID
  2
CONTENTBLOCKICON
 70
     0
  0
ENDTAB
  0
TABLE
  2
DIMSTYLE
 70
     3
  0
DIMSTYLE
  2
STANDARD
 70
     0
  3

  4

  5

  6

  7

 40
1.0
 41
0.18
 42
0.0625
 43
0.38
 44
0.18
 45
0.0
 46
0.0
 47
0.0
 48
0.0
140
0.18
141
0.09
142
0.0
143
25.399999999999999
144
1.0
145
0.0
146
1.0
147
0.09
 71
     0
 72
     0
 73
     1
 74
     1
 75
     0
 76
     0
 77
     0
 78
     0
170
     0
171
     2
172
     0
173
     0
174
     0
175
     0
176
     0
177
     0
178
     0
  0
DIMSTYLE
  2
ISO-25
 70
     0
  3

  4

  5

  6

  7

 40
1.0
 41
2.5
 42
0.625
 43
3.75
 44
1.25
 45
0.0
 46
0.0
 47
0.0
 48
0.0
140
2.5
141
2.5
142
0.0
143
0.03937007874016
144
1.0
145
0.0
146
1.0
147
0.625
 71
     0
 72
     0
 73
     0
 74
     0
 75
     0
 76
     0
 77
     1
 78
     8
170
     0
171
     3
172
     1
173
     0
174
     0
175
     0
176
     0
177
     0
178
     0
  0
ENDTAB
  0
ENDSEC
  0
SECTION
  2
BLOCKS
  0
BLOCK
  8
0
  2
$MODEL_SPACE
 70
     0
 10
0.0
 20
0.0
 30
0.0
  3
$MODEL_SPACE
  1

  0
ENDBLK
  5
31DAE
  8
0
  0
BLOCK
 67
     1
  8
0
  2
$PAPER_SPACE
 70
     0
 10
0.0
 20
0.0
 30
0.0
  3
$PAPER_SPACE
  1

  0
ENDBLK
  5
32478
 67
     1
  8
0
  0
BLOCK
  8
0
  2
PARET_LLARGA__ALÇAT
 70
     0
 10
0.0
 20
0.0
 30
0.0
  3
PARET_LLARGA__ALÇAT
  1

  0
POLYLINE
  5
2C0FF
  8
DLV_DIBUJO_LINEAS_VISIBLE
 66
     1
 10
0.0
 20
0.0
 30
0.0
  0
VERTEX
  5
324FC
  8
DLV_DIBUJO_LINEAS_VISIBLE
 10
377.86346183584459
 20
679.56155309860685
 30
0.0
  0
VERTEX
  5
324FD
  8
DLV_DIBUJO_LINEAS_VISIBLE
 10
671.86346183584465
 20
679.56155309860685
 30
0.0
  0
SEQEND
  5
324FE
  8
DLV_DIBUJO_LINEAS_VISIBLE
  0
POLYLINE
  5
2C100
  8
DLV_DIBUJO_LINEAS_VISIBLE
 66
     1
 10
0.0
 20
0.0
 30
0.0
  0
VERTEX
  5
324FF
  8
DLV_DIBUJO_LINEAS_VISIBLE
 10
671.86346183584465
 20
829.56155309860674
 30
0.0
  0
VERTEX
  5
32500
  8
DLV_DIBUJO_LINEAS_VISIBLE
 10
377.86346183584459
 20
829.56155309860674
 30
0.0
  0
SEQEND
  5
32501
  8
DLV_DIBUJO_LINEAS_VISIBLE
  0
LINE
  5
2C101
  8
DLV_DIBUJO_LINEAS_VISIBLE
 10
389.86346183584482
 20
814.56155309860685
 30
0.0
 11
519.86346183584465
 21
814.56155309860685
 31
0.0
  0
LINE
  5
2C102
  8
DLV_DIBUJO_LINEAS_VISIBLE
 10
529.86346183584465
 20
814.56155309860685
 30
0.0
 11
659.86346183584465
 21
814.56155309860685
 31
0.0
  0
LINE
  5
2C103
  8
DLV_DIBUJO_LINEAS_VISIBLE
 10
389.86346183584459
 20
694.56155309860719
 30
0.0
 11
519.86346183584465
 21
694.56155309860719
 31
0.0
  0
LINE
  5
2C104
  8
DLV_DIBUJO_LINEAS_VISIBLE
 10
529.86346183584465
 20
694.56155309860719
 30
0.0
 11
659.86346183584465
 21
694.56155309860685
 31
0.0
  0
LINE
  5
2C105
  8
DLV_DIBUJO_LINEAS_VISIBLE
 10
659.86346183584453
 20
694.56155309860685
 30
0.0
 11
659.86346183584453
 21
749.56155309860685
 31
0.0
  0
LINE
  5
2C106
  8
DLV_DIBUJO_LINEAS_VISIBLE
 10
659.86346183584453
 20
759.56155309860674
 30
0.0
 11
659.86346183584465
 21
814.56155309860662
 31
0.0
  0
LINE
  5
2C107
  8
DLV_DIBUJO_LINEAS_VISIBLE
 10
389.86346183584459
 20
814.56155309860685
 30
0.0
 11
389.86346183584459
 21
759.56155309860674
 31
0.0
  0
LINE
  5
2C108
  8
DLV_DIBUJO_LINEAS_VISIBLE
 10
389.86346183584459
 20
749.56155309860685
 30
0.0
 11
389.86346183584459
 21
694.56155309860719
 31
0.0
  0
LINE
  5
2C109
  8
DLV_DIBUJO_LINEAS_VISIBLE
 10
389.86346183584459
 20
759.56155309860674
 30
0.0
 11
519.86346183584465
 21
759.56155309860685
 31
0.0
  0
LINE
  5
2C10A
  8
DLV_DIBUJO_LINEAS_VISIBLE
 10
529.86346183584465
 20
759.56155309860685
 30
0.0
 11
659.86346183584465
 21
759.56155309860674
 31
0.0
  0
LINE
  5
2C10B
  8
DLV_DIBUJO_LINEAS_VISIBLE
 10
389.86346183584459
 20
749.56155309860685
 30
0.0
 11
519.86346183584465
 21
749.56155309860708
 31
0.0
  0
LINE
  5
2C10C
  8
DLV_DIBUJO_LINEAS_VISIBLE
 10
529.86346183584465
 20
749.56155309860708
 30
0.0
 11
659.86346183584465
 21
749.56155309860685
 31
0.0
  0
LINE
  5
2C10D
  8
DLV_DIBUJO_LINEAS_VISIBLE
 10
519.86346183584465
 20
814.56155309860685
 30
0.0
 11
519.86346183584465
 21
759.56155309860685
 31
0.0
  0
LINE
  5
2C10E
  8
DLV_DIBUJO_LINEAS_VISIBLE
 10
519.86346183584465
 20
749.56155309860708
 30
0.0
 11
519.86346183584465
 21
694.56155309860685
 31
0.0
  0
LINE
  5
2C10F
  8
DLV_DIBUJO_LINEAS_VISIBLE
 10
529.86346183584465
 20
814.56155309860685
 30
0.0
 11
529.86346183584465
 21
759.56155309860685
 31
0.0
  0
LINE
  5
2C110
  8
DLV_DIBUJO_LINEAS_VISIBLE
 10
529.86346183584465
 20
749.56155309860708
 30
0.0
 11
529.86346183584465
 21
694.56155309860685
 31
0.0
  0
LINE
  5
2C111
  8
DLV_DIBUJO_LINEAS_VISIBLE
 10
671.86346183584465
 20
829.56155309860674
 30
0.0
 11
671.86346183584465
 21
819.56155309860674
 31
0.0
  0
LINE
  5
2C112
  8
DLV_DIBUJO_LINEAS_VISIBLE
 10
671.86346183584465
 20
819.56155309860674
 30
0.0
 11
674.86346183584476
 21
819.56155309860674
 31
0.0
  0
LINE
  5
2C113
  8
DLV_DIBUJO_LINEAS_VISIBLE
 10
674.86346183584476
 20
819.56155309860674
 30
0.0
 11
674.86346183584476
 21
809.56155309860685
 31
0.0
  0
LINE
  5
2C114
  8
DLV_DIBUJO_LINEAS_VISIBLE
 10
674.86346183584476
 20
809.56155309860685
 30
0.0
 11
671.86346183584465
 21
809.56155309860685
 31
0.0
  0
LINE
  5
2C115
  8
DLV_DIBUJO_LINEAS_VISIBLE
 10
671.86346183584465
 20
809.56155309860685
 30
0.0
 11
671.86346183584465
 21
799.56155309860685
 31
0.0
  0
LINE
  5
2C116
  8
DLV_DIBUJO_LINEAS_VISIBLE
 10
671.86346183584465
 20
799.56155309860685
 30
0.0
 11
674.86346183584476
 21
799.56155309860685
 31
0.0
  0
LINE
  5
2C117
  8
DLV_DIBUJO_LINEAS_VISIBLE
 10
674.86346183584476
 20
799.56155309860685
 30
0.0
 11
674.86346183584476
 21
789.56155309860674
 31
0.0
  0
LINE
  5
2C118
  8
DLV_DIBUJO_LINEAS_VISIBLE
 10
674.86346183584476
 20
789.56155309860674
 30
0.0
 11
671.86346183584465
 21
789.56155309860674
 31
0.0
  0
LINE
  5
2C119
  8
DLV_DIBUJO_LINEAS_VISIBLE
 10
671.86346183584465
 20
789.56155309860674
 30
0.0
 11
671.86346183584465
 21
779.56155309860674
 31
0.0
  0
LINE
  5
2C11A
  8
DLV_DIBUJO_LINEAS_VISIBLE
 10
671.86346183584465
 20
779.56155309860674
 30
0.0
 11
674.86346183584476
 21
779.56155309860674
 31
0.0
  0
LINE
  5
2C11B
  8
DLV_DIBUJO_LINEAS_VISIBLE
 10
674.86346183584476
 20
779.56155309860674
 30
0.0
 11
674.86346183584476
 21
769.56155309860674
 31
0.0
  0
LINE
  5
2C11C
  8
DLV_DIBUJO_LINEAS_VISIBLE
 10
674.86346183584476
 20
769.56155309860674
 30
0.0
 11
671.86346183584465
 21
769.56155309860674
 31
0.0
  0
LINE
  5
2C11D
  8
DLV_DIBUJO_LINEAS_VISIBLE
 10
671.86346183584465
 20
769.56155309860674
 30
0.0
 11
671.86346183584465
 21
759.56155309860674
 31
0.0
  0
LINE
  5
2C11E
  8
DLV_DIBUJO_LINEAS_VISIBLE
 10
671.86346183584465
 20
759.56155309860674
 30
0.0
 11
674.86346183584476
 21
759.56155309860674
 31
0.0
  0
LINE
  5
2C11F
  8
DLV_DIBUJO_LINEAS_VISIBLE
 10
674.86346183584476
 20
759.56155309860674
 30
0.0
 11
674.86346183584476
 21
749.56155309860685
 31
0.0
  0
LINE
  5
2C120
  8
DLV_DIBUJO_LINEAS_VISIBLE
 10
674.86346183584476
 20
749.56155309860685
 30
0.0
 11
671.86346183584465
 21
749.56155309860685
 31
0.0
  0
LINE
  5
2C121
  8
DLV_DIBUJO_LINEAS_VISIBLE
 10
671.86346183584465
 20
749.56155309860685
 30
0.0
 11
671.86346183584465
 21
739.56155309860674
 31
0.0
  0
LINE
  5
2C122
  8
DLV_DIBUJO_LINEAS_VISIBLE
 10
671.86346183584465
 20
739.56155309860674
 30
0.0
 11
674.86346183584476
 21
739.56155309860674
 31
0.0
  0
LINE
  5
2C123
  8
DLV_DIBUJO_LINEAS_VISIBLE
 10
674.86346183584476
 20
739.56155309860674
 30
0.0
 11
674.86346183584476
 21
729.56155309860674
 31
0.0
  0
LINE
  5
2C124
  8
DLV_DIBUJO_LINEAS_VISIBLE
 10
674.86346183584476
 20
729.56155309860674
 30
0.0
 11
671.86346183584465
 21
729.56155309860674
 31
0.0
  0
LINE
  5
2C125
  8
DLV_DIBUJO_LINEAS_VISIBLE
 10
671.86346183584465
 20
729.56155309860674
 30
0.0
 11
671.86346183584465
 21
719.56155309860685
 31
0.0
  0
LINE
  5
2C126
  8
DLV_DIBUJO_LINEAS_VISIBLE
 10
671.86346183584465
 20
719.56155309860685
 30
0.0
 11
674.86346183584476
 21
719.56155309860685
 31
0.0
  0
LINE
  5
2C127
  8
DLV_DIBUJO_LINEAS_VISIBLE
 10
674.86346183584476
 20
719.56155309860685
 30
0.0
 11
674.86346183584476
 21
709.56155309860685
 31
0.0
  0
LINE
  5
2C128
  8
DLV_DIBUJO_LINEAS_VISIBLE
 10
674.86346183584476
 20
709.56155309860685
 30
0.0
 11
671.86346183584465
 21
709.56155309860685
 31
0.0
  0
LINE
  5
2C129
  8
DLV_DIBUJO_LINEAS_VISIBLE
 10
671.86346183584465
 20
709.56155309860685
 30
0.0
 11
671.86346183584465
 21
699.56155309860708
 31
0.0
  0
LINE
  5
2C12A
  8
DLV_DIBUJO_LINEAS_VISIBLE
 10
671.86346183584465
 20
699.56155309860708
 30
0.0
 11
674.86346183584476
 21
699.56155309860708
 31
0.0
  0
LINE
  5
2C12B
  8
DLV_DIBUJO_LINEAS_VISIBLE
 10
674.86346183584476
 20
699.56155309860708
 30
0.0
 11
674.86346183584476
 21
689.56155309860685
 31
0.0
  0
LINE
  5
2C12C
  8
DLV_DIBUJO_LINEAS_VISIBLE
 10
674.86346183584476
 20
689.56155309860685
 30
0.0
 11
671.86346183584465
 21
689.56155309860685
 31
0.0
  0
LINE
  5
2C12D
  8
DLV_DIBUJO_LINEAS_VISIBLE
 10
671.86346183584465
 20
689.56155309860685
 30
0.0
 11
671.86346183584465
 21
679.56155309860685
 31
0.0
  0
LINE
  5
2C12E
  8
DLV_DIBUJO_LINEAS_VISIBLE
 10
377.86346183584459
 20
829.56155309860674
 30
0.0
 11
377.86346183584459
 21
819.56155309860674
 31
0.0
  0
LINE
  5
2C12F
  8
DLV_DIBUJO_LINEAS_VISIBLE
 10
377.86346183584459
 20
819.56155309860674
 30
0.0
 11
374.8634618358447
 21
819.56155309860674
 31
0.0
  0
LINE
  5
2C130
  8
DLV_DIBUJO_LINEAS_VISIBLE
 10
374.8634618358447
 20
819.56155309860674
 30
0.0
 11
374.8634618358447
 21
809.56155309860685
 31
0.0
  0
LINE
  5
2C131
  8
DLV_DIBUJO_LINEAS_VISIBLE
 10
374.8634618358447
 20
809.56155309860685
 30
0.0
 11
377.86346183584459
 21
809.56155309860685
 31
0.0
  0
LINE
  5
2C132
  8
DLV_DIBUJO_LINEAS_VISIBLE
 10
377.86346183584459
 20
809.56155309860685
 30
0.0
 11
377.86346183584459
 21
799.56155309860685
 31
0.0
  0
LINE
  5
2C133
  8
DLV_DIBUJO_LINEAS_VISIBLE
 10
377.86346183584459
 20
799.56155309860685
 30
0.0
 11
374.8634618358447
 21
799.56155309860685
 31
0.0
  0
LINE
  5
2C134
  8
DLV_DIBUJO_LINEAS_VISIBLE
 10
374.8634618358447
 20
799.56155309860685
 30
0.0
 11
374.8634618358447
 21
789.56155309860674
 31
0.0
  0
LINE
  5
2C135
  8
DLV_DIBUJO_LINEAS_VISIBLE
 10
374.8634618358447
 20
789.56155309860674
 30
0.0
 11
377.86346183584459
 21
789.56155309860674
 31
0.0
  0
LINE
  5
2C136
  8
DLV_DIBUJO_LINEAS_VISIBLE
 10
377.86346183584459
 20
789.56155309860674
 30
0.0
 11
377.86346183584459
 21
779.56155309860674
 31
0.0
  0
LINE
  5
2C137
  8
DLV_DIBUJO_LINEAS_VISIBLE
 10
377.86346183584459
 20
779.56155309860674
 30
0.0
 11
374.8634618358447
 21
779.56155309860674
 31
0.0
  0
LINE
  5
2C138
  8
DLV_DIBUJO_LINEAS_VISIBLE
 10
374.8634618358447
 20
779.56155309860674
 30
0.0
 11
374.8634618358447
 21
769.56155309860674
 31
0.0
  0
LINE
  5
2C139
  8
DLV_DIBUJO_LINEAS_VISIBLE
 10
374.8634618358447
 20
769.56155309860674
 30
0.0
 11
377.86346183584459
 21
769.56155309860674
 31
0.0
  0
LINE
  5
2C13A
  8
DLV_DIBUJO_LINEAS_VISIBLE
 10
377.86346183584459
 20
769.56155309860674
 30
0.0
 11
377.86346183584459
 21
759.56155309860674
 31
0.0
  0
LINE
  5
2C13B
  8
DLV_DIBUJO_LINEAS_VISIBLE
 10
377.86346183584459
 20
759.56155309860674
 30
0.0
 11
374.8634618358447
 21
759.56155309860674
 31
0.0
  0
LINE
  5
2C13C
  8
DLV_DIBUJO_LINEAS_VISIBLE
 10
374.8634618358447
 20
759.56155309860674
 30
0.0
 11
374.8634618358447
 21
749.56155309860685
 31
0.0
  0
LINE
  5
2C13D
  8
DLV_DIBUJO_LINEAS_VISIBLE
 10
374.8634618358447
 20
749.56155309860685
 30
0.0
 11
377.86346183584459
 21
749.56155309860685
 31
0.0
  0
LINE
  5
2C13E
  8
DLV_DIBUJO_LINEAS_VISIBLE
 10
377.86346183584459
 20
749.56155309860685
 30
0.0
 11
377.86346183584459
 21
739.56155309860674
 31
0.0
  0
LINE
  5
2C13F
  8
DLV_DIBUJO_LINEAS_VISIBLE
 10
377.86346183584459
 20
739.56155309860674
 30
0.0
 11
374.8634618358447
 21
739.56155309860674
 31
0.0
  0
LINE
  5
2C140
  8
DLV_DIBUJO_LINEAS_VISIBLE
 10
374.8634618358447
 20
739.56155309860674
 30
0.0
 11
374.8634618358447
 21
729.56155309860674
 31
0.0
  0
LINE
  5
2C141
  8
DLV_DIBUJO_LINEAS_VISIBLE
 10
374.8634618358447
 20
729.56155309860674
 30
0.0
 11
377.86346183584459
 21
729.56155309860674
 31
0.0
  0
LINE
  5
2C142
  8
DLV_DIBUJO_LINEAS_VISIBLE
 10
377.86346183584459
 20
729.56155309860674
 30
0.0
 11
377.86346183584459
 21
719.56155309860685
 31
0.0
  0
LINE
  5
2C143
  8
DLV_DIBUJO_LINEAS_VISIBLE
 10
377.86346183584459
 20
719.56155309860685
 30
0.0
 11
374.8634618358447
 21
719.56155309860685
 31
0.0
  0
LINE
  5
2C144
  8
DLV_DIBUJO_LINEAS_VISIBLE
 10
374.8634618358447
 20
719.56155309860685
 30
0.0
 11
374.8634618358447
 21
709.56155309860685
 31
0.0
  0
LINE
  5
2C145
  8
DLV_DIBUJO_LINEAS_VISIBLE
 10
374.8634618358447
 20
709.56155309860685
 30
0.0
 11
377.86346183584459
 21
709.56155309860685
 31
0.0
  0
LINE
  5
2C146
  8
DLV_DIBUJO_LINEAS_VISIBLE
 10
377.86346183584459
 20
709.56155309860685
 30
0.0
 11
377.86346183584459
 21
699.56155309860708
 31
0.0
  0
LINE
  5
2C147
  8
DLV_DIBUJO_LINEAS_VISIBLE
 10
377.86346183584459
 20
699.56155309860708
 30
0.0
 11
374.8634618358447
 21
699.56155309860708
 31
0.0
  0
LINE
  5
2C148
  8
DLV_DIBUJO_LINEAS_VISIBLE
 10
374.8634618358447
 20
699.56155309860708
 30
0.0
 11
374.8634618358447
 21
689.56155309860685
 31
0.0
  0
LINE
  5
2C149
  8
DLV_DIBUJO_LINEAS_VISIBLE
 10
374.8634618358447
 20
689.56155309860685
 30
0.0
 11
377.86346183584459
 21
689.56155309860685
 31
0.0
  0
LINE
  5
2C14A
  8
DLV_DIBUJO_LINEAS_VISIBLE
 10
377.86346183584459
 20
689.56155309860685
 30
0.0
 11
377.86346183584459
 21
679.56155309860685
 31
0.0
  0
ENDBLK
  5
2C0FE
  8
0
  0
BLOCK
  8
0
  2
SOSTRE_INFERIOR__ALÇAT
 70
     0
 10
0.0
 20
0.0
 30
0.0
  3
SOSTRE_INFERIOR__ALÇAT
  1

  0
LINE
  5
2C15F
  8
DLV_DIBUJO_LINEAS_VISIBLE
 10
374.8634618358447
 20
910.48012383150945
 30
0.0
 11
374.8634618358447
 21
920.47986010048874
 31
0.0
  0
LINE
  5
2C160
  8
DLV_DIBUJO_LINEAS_VISIBLE
 10
374.8634618358447
 20
930.47958931364894
 30
0.0
 11
374.8634618358447
 21
940.47932558262801
 31
0.0
  0
LINE
  5
2C161
  8
DLV_DIBUJO_LINEAS_VISIBLE
 10
674.86346183584476
 20
910.48012383150899
 30
0.0
 11
674.86346183584476
 21
920.47986010048828
 31
0.0
  0
LINE
  5
2C162
  8
DLV_DIBUJO_LINEAS_VISIBLE
 10
674.86346183584476
 20
930.47958931364872
 30
0.0
 11
674.86346183584476
 21
940.47932558262755
 31
0.0
  0
LINE
  5
2C163
  8
DLV_DIBUJO_LINEAS_VISIBLE
 10
671.86346183584453
 20
956.16834980677038
 30
0.0
 11
377.86346183584459
 21
956.16834980677038
 31
0.0
  0
LINE
  5
2C164
  8
DLV_DIBUJO_LINEAS_VISIBLE
 10
674.86346183584476
 20
940.47932558262801
 30
0.0
 11
671.86346183584465
 21
940.47932558262801
 31
0.0
  0
LINE
  5
2C165
  8
DLV_DIBUJO_LINEAS_VISIBLE
 10
377.86346183584459
 20
940.47932558262755
 30
0.0
 11
374.8634618358447
 21
940.47932558262755
 31
0.0
  0
LINE
  5
2C166
  8
DLV_DIBUJO_LINEAS_VISIBLE
 10
674.86346183584476
 20
930.47958931364872
 30
0.0
 11
671.86346183584453
 21
930.47958931364872
 31
0.0
  0
LINE
  5
2C167
  8
DLV_DIBUJO_LINEAS_VISIBLE
 10
377.86346183584459
 20
930.47958931364894
 30
0.0
 11
374.8634618358447
 21
930.47958931364894
 31
0.0
  0
LINE
  5
2C168
  8
DLV_DIBUJO_LINEAS_VISIBLE
 10
674.86346183584476
 20
920.47986010048828
 30
0.0
 11
671.86346183584453
 21
920.47986010048828
 31
0.0
  0
LINE
  5
2C169
  8
DLV_DIBUJO_LINEAS_VISIBLE
 10
377.86346183584459
 20
920.47986010048874
 30
0.0
 11
374.8634618358447
 21
920.47986010048828
 31
0.0
  0
LINE
  5
2C16A
  8
DLV_DIBUJO_LINEAS_VISIBLE
 10
674.86346183584476
 20
910.48012383150945
 30
0.0
 11
671.86346183584453
 21
910.48012383150899
 31
0.0
  0
LINE
  5
2C16B
  8
DLV_DIBUJO_LINEAS_VISIBLE
 10
377.86346183584459
 20
910.48012383150945
 30
0.0
 11
374.8634618358447
 21
910.48012383150945
 31
0.0
  0
LINE
  5
2C16C
  8
DLV_DIBUJO_LINEAS_VISIBLE
 10
671.86346183584465
 20
900.48038761505438
 30
0.0
 11
377.86346183584459
 21
900.48038761505461
 31
0.0
  0
LINE
  5
2C16D
  8
DLV_DIBUJO_LINEAS_VISIBLE
 10
671.86346183584465
 20
900.48038761505438
 30
0.0
 11
671.86346183584453
 21
910.48012383150899
 31
0.0
  0
LINE
  5
2C16E
  8
DLV_DIBUJO_LINEAS_VISIBLE
 10
671.8634618358443
 20
920.47986010048828
 30
0.0
 11
671.86346183584453
 21
930.47958931364872
 31
0.0
  0
LINE
  5
2C16F
  8
DLV_DIBUJO_LINEAS_VISIBLE
 10
671.86346183584465
 20
940.47932558262801
 30
0.0
 11
671.86346183584465
 21
956.16834980677038
 31
0.0
  0
LINE
  5
2C170
  8
DLV_DIBUJO_LINEAS_VISIBLE
 10
377.86346183584459
 20
900.48038761505438
 30
0.0
 11
377.86346183584459
 21
910.48012383150945
 31
0.0
  0
LINE
  5
2C171
  8
DLV_DIBUJO_LINEAS_VISIBLE
 10
377.86346183584459
 20
920.47986010048874
 30
0.0
 11
377.86346183584459
 21
930.47958931364894
 31
0.0
  0
LINE
  5
2C172
  8
DLV_DIBUJO_LINEAS_VISIBLE
 10
377.86346183584459
 20
940.47932558262755
 30
0.0
 11
377.86346183584459
 21
956.16834980677038
 31
0.0
  0
LINE
  5
2C173
  8
DLV_DIBUJO_LINEAS_VISIBLE
 10
659.86346183584465
 20
949.16834980676992
 30
0.0
 11
389.86346183584482
 21
949.16834980677038
 31
0.0
  0
LINE
  5
2C174
  8
DLV_DIBUJO_LINEAS_VISIBLE
 10
659.86346183584465
 20
907.4803876150545
 30
0.0
 11
389.86346183584482
 21
907.4803876150545
 31
0.0
  0
LINE
  5
2C175
  8
DLV_DIBUJO_LINEAS_VISIBLE
 10
389.86346183584482
 20
907.48038761505461
 30
0.0
 11
389.86346183584482
 21
949.16834980677038
 31
0.0
  0
LINE
  5
2C176
  8
DLV_DIBUJO_LINEAS_VISIBLE
 10
659.86346183584465
 20
907.4803876150545
 30
0.0
 11
659.86346183584453
 21
949.16834980677038
 31
0.0
  0
ENDBLK
  5
2C15E
  8
0
  0
BLOCK
  8
0
  2
SOSTRE_SUPERIOR__ALÇAT
 70
     0
 10
0.0
 20
0.0
 30
0.0
  3
SOSTRE_SUPERIOR__ALÇAT
  1

  0
LINE
  5
2C43A
  8
DLV_DIBUJO_LINEAS_VISIBLE
 10
374.8634618358447
 20
1019.37800288397
 30
0.0
 11
374.8634618358447
 21
1029.3777391004251
 31
0.0
  0
LINE
  5
2C43B
  8
DLV_DIBUJO_LINEAS_VISIBLE
 10
374.8634618358447
 20
1039.37747531688
 30
0.0
 11
374.8634618358447
 21
1049.377211533335
 31
0.0
  0
LINE
  5
2C43C
  8
DLV_DIBUJO_LINEAS_VISIBLE
 10
674.86346183584476
 20
1019.37800288397
 30
0.0
 11
674.86346183584476
 21
1029.3777391004251
 31
0.0
  0
LINE
  5
2C43D
  8
DLV_DIBUJO_LINEAS_VISIBLE
 10
674.86346183584476
 20
1039.37747531688
 30
0.0
 11
674.86346183584476
 21
1049.377211533335
 31
0.0
  0
LINE
  5
2C43E
  8
DLV_DIBUJO_LINEAS_VISIBLE
 10
671.86346183584453
 20
1059.376947749789
 30
0.0
 11
377.86346183584459
 21
1059.376947749789
 31
0.0
  0
LINE
  5
2C43F
  8
DLV_DIBUJO_LINEAS_VISIBLE
 10
674.86346183584476
 20
1049.377211533335
 30
0.0
 11
671.86346183584453
 21
1049.377211533335
 31
0.0
  0
LINE
  5
2C440
  8
DLV_DIBUJO_LINEAS_VISIBLE
 10
377.86346183584459
 20
1049.377211533335
 30
0.0
 11
374.8634618358447
 21
1049.377211533335
 31
0.0
  0
LINE
  5
2C441
  8
DLV_DIBUJO_LINEAS_VISIBLE
 10
674.86346183584476
 20
1039.37747531688
 30
0.0
 11
671.86346183584465
 21
1039.37747531688
 31
0.0
  0
LINE
  5
2C442
  8
DLV_DIBUJO_LINEAS_VISIBLE
 10
377.86346183584459
 20
1039.37747531688
 30
0.0
 11
374.8634618358447
 21
1039.37747531688
 31
0.0
  0
LINE
  5
2C443
  8
DLV_DIBUJO_LINEAS_VISIBLE
 10
674.86346183584476
 20
1029.3777391004251
 30
0.0
 11
671.86346183584453
 21
1029.3777391004251
 31
0.0
  0
LINE
  5
2C444
  8
DLV_DIBUJO_LINEAS_VISIBLE
 10
377.86346183584459
 20
1029.3777391004251
 30
0.0
 11
374.8634618358447
 21
1029.3777391004251
 31
0.0
  0
LINE
  5
2C445
  8
DLV_DIBUJO_LINEAS_VISIBLE
 10
674.86346183584476
 20
1019.37800288397
 30
0.0
 11
671.86346183584453
 21
1019.37800288397
 31
0.0
  0
LINE
  5
2C446
  8
DLV_DIBUJO_LINEAS_VISIBLE
 10
377.86346183584459
 20
1019.37800288397
 30
0.0
 11
374.8634618358447
 21
1019.37800288397
 31
0.0
  0
LINE
  5
2C447
  8
DLV_DIBUJO_LINEAS_VISIBLE
 10
671.86346183584453
 20
1004.398583141466
 30
0.0
 11
377.86346183584459
 21
1004.398583141466
 31
0.0
  0
LINE
  5
2C448
  8
DLV_DIBUJO_LINEAS_VISIBLE
 10
671.86346183584465
 20
1004.398583141466
 30
0.0
 11
671.86346183584453
 21
1019.37800288397
 31
0.0
  0
LINE
  5
2C449
  8
DLV_DIBUJO_LINEAS_VISIBLE
 10
671.86346183584453
 20
1029.3777391004251
 30
0.0
 11
671.86346183584465
 21
1039.37747531688
 31
0.0
  0
LINE
  5
2C44A
  8
DLV_DIBUJO_LINEAS_VISIBLE
 10
671.86346183584465
 20
1049.377211533335
 30
0.0
 11
671.86346183584465
 21
1059.376947749789
 31
0.0
  0
LINE
  5
2C44B
  8
DLV_DIBUJO_LINEAS_VISIBLE
 10
377.86346183584459
 20
1004.398583141466
 30
0.0
 11
377.86346183584459
 21
1019.37800288397
 31
0.0
  0
LINE
  5
2C44C
  8
DLV_DIBUJO_LINEAS_VISIBLE
 10
377.86346183584459
 20
1029.3777391004251
 30
0.0
 11
377.86346183584459
 21
1039.37747531688
 31
0.0
  0
LINE
  5
2C44D
  8
DLV_DIBUJO_LINEAS_VISIBLE
 10
377.86346183584459
 20
1049.377211533335
 30
0.0
 11
377.86346183584459
 21
1059.376947749789
 31
0.0
  0
LINE
  5
2C44E
  8
DLV_DIBUJO_LINEAS_VISIBLE
 10
659.86346183584465
 20
1052.376947749789
 30
0.0
 11
389.86346183584482
 21
1052.376947749789
 31
0.0
  0
LINE
  5
2C44F
  8
DLV_DIBUJO_LINEAS_VISIBLE
 10
659.86346183584453
 20
1011.398583141466
 30
0.0
 11
389.86346183584482
 21
1011.398583141466
 31
0.0
  0
LINE
  5
2C450
  8
DLV_DIBUJO_LINEAS_VISIBLE
 10
389.86346183584482
 20
1011.398583141466
 30
0.0
 11
389.86346183584482
 21
1052.376947749789
 31
0.0
  0
LINE
  5
2C451
  8
DLV_DIBUJO_LINEAS_VISIBLE
 10
659.86346183584453
 20
1011.398583141466
 30
0.0
 11
659.86346183584453
 21
1052.376947749789
 31
0.0
  0
ENDBLK
  5
2C439
  8
0
  0
BLOCK
  8
0
  2
PARET_CURTA__ALÇAT
 70
     0
 10
0.0
 20
0.0
 30
0.0
  3
PARET_CURTA__ALÇAT
  1

  0
LINE
  5
2C460
  8
DLV_DIBUJO_LINEAS_VISIBLE
 10
742.53007816906006
 20
679.56155309860685
 30
0.0
 11
892.53007816905995
 21
679.56155309860685
 31
0.0
  0
LINE
  5
2C461
  8
DLV_DIBUJO_LINEAS_VISIBLE
 10
742.53007816906006
 20
679.56155309860685
 30
0.0
 11
742.53007816906006
 21
689.56155309860685
 31
0.0
  0
LINE
  5
2C462
  8
DLV_DIBUJO_LINEAS_VISIBLE
 10
742.53007816906006
 20
689.56155309860685
 30
0.0
 11
745.53007816905995
 21
689.56155309860685
 31
0.0
  0
LINE
  5
2C463
  8
DLV_DIBUJO_LINEAS_VISIBLE
 10
745.53007816905995
 20
689.56155309860685
 30
0.0
 11
745.53007816905995
 21
699.56155309860708
 31
0.0
  0
LINE
  5
2C464
  8
DLV_DIBUJO_LINEAS_VISIBLE
 10
745.53007816905995
 20
699.56155309860708
 30
0.0
 11
742.53007816906006
 21
699.56155309860708
 31
0.0
  0
LINE
  5
2C465
  8
DLV_DIBUJO_LINEAS_VISIBLE
 10
742.53008235102573
 20
699.56155375168305
 30
0.0
 11
742.53008235102573
 21
709.56155375168305
 31
0.0
  0
LINE
  5
2C466
  8
DLV_DIBUJO_LINEAS_VISIBLE
 10
742.53008235102573
 20
709.56155375168305
 30
0.0
 11
745.53008235102573
 21
709.56155375168305
 31
0.0
  0
LINE
  5
2C467
  8
DLV_DIBUJO_LINEAS_VISIBLE
 10
745.53008235102573
 20
709.56155375168305
 30
0.0
 11
745.53008235102573
 21
719.56155375168316
 31
0.0
  0
LINE
  5
2C468
  8
DLV_DIBUJO_LINEAS_VISIBLE
 10
745.53008235102573
 20
719.56155375168316
 30
0.0
 11
742.53008235102573
 21
719.56155375168316
 31
0.0
  0
LINE
  5
2C469
  8
DLV_DIBUJO_LINEAS_VISIBLE
 10
742.5300865329915
 20
719.5615544047597
 30
0.0
 11
742.5300865329915
 21
729.56155440475959
 31
0.0
  0
LINE
  5
2C46A
  8
DLV_DIBUJO_LINEAS_VISIBLE
 10
742.5300865329915
 20
729.56155440475959
 30
0.0
 11
745.5300865329915
 21
729.56155440475959
 31
0.0
  0
LINE
  5
2C46B
  8
DLV_DIBUJO_LINEAS_VISIBLE
 10
745.5300865329915
 20
729.56155440475959
 30
0.0
 11
745.5300865329915
 21
739.56155440475925
 31
0.0
  0
LINE
  5
2C46C
  8
DLV_DIBUJO_LINEAS_VISIBLE
 10
745.5300865329915
 20
739.56155440475925
 30
0.0
 11
742.5300865329915
 21
739.56155440475925
 31
0.0
  0
LINE
  5
2C46D
  8
DLV_DIBUJO_LINEAS_VISIBLE
 10
742.53009071495694
 20
739.56155505783579
 30
0.0
 11
742.53009071495694
 21
749.56155505783568
 31
0.0
  0
LINE
  5
2C46E
  8
DLV_DIBUJO_LINEAS_VISIBLE
 10
742.53009071495694
 20
749.56155505783568
 30
0.0
 11
745.53009071495694
 21
749.56155505783568
 31
0.0
  0
LINE
  5
2C46F
  8
DLV_DIBUJO_LINEAS_VISIBLE
 10
745.53009071495694
 20
749.56155505783568
 30
0.0
 11
745.53009071495694
 21
759.56155505783579
 31
0.0
  0
LINE
  5
2C470
  8
DLV_DIBUJO_LINEAS_VISIBLE
 10
745.53009071495694
 20
759.56155505783579
 30
0.0
 11
742.53009071495694
 21
759.56155505783579
 31
0.0
  0
LINE
  5
2C471
  8
DLV_DIBUJO_LINEAS_VISIBLE
 10
742.53009489692295
 20
759.5615557109121
 30
0.0
 11
742.53009489692295
 21
769.56155571091222
 31
0.0
  0
LINE
  5
2C472
  8
DLV_DIBUJO_LINEAS_VISIBLE
 10
742.53009489692295
 20
769.56155571091222
 30
0.0
 11
745.53009489692295
 21
769.56155571091222
 31
0.0
  0
LINE
  5
2C473
  8
DLV_DIBUJO_LINEAS_VISIBLE
 10
745.53009489692295
 20
769.56155571091222
 30
0.0
 11
745.53009489692295
 21
779.56155571091222
 31
0.0
  0
LINE
  5
2C474
  8
DLV_DIBUJO_LINEAS_VISIBLE
 10
745.53009489692295
 20
779.56155571091222
 30
0.0
 11
742.53009489692295
 21
779.56155571091222
 31
0.0
  0
LINE
  5
2C475
  8
DLV_DIBUJO_LINEAS_VISIBLE
 10
742.53009907888827
 20
779.56155636398853
 30
0.0
 11
742.53009907888827
 21
789.56155636398853
 31
0.0
  0
LINE
  5
2C476
  8
DLV_DIBUJO_LINEAS_VISIBLE
 10
742.53009907888827
 20
789.56155636398853
 30
0.0
 11
745.53009907888838
 21
789.56155636398853
 31
0.0
  0
LINE
  5
2C477
  8
DLV_DIBUJO_LINEAS_VISIBLE
 10
745.53009907888838
 20
789.56155636398853
 30
0.0
 11
745.53009907888838
 21
799.56155636398853
 31
0.0
  0
LINE
  5
2C478
  8
DLV_DIBUJO_LINEAS_VISIBLE
 10
745.53009907888838
 20
799.56155636398853
 30
0.0
 11
742.53009907888827
 21
799.56155636398853
 31
0.0
  0
LINE
  5
2C479
  8
DLV_DIBUJO_LINEAS_VISIBLE
 10
742.53010326085405
 20
799.56155701706484
 30
0.0
 11
742.53010326085405
 21
809.56155701706484
 31
0.0
  0
LINE
  5
2C47A
  8
DLV_DIBUJO_LINEAS_VISIBLE
 10
742.53010326085405
 20
809.56155701706484
 30
0.0
 11
745.53010326085416
 21
809.56155701706484
 31
0.0
  0
LINE
  5
2C47B
  8
DLV_DIBUJO_LINEAS_VISIBLE
 10
745.53010326085416
 20
809.56155701706484
 30
0.0
 11
745.53010326085416
 21
819.56155701706484
 31
0.0
  0
LINE
  5
2C47C
  8
DLV_DIBUJO_LINEAS_VISIBLE
 10
745.53010326085416
 20
819.56155701706484
 30
0.0
 11
742.53010326085405
 21
819.56155701706484
 31
0.0
  0
LINE
  5
2C47D
  8
DLV_DIBUJO_LINEAS_VISIBLE
 10
742.53010744281971
 20
819.56155767014116
 30
0.0
 11
742.53010744281971
 21
829.56155767014116
 31
0.0
  0
LINE
  5
2C47E
  8
DLV_DIBUJO_LINEAS_VISIBLE
 10
892.53007816905995
 20
679.56155309860685
 30
0.0
 11
892.53007816905995
 21
689.56155309860685
 31
0.0
  0
LINE
  5
2C47F
  8
DLV_DIBUJO_LINEAS_VISIBLE
 10
892.53007816905995
 20
689.56155309860685
 30
0.0
 11
889.53007816905995
 21
689.56155309860685
 31
0.0
  0
LINE
  5
2C480
  8
DLV_DIBUJO_LINEAS_VISIBLE
 10
889.53007816905995
 20
689.56155309860685
 30
0.0
 11
889.53007816905995
 21
699.56155309860708
 31
0.0
  0
LINE
  5
2C481
  8
DLV_DIBUJO_LINEAS_VISIBLE
 10
889.53007816905995
 20
699.56155309860708
 30
0.0
 11
892.53007816905995
 21
699.56155309860708
 31
0.0
  0
LINE
  5
2C482
  8
DLV_DIBUJO_LINEAS_VISIBLE
 10
892.5300739870944
 20
699.56155375168305
 30
0.0
 11
892.5300739870944
 21
709.56155375168305
 31
0.0
  0
LINE
  5
2C483
  8
DLV_DIBUJO_LINEAS_VISIBLE
 10
892.5300739870944
 20
709.56155375168305
 30
0.0
 11
889.53007398709451
 21
709.56155375168305
 31
0.0
  0
LINE
  5
2C484
  8
DLV_DIBUJO_LINEAS_VISIBLE
 10
889.53007398709451
 20
709.56155375168305
 30
0.0
 11
889.53007398709451
 21
719.56155375168316
 31
0.0
  0
LINE
  5
2C485
  8
DLV_DIBUJO_LINEAS_VISIBLE
 10
889.53007398709451
 20
719.56155375168316
 30
0.0
 11
892.5300739870944
 21
719.56155375168316
 31
0.0
  0
LINE
  5
2C486
  8
DLV_DIBUJO_LINEAS_VISIBLE
 10
892.53006980512862
 20
719.5615544047597
 30
0.0
 11
892.53006980512862
 21
729.56155440475959
 31
0.0
  0
LINE
  5
2C487
  8
DLV_DIBUJO_LINEAS_VISIBLE
 10
892.53006980512862
 20
729.56155440475959
 30
0.0
 11
889.53006980512862
 21
729.56155440475959
 31
0.0
  0
LINE
  5
2C488
  8
DLV_DIBUJO_LINEAS_VISIBLE
 10
889.53006980512862
 20
729.56155440475959
 30
0.0
 11
889.53006980512862
 21
739.56155440475925
 31
0.0
  0
LINE
  5
2C489
  8
DLV_DIBUJO_LINEAS_VISIBLE
 10
889.53006980512862
 20
739.56155440475925
 30
0.0
 11
892.53006980512862
 21
739.56155440475925
 31
0.0
  0
LINE
  5
2C48A
  8
DLV_DIBUJO_LINEAS_VISIBLE
 10
892.53006562316318
 20
739.56155505783579
 30
0.0
 11
892.53006562316318
 21
749.56155505783568
 31
0.0
  0
LINE
  5
2C48B
  8
DLV_DIBUJO_LINEAS_VISIBLE
 10
892.53006562316318
 20
749.56155505783568
 30
0.0
 11
889.53006562316295
 21
749.56155505783568
 31
0.0
  0
LINE
  5
2C48C
  8
DLV_DIBUJO_LINEAS_VISIBLE
 10
889.53006562316295
 20
749.56155505783568
 30
0.0
 11
889.53006562316295
 21
759.56155505783579
 31
0.0
  0
LINE
  5
2C48D
  8
DLV_DIBUJO_LINEAS_VISIBLE
 10
889.53006562316295
 20
759.56155505783579
 30
0.0
 11
892.53006562316318
 21
759.56155505783579
 31
0.0
  0
LINE
  5
2C48E
  8
DLV_DIBUJO_LINEAS_VISIBLE
 10
892.53006144119752
 20
759.5615557109121
 30
0.0
 11
892.53006144119752
 21
769.56155571091222
 31
0.0
  0
LINE
  5
2C48F
  8
DLV_DIBUJO_LINEAS_VISIBLE
 10
892.53006144119752
 20
769.56155571091222
 30
0.0
 11
889.53006144119763
 21
769.56155571091222
 31
0.0
  0
LINE
  5
2C490
  8
DLV_DIBUJO_LINEAS_VISIBLE
 10
889.53006144119763
 20
769.56155571091222
 30
0.0
 11
889.53006144119763
 21
779.56155571091222
 31
0.0
  0
LINE
  5
2C491
  8
DLV_DIBUJO_LINEAS_VISIBLE
 10
889.53006144119763
 20
779.56155571091222
 30
0.0
 11
892.53006144119752
 21
779.56155571091222
 31
0.0
  0
LINE
  5
2C492
  8
DLV_DIBUJO_LINEAS_VISIBLE
 10
892.53005725923185
 20
779.56155636398853
 30
0.0
 11
892.53005725923185
 21
789.56155636398853
 31
0.0
  0
LINE
  5
2C493
  8
DLV_DIBUJO_LINEAS_VISIBLE
 10
892.53005725923185
 20
789.56155636398853
 30
0.0
 11
889.53005725923185
 21
789.56155636398853
 31
0.0
  0
LINE
  5
2C494
  8
DLV_DIBUJO_LINEAS_VISIBLE
 10
889.53005725923185
 20
789.56155636398853
 30
0.0
 11
889.53005725923185
 21
799.56155636398853
 31
0.0
  0
LINE
  5
2C495
  8
DLV_DIBUJO_LINEAS_VISIBLE
 10
889.53005725923185
 20
799.56155636398853
 30
0.0
 11
892.53005725923185
 21
799.56155636398853
 31
0.0
  0
LINE
  5
2C496
  8
DLV_DIBUJO_LINEAS_VISIBLE
 10
892.53005307726585
 20
799.56155701706484
 30
0.0
 11
892.53005307726585
 21
809.56155701706484
 31
0.0
  0
LINE
  5
2C497
  8
DLV_DIBUJO_LINEAS_VISIBLE
 10
892.53005307726585
 20
809.56155701706484
 30
0.0
 11
889.53005307726619
 21
809.56155701706484
 31
0.0
  0
LINE
  5
2C498
  8
DLV_DIBUJO_LINEAS_VISIBLE
 10
889.53005307726619
 20
809.56155701706484
 30
0.0
 11
889.53005307726619
 21
819.56155701706484
 31
0.0
  0
LINE
  5
2C499
  8
DLV_DIBUJO_LINEAS_VISIBLE
 10
889.53005307726619
 20
819.56155701706484
 30
0.0
 11
892.53005307726585
 21
819.56155701706484
 31
0.0
  0
LINE
  5
2C49A
  8
DLV_DIBUJO_LINEAS_VISIBLE
 10
892.53004889530064
 20
819.56155767014116
 30
0.0
 11
892.53004889530064
 21
829.56155767014116
 31
0.0
  0
LINE
  5
2C49B
  8
DLV_DIBUJO_LINEAS_VISIBLE
 10
742.75676265594689
 20
830.70554657093408
 30
0.0
 11
746.57007423037089
 21
839.94993161464345
 31
0.0
  0
LINE
  5
2C49C
  8
DLV_DIBUJO_LINEAS_VISIBLE
 10
746.57007423037089
 20
839.94993161464345
 30
0.0
 11
749.34338974348384
 21
838.80593814231645
 31
0.0
  0
LINE
  5
2C49D
  8
DLV_DIBUJO_LINEAS_VISIBLE
 10
749.34338974348384
 20
838.80593814231645
 30
0.0
 11
753.15670131790785
 21
848.05032318602628
 31
0.0
  0
LINE
  5
2C49E
  8
DLV_DIBUJO_LINEAS_VISIBLE
 10
753.15670131790785
 20
848.05032318602628
 30
0.0
 11
750.38338580479513
 21
849.19431665835327
 31
0.0
  0
LINE
  5
2C49F
  8
DLV_DIBUJO_LINEAS_VISIBLE
 10
750.38337644919807
 20
849.19431294161302
 30
0.0
 11
754.19668802362219
 21
858.43869798532285
 31
0.0
  0
LINE
  5
2C4A0
  8
DLV_DIBUJO_LINEAS_VISIBLE
 10
754.19668802362219
 20
858.43869798532285
 30
0.0
 11
756.97000353673525
 21
857.29470451299551
 31
0.0
  0
LINE
  5
2C4A1
  8
DLV_DIBUJO_LINEAS_VISIBLE
 10
756.97000353673525
 20
857.29470451299551
 30
0.0
 11
760.78331511115925
 21
866.53908955670533
 31
0.0
  0
LINE
  5
2C4A2
  8
DLV_DIBUJO_LINEAS_VISIBLE
 10
760.78331511115925
 20
866.53908955670533
 30
0.0
 11
758.00999959804631
 21
867.68308302903245
 31
0.0
  0
LINE
  5
2C4A3
  8
DLV_DIBUJO_LINEAS_VISIBLE
 10
758.00999024244913
 20
867.68307931229185
 30
0.0
 11
763.99286453799505
 21
882.18700656205772
 31
0.0
  0
LINE
  5
2C4A4
  8
DLV_DIBUJO_LINEAS_VISIBLE
 10
742.75676265594689
 20
830.70554657093408
 30
0.0
 11
742.53010744281971
 21
829.56155309860674
 31
0.0
  0
LINE
  5
2C4A5
  8
DLV_DIBUJO_LINEAS_VISIBLE
 10
816.37797350528365
 20
904.92713036991302
 30
0.0
 11
807.14478767992466
 21
901.08678149065929
 31
0.0
  0
LINE
  5
2C4A6
  8
DLV_DIBUJO_LINEAS_VISIBLE
 10
807.14478767992466
 20
901.08678149065929
 30
0.0
 11
808.29689234370073
 21
898.31682574305148
 31
0.0
  0
LINE
  5
2C4A7
  8
DLV_DIBUJO_LINEAS_VISIBLE
 10
808.29689234370073
 20
898.31682574305148
 30
0.0
 11
799.06370651834163
 21
894.4764768637973
 31
0.0
  0
LINE
  5
2C4A8
  8
DLV_DIBUJO_LINEAS_VISIBLE
 10
799.06370651834163
 20
894.4764768637973
 30
0.0
 11
797.91160185456545
 21
897.24643261140454
 31
0.0
  0
LINE
  5
2C4A9
  8
DLV_DIBUJO_LINEAS_VISIBLE
 10
797.91160185456545
 20
897.24643261140454
 30
0.0
 11
788.67841602920657
 21
893.40608373215059
 31
0.0
  0
LINE
  5
2C4AA
  8
DLV_DIBUJO_LINEAS_VISIBLE
 10
788.67841602920657
 20
893.40608373215059
 30
0.0
 11
789.83052069298265
 21
890.63612798454301
 31
0.0
  0
LINE
  5
2C4AB
  8
DLV_DIBUJO_LINEAS_VISIBLE
 10
789.83052069298265
 20
890.63612798454301
 30
0.0
 11
780.59733486762354
 21
886.79577910528872
 31
0.0
  0
LINE
  5
2C4AC
  8
DLV_DIBUJO_LINEAS_VISIBLE
 10
780.59733486762354
 20
886.79577910528872
 30
0.0
 11
779.44523020384725
 21
889.5657348528963
 31
0.0
  0
LINE
  5
2C4AD
  8
DLV_DIBUJO_LINEAS_VISIBLE
 10
779.44523020384725
 20
889.5657348528963
 30
0.0
 11
765.61408875723623
 21
883.81296332224883
 31
0.0
  0
LINE
  5
2C4AE
  8
DLV_DIBUJO_LINEAS_VISIBLE
 10
763.99287790789936
 20
882.18700104696836
 30
0.0
 11
765.61408875723623
 21
883.81296332224883
 31
0.0
  0
LINE
  5
2C4AF
  8
DLV_DIBUJO_LINEAS_VISIBLE
 10
892.30342295593266
 20
830.70554657093408
 30
0.0
 11
888.49011138150865
 21
839.94993161464345
 31
0.0
  0
LINE
  5
2C4B0
  8
DLV_DIBUJO_LINEAS_VISIBLE
 10
888.49011138150865
 20
839.94993161464345
 30
0.0
 11
885.71679586839571
 21
838.80593814231645
 31
0.0
  0
LINE
  5
2C4B1
  8
DLV_DIBUJO_LINEAS_VISIBLE
 10
885.71679586839571
 20
838.80593814231645
 30
0.0
 11
881.90348429397181
 21
848.05032318602628
 31
0.0
  0
LINE
  5
2C4B2
  8
DLV_DIBUJO_LINEAS_VISIBLE
 10
881.90348429397181
 20
848.05032318602628
 30
0.0
 11
884.67679980708465
 21
849.19431665835327
 31
0.0
  0
LINE
  5
2C4B3
  8
DLV_DIBUJO_LINEAS_VISIBLE
 10
884.67680916268148
 20
849.19431294161302
 30
0.0
 11
880.86349758825759
 21
858.43869798532285
 31
0.0
  0
LINE
  5
2C4B4
  8
DLV_DIBUJO_LINEAS_VISIBLE
 10
880.86349758825759
 20
858.43869798532285
 30
0.0
 11
878.09018207514475
 21
857.29470451299551
 31
0.0
  0
LINE
  5
2C4B5
  8
DLV_DIBUJO_LINEAS_VISIBLE
 10
878.09018207514475
 20
857.29470451299551
 30
0.0
 11
874.27687050072063
 21
866.53908955670533
 31
0.0
  0
LINE
  5
2C4B6
  8
DLV_DIBUJO_LINEAS_VISIBLE
 10
874.27687050072063
 20
866.53908955670533
 30
0.0
 11
877.05018601383358
 21
867.68308302903245
 31
0.0
  0
LINE
  5
2C4B7
  8
DLV_DIBUJO_LINEAS_VISIBLE
 10
877.05019536943053
 20
867.68307931229185
 30
0.0
 11
871.06732107388461
 21
882.18700656205772
 31
0.0
  0
LINE
  5
2C4B8
  8
DLV_DIBUJO_LINEAS_VISIBLE
 10
892.30342295593266
 20
830.70554657093408
 30
0.0
 11
892.53007816905995
 21
829.56155309860674
 31
0.0
  0
LINE
  5
2C4B9
  8
DLV_DIBUJO_LINEAS_VISIBLE
 10
818.68221210659613
 20
904.92713036991302
 30
0.0
 11
827.915397931955
 21
901.08678149065929
 31
0.0
  0
LINE
  5
2C4BA
  8
DLV_DIBUJO_LINEAS_VISIBLE
 10
827.915397931955
 20
901.08678149065929
 30
0.0
 11
826.76329326817881
 21
898.31682574305148
 31
0.0
  0
LINE
  5
2C4BB
  8
DLV_DIBUJO_LINEAS_VISIBLE
 10
826.76329326817881
 20
898.31682574305148
 30
0.0
 11
835.99647909353791
 21
894.4764768637973
 31
0.0
  0
LINE
  5
2C4BC
  8
DLV_DIBUJO_LINEAS_VISIBLE
 10
835.99647909353791
 20
894.4764768637973
 30
0.0
 11
837.14858375731433
 21
897.24643261140454
 31
0.0
  0
LINE
  5
2C4BD
  8
DLV_DIBUJO_LINEAS_VISIBLE
 10
837.14858375731433
 20
897.24643261140454
 30
0.0
 11
846.38176958267309
 21
893.40608373215059
 31
0.0
  0
LINE
  5
2C4BE
  8
DLV_DIBUJO_LINEAS_VISIBLE
 10
846.38176958267309
 20
893.40608373215059
 30
0.0
 11
845.2296649188969
 21
890.63612798454301
 31
0.0
  0
LINE
  5
2C4BF
  8
DLV_DIBUJO_LINEAS_VISIBLE
 10
845.2296649188969
 20
890.63612798454301
 30
0.0
 11
854.462850744256
 21
886.79577910528872
 31
0.0
  0
LINE
  5
2C4C0
  8
DLV_DIBUJO_LINEAS_VISIBLE
 10
854.462850744256
 20
886.79577910528872
 30
0.0
 11
855.61495540803242
 21
889.5657348528963
 31
0.0
  0
LINE
  5
2C4C1
  8
DLV_DIBUJO_LINEAS_VISIBLE
 10
855.61495540803242
 20
889.5657348528963
 30
0.0
 11
869.44609685464354
 21
883.81296332224883
 31
0.0
  0
LINE
  5
2C4C2
  8
DLV_DIBUJO_LINEAS_VISIBLE
 10
871.0673077039803
 20
882.18700104696836
 30
0.0
 11
869.44609685464354
 21
883.81296332224883
 31
0.0
  0
LINE
  5
2C4C3
  8
DLV_DIBUJO_LINEAS_VISIBLE
 10
816.37797350528365
 20
904.92713036991302
 30
0.0
 11
818.68218283283625
 21
904.92713036991302
 31
0.0
  0
LINE
  5
2C4C4
  8
DLV_DIBUJO_LINEAS_VISIBLE
 10
757.5300781690604
 20
679.56155309860685
 30
0.0
 11
757.5300781690604
 21
679.56155309860685
 31
0.0
  0
LINE
  5
2C4C5
  8
DLV_DIBUJO_LINEAS_VISIBLE
 10
757.5300781690604
 20
694.56155309860685
 30
0.0
 11
877.53007816906006
 21
694.56155309860685
 31
0.0
  0
LINE
  5
2C4C6
  8
DLV_DIBUJO_LINEAS_VISIBLE
 10
877.53007816906029
 20
694.56155309860685
 30
0.0
 11
877.53007816906006
 21
822.06155309860685
 31
0.0
  0
LINE
  5
2C4C7
  8
DLV_DIBUJO_LINEAS_VISIBLE
 10
757.5300781690604
 20
694.56155309860685
 30
0.0
 11
757.5300781690604
 21
822.06155309860708
 31
0.0
  0
LINE
  5
2C4C8
  8
DLV_DIBUJO_LINEAS_VISIBLE
 10
757.5300781690604
 20
822.06155309860685
 30
0.0
 11
877.53007816906006
 21
822.06155309860685
 31
0.0
  0
LINE
  5
2C4C9
  8
DLV_DIBUJO_LINEAS_VISIBLE
 10
763.62382257274965
 20
837.06155309860685
 30
0.0
 11
817.53007816905995
 21
837.06155309860685
 31
0.0
  0
LINE
  5
2C4CA
  8
DLV_DIBUJO_LINEAS_VISIBLE
 10
763.62382257274965
 20
837.06155309860685
 30
0.0
 11
776.9430249829179
 21
869.35050540466091
 31
0.0
  0
LINE
  5
2C4CB
  8
DLV_DIBUJO_LINEAS_VISIBLE
 10
816.36188061758423
 20
886.67128749272638
 30
0.0
 11
778.51940934529296
 21
870.93150981603242
 31
0.0
  0
LINE
  5
2C4CC
  8
DLV_DIBUJO_LINEAS_VISIBLE
 10
871.43633376536945
 20
837.06155309860662
 30
0.0
 11
817.53007816905927
 21
837.06155309860685
 31
0.0
  0
LINE
  5
2C4CD
  8
DLV_DIBUJO_LINEAS_VISIBLE
 10
816.36188061758423
 20
886.67128749272638
 30
0.0
 11
818.6982464467751
 21
886.67128749272638
 31
0.0
  0
LINE
  5
2C4CE
  8
DLV_DIBUJO_LINEAS_VISIBLE
 10
776.9430249829179
 20
869.35050540466091
 30
0.0
 11
778.51940934529296
 21
870.93150981603185
 31
0.0
  0
LINE
  5
2C4CF
  8
DLV_DIBUJO_LINEAS_VISIBLE
 10
871.43633376536945
 20
837.06155309860662
 30
0.0
 11
858.11713135520154
 21
869.35050540466091
 31
0.0
  0
LINE
  5
2C4D0
  8
DLV_DIBUJO_LINEAS_VISIBLE
 10
818.69827572053543
 20
886.67128749272615
 30
0.0
 11
856.54074699282648
 21
870.93150981603185
 31
0.0
  0
LINE
  5
2C4D1
  8
DLV_DIBUJO_LINEAS_VISIBLE
 10
858.11713135520154
 20
869.35050540466045
 30
0.0
 11
856.54074699282648
 21
870.93150981603151
 31
0.0
  0
ENDBLK
  5
2C45F
  8
0
  0
ENDSEC
  0
SECTION
  2
ENTITIES
  0
INSERT
  5
2C153
  8
0
  2
PARET_LLARGA__ALÇAT
 10
-313.39802569655149
 20
-618.45036002918437
 30
0.0
  0
INSERT
  5
2C15B
  8
0
  2
PARET_LLARGA__ALÇAT
 10
-313.39802569655149
 20
-453.45036002918459
 30
0.0
  0
INSERT
  5
2C17F
  8
0
  2
SOSTRE_INFERIOR__ALÇAT
 10
1332.633785946063
 20
-313.75226876642239
 30
0.0
 50
90.0
  0
INSERT
  5
2C180
  8
0
  2
SOSTRE_INFERIOR__ALÇAT
 10
1403.321748137779
 20
-313.75226876642239
 30
0.0
 50
90.0
  0
INSERT
  5
2C45A
  8
0
  2
SOSTRE_SUPERIOR__ALÇAT
 10
-328.3980256965512
 20
-613.2873900720441
 30
0.0
  0
INSERT
  5
2C45B
  8
0
  2
SOSTRE_SUPERIOR__ALÇAT
 10
-328.3980256965512
 20
-543.30902546372135
 30
0.0
  0
INSERT
  5
2C4DA
  8
0
  2
PARET_CURTA__ALÇAT
 10
-381.06464621173262
 20
-289.45036002918459
 30
0.0
  0
INSERT
  5
2C4E2
  8
0
  2
PARET_CURTA__ALÇAT
 10
951.39256650920674
 20
-211.46215588299211
 30
0.0
 50
90.0
  0
POLYLINE
  5
2C7DF
  8
0
 66
     1
 10
0.0
 20
0.0
 30
0.0
  0
VERTEX
  5
32502
  8
0
 10
459.73458906049552
 20
651.08075855491916
 30
0.0
  0
VERTEX
  5
32503
  8
0
 10
459.73458906049552
 20
661.08075855491893
 30
0.0
  0
SEQEND
  5
32504
  8
0
  0
CIRCLE
  5
3022D
  8
0
 10
364.73458906049558
 20
706.08075855491893
 30
0.0
 40
4.75
  0
CIRCLE
  5
30236
  8
0
 10
384.73458906049552
 20
706.08075855491893
 30
0.0
 40
4.75
  0
CIRCLE
  5
30237
  8
0
 10
404.73458906049552
 20
706.08075855491893
 30
0.0
 40
4.75
  0
CIRCLE
  5
30238
  8
0
 10
424.73458906049552
 20
706.08075855491893
 30
0.0
 40
4.75
  0
CIRCLE
  5
30239
  8
0
 10
444.73458906049552
 20
706.08075855491893
 30
0.0
 40
4.75
  0
CIRCLE
  5
3023A
  8
0
 10
444.73458906049552
 20
686.08075855491893
 30
0.0
 40
4.75
  0
CIRCLE
  5
3023B
  8
0
 10
424.73458906049552
 20
686.08075855491893
 30
0.0
 40
4.75
  0
CIRCLE
  5
3023C
  8
0
 10
404.73458906049552
 20
686.08075855491893
 30
0.0
 40
4.75
  0
CIRCLE
  5
3023D
  8
0
 10
384.73458906049552
 20
686.08075855491893
 30
0.0
 40
4.75
  0
CIRCLE
  5
3023E
  8
0
 10
364.73458906049552
 20
686.08075855491893
 30
0.0
 40
4.75
  0
CIRCLE
  5
30240
  8
0
 10
364.73458906049569
 20
666.08075855491893
 30
0.0
 40
4.75
  0
CIRCLE
  5
30241
  8
0
 10
384.73458906049558
 20
666.08075855491893
 30
0.0
 40
4.75
  0
CIRCLE
  5
30242
  8
0
 10
404.73458906049552
 20
666.08075855491893
 30
0.0
 40
4.75
  0
CIRCLE
  5
30243
  8
0
 10
424.73458906049558
 20
666.08075855491893
 30
0.0
 40
4.75
  0
CIRCLE
  5
30244
  8
0
 10
444.73458906049558
 20
666.08075855491893
 30
0.0
 40
4.75
  0
CIRCLE
  5
30245
  8
0
 10
444.73458906049558
 20
646.08075855491893
 30
0.0
 40
4.75
  0
CIRCLE
  5
30246
  8
0
 10
424.73458906049558
 20
646.08075855491893
 30
0.0
 40
4.75
  0
CIRCLE
  5
30247
  8
0
 10
404.73458906049552
 20
646.08075855491893
 30
0.0
 40
4.75
  0
CIRCLE
  5
30248
  8
0
 10
384.73458906049558
 20
646.08075855491893
 30
0.0
 40
4.75
  0
CIRCLE
  5
30249
  8
0
 10
364.73458906049558
 20
646.08075855491893
 30
0.0
 40
4.75
  0
LINE
  5
3025D
  8
0
 10
472.69517523291512
 20
721.08075855491893
 30
0.0
 11
492.69517523291512
 21
721.08075855491893
 31
0.0
  0
LINE
  5
3025E
  8
0
 10
472.69517523291501
 20
631.08075855491916
 30
0.0
 11
492.69517523291501
 21
631.08075855491893
 31
0.0
  0
LINE
  5
3025F
  8
0
 10
469.69517523291501
 20
711.08075855491893
 30
0.0
 11
469.69517523291501
 21
701.08075855491916
 31
0.0
  0
LINE
  5
30262
  8
0
 10
472.69517523291501
 20
721.08075855491882
 30
0.0
 11
472.69517523291478
 21
711.08075855491893
 31
0.0
  0
LINE
  5
30264
  8
0
 10
512.69517523291506
 20
641.33075855491893
 30
0.0
 11
512.69517523291506
 21
661.33075855491916
 31
0.0
  0
LINE
  5
3026D
  8
0
 10
492.69517523291501
 20
631.08075855491893
 30
0.0
 11
512.69517523291506
 21
641.33075855491893
 31
0.0
  0
LINE
  5
30270
  8
0
 10
492.69517523291501
 20
670.83075855491893
 30
0.0
 11
512.69517523291506
 21
661.33075855491916
 31
0.0
  0
LINE
  5
30273
  8
0
 10
492.69517523291501
 20
721.08075855491893
 30
0.0
 11
512.69517523291506
 21
710.83075855491893
 31
0.0
  0
LINE
  5
30274
  8
0
 10
492.69517523291501
 20
681.33075855491893
 30
0.0
 11
512.69517523291506
 21
690.83075855491893
 31
0.0
  0
LINE
  5
30275
  8
0
 10
512.69517523291495
 20
690.83075855491893
 30
0.0
 11
512.69517523291495
 21
710.83075855491927
 31
0.0
  0
LINE
  5
30276
  8
0
 10
492.69517523291501
 20
681.33075855491893
 30
0.0
 11
492.69517523291501
 21
670.83075855491893
 31
0.0
  0
LINE
  5
30279
  8
0
 10
456.73458906049552
 20
711.08075855491893
 30
0.0
 11
456.73458906049552
 21
701.08075855491916
 31
0.0
  0
LINE
  5
3027C
  8
0
 10
459.73458906049552
 20
641.08075855491893
 30
0.0
 11
456.73458906049552
 21
641.08075855491893
 31
0.0
  0
LINE
  5
3027E
  8
0
 10
456.73458906049552
 20
651.08075855491916
 30
0.0
 11
459.73458906049552
 21
651.08075855491916
 31
0.0
  0
LINE
  5
30282
  8
0
 10
459.73458906049552
 20
651.08075855491916
 30
0.0
 11
456.73458906049552
 21
651.08075855491916
 31
0.0
  0
LINE
  5
30283
  8
0
 10
456.73458906049552
 20
661.08075855491893
 30
0.0
 11
459.73458906049552
 21
661.08075855491893
 31
0.0
  0
LINE
  5
30284
  8
0
 10
459.73458906049552
 20
661.08075855491893
 30
0.0
 11
456.73458906049552
 21
661.08075855491893
 31
0.0
  0
LINE
  5
30285
  8
0
 10
456.73458906049552
 20
671.08075855491893
 30
0.0
 11
459.73458906049552
 21
671.08075855491893
 31
0.0
  0
LINE
  5
30286
  8
0
 10
459.73458906049552
 20
671.08075855491893
 30
0.0
 11
456.73458906049552
 21
671.08075855491893
 31
0.0
  0
LINE
  5
30287
  8
0
 10
456.73458906049552
 20
681.08075855491893
 30
0.0
 11
459.73458906049552
 21
681.08075855491893
 31
0.0
  0
LINE
  5
30288
  8
0
 10
459.73458906049552
 20
681.08075855491893
 30
0.0
 11
456.73458906049552
 21
681.08075855491893
 31
0.0
  0
LINE
  5
30289
  8
0
 10
456.73458906049552
 20
691.08075855491893
 30
0.0
 11
459.73458906049552
 21
691.08075855491893
 31
0.0
  0
LINE
  5
3028A
  8
0
 10
459.73458906049552
 20
691.08075855491893
 30
0.0
 11
456.73458906049552
 21
691.08075855491893
 31
0.0
  0
LINE
  5
3028B
  8
0
 10
456.73458906049552
 20
701.08075855491916
 30
0.0
 11
459.73458906049552
 21
701.08075855491916
 31
0.0
  0
LINE
  5
3028C
  8
0
 10
459.73458906049552
 20
701.08075855491916
 30
0.0
 11
456.73458906049552
 21
701.08075855491916
 31
0.0
  0
LINE
  5
3028D
  8
0
 10
456.73458906049552
 20
711.08075855491893
 30
0.0
 11
459.73458906049552
 21
711.08075855491893
 31
0.0
  0
LINE
  5
3028E
  8
0
 10
459.73458906049552
 20
711.08075855491893
 30
0.0
 11
456.73458906049552
 21
711.08075855491893
 31
0.0
  0
LINE
  5
30291
  8
0
 10
472.69517523291501
 20
641.08075855491893
 30
0.0
 11
469.69517523291501
 21
641.08075855491893
 31
0.0
  0
LINE
  5
30292
  8
0
 10
469.69517523291501
 20
651.08075855491916
 30
0.0
 11
472.69517523291501
 21
651.08075855491916
 31
0.0
  0
LINE
  5
30293
  8
0
 10
472.69517523291501
 20
651.08075855491916
 30
0.0
 11
469.69517523291501
 21
651.08075855491916
 31
0.0
  0
LINE
  5
30294
  8
0
 10
469.69517523291501
 20
661.08075855491893
 30
0.0
 11
472.69517523291501
 21
661.08075855491893
 31
0.0
  0
LINE
  5
30295
  8
0
 10
472.69517523291501
 20
661.08075855491893
 30
0.0
 11
469.69517523291501
 21
661.08075855491893
 31
0.0
  0
LINE
  5
30296
  8
0
 10
469.69517523291501
 20
671.08075855491893
 30
0.0
 11
472.69517523291501
 21
671.08075855491893
 31
0.0
  0
LINE
  5
30297
  8
0
 10
472.69517523291501
 20
671.08075855491893
 30
0.0
 11
469.69517523291501
 21
671.08075855491893
 31
0.0
  0
LINE
  5
30298
  8
0
 10
469.69517523291501
 20
681.08075855491893
 30
0.0
 11
472.69517523291501
 21
681.08075855491893
 31
0.0
  0
LINE
  5
30299
  8
0
 10
472.69517523291501
 20
681.08075855491893
 30
0.0
 11
469.69517523291501
 21
681.08075855491893
 31
0.0
  0
LINE
  5
3029A
  8
0
 10
469.69517523291501
 20
691.08075855491893
 30
0.0
 11
472.69517523291501
 21
691.08075855491893
 31
0.0
  0
LINE
  5
3029B
  8
0
 10
472.69517523291501
 20
691.08075855491893
 30
0.0
 11
469.69517523291501
 21
691.08075855491893
 31
0.0
  0
LINE
  5
3029C
  8
0
 10
469.69517523291501
 20
701.08075855491916
 30
0.0
 11
472.69517523291501
 21
701.08075855491916
 31
0.0
  0
LINE
  5
3029D
  8
0
 10
472.69517523291501
 20
701.08075855491916
 30
0.0
 11
469.69517523291501
 21
701.08075855491916
 31
0.0
  0
LINE
  5
3029E
  8
0
 10
469.69517523291501
 20
711.08075855491893
 30
0.0
 11
472.69517523291501
 21
711.08075855491893
 31
0.0
  0
LINE
  5
3029F
  8
0
 10
472.69517523291501
 20
711.08075855491893
 30
0.0
 11
469.69517523291501
 21
711.08075855491893
 31
0.0
  0
POLYLINE
  5
302A0
  8
0
 66
     1
 10
0.0
 20
0.0
 30
0.0
  0
VERTEX
  5
32507
  8
0
 10
459.73458906049552
 20
671.08075855491893
 30
0.0
  0
VERTEX
  5
32508
  8
0
 10
459.73458906049552
 20
681.08075855491893
 30
0.0
  0
SEQEND
  5
32509
  8
0
  0
POLYLINE
  5
302A1
  8
0
 66
     1
 10
0.0
 20
0.0
 30
0.0
  0
VERTEX
  5
3250A
  8
0
 10
459.73458906049552
 20
691.08075855491893
 30
0.0
  0
VERTEX
  5
3250B
  8
0
 10
459.73458906049552
 20
701.08075855491916
 30
0.0
  0
SEQEND
  5
3250C
  8
0
  0
POLYLINE
  5
302A2
  8
0
 66
     1
 10
0.0
 20
0.0
 30
0.0
  0
VERTEX
  5
3250D
  8
0
 10
459.73458906049552
 20
711.08075855491893
 30
0.0
  0
VERTEX
  5
3250E
  8
0
 10
459.73458906049552
 20
721.08075855491893
 30
0.0
  0
VERTEX
  5
3250F
  8
0
 10
349.73458906049569
 20
721.08075855491893
 30
0.0
  0
VERTEX
  5
32510
  8
0
 10
349.73458906049569
 20
711.08075855491893
 30
0.0
  0
SEQEND
  5
32511
  8
0
  0
LINE
  5
302A3
  8
0
 10
469.69517523291501
 20
691.08075855491893
 30
0.0
 11
469.69517523291501
 21
681.08075855491893
 31
0.0
  0
LINE
  5
302A4
  8
0
 10
469.69517523291501
 20
671.08075855491893
 30
0.0
 11
469.69517523291501
 21
661.08075855491893
 31
0.0
  0
LINE
  5
302A5
  8
0
 10
469.69517523291501
 20
651.08075855491916
 30
0.0
 11
469.69517523291501
 21
641.08075855491893
 31
0.0
  0
LINE
  5
302A6
  8
0
 10
456.73458906049552
 20
651.08075855491916
 30
0.0
 11
456.73458906049552
 21
641.08075855491893
 31
0.0
  0
LINE
  5
302A7
  8
0
 10
456.73458906049552
 20
671.08075855491893
 30
0.0
 11
456.73458906049552
 21
661.08075855491893
 31
0.0
  0
LINE
  5
302A8
  8
0
 10
456.73458906049552
 20
691.08075855491893
 30
0.0
 11
456.73458906049552
 21
681.08075855491893
 31
0.0
  0
LINE
  5
302A9
  8
0
 10
472.69517523291478
 20
701.08075855491916
 30
0.0
 11
472.69517523291478
 21
691.08075855491893
 31
0.0
  0
LINE
  5
302AA
  8
0
 10
472.69517523291478
 20
681.08075855491893
 30
0.0
 11
472.69517523291478
 21
671.08075855491893
 31
0.0
  0
LINE
  5
302AB
  8
0
 10
472.69517523291478
 20
661.08075855491893
 30
0.0
 11
472.69517523291501
 21
651.08075855491916
 31
0.0
  0
LINE
  5
302AC
  8
0
 10
472.69517523291501
 20
641.08075855491893
 30
0.0
 11
472.69517523291501
 21
631.08075855491916
 31
0.0
  0
POLYLINE
  5
3055E
  8
0
 66
     1
 10
0.0
 20
0.0
 30
0.0
  0
VERTEX
  5
32512
  8
0
 10
349.73458906049569
 20
651.08075855491916
 30
0.0
  0
VERTEX
  5
32513
  8
0
 10
349.73458906049569
 20
661.08075855491893
 30
0.0
  0
SEQEND
  5
32514
  8
0
  0
POLYLINE
  5
3055F
  8
0
 66
     1
 10
0.0
 20
0.0
 30
0.0
  0
VERTEX
  5
32515
  8
0
 10
349.73458906049569
 20
671.08075855491893
 30
0.0
  0
VERTEX
  5
32516
  8
0
 10
349.73458906049569
 20
681.08075855491893
 30
0.0
  0
SEQEND
  5
32517
  8
0
  0
POLYLINE
  5
30560
  8
0
 66
     1
 10
0.0
 20
0.0
 30
0.0
  0
VERTEX
  5
32518
  8
0
 10
349.73458906049569
 20
691.08075855491893
 30
0.0
  0
VERTEX
  5
32519
  8
0
 10
349.73458906049569
 20
701.08075855491916
 30
0.0
  0
SEQEND
  5
3251A
  8
0
  0
LINE
  5
30561
  8
0
 10
336.77400288807621
 20
721.08075855491893
 30
0.0
 11
316.77400288807621
 21
721.08075855491893
 31
0.0
  0
LINE
  5
30562
  8
0
 10
336.77400288807621
 20
631.08075855491916
 30
0.0
 11
316.77400288807621
 21
631.08075855491893
 31
0.0
  0
LINE
  5
30563
  8
0
 10
339.7740028880761
 20
711.08075855491893
 30
0.0
 11
339.7740028880761
 21
701.08075855491916
 31
0.0
  0
LINE
  5
30564
  8
0
 10
339.7740028880761
 20
691.08075855491893
 30
0.0
 11
339.7740028880761
 21
681.08075855491893
 31
0.0
  0
LINE
  5
30565
  8
0
 10
339.7740028880761
 20
671.08075855491893
 30
0.0
 11
339.7740028880761
 21
661.08075855491893
 31
0.0
  0
LINE
  5
30566
  8
0
 10
339.7740028880761
 20
651.08075855491916
 30
0.0
 11
339.7740028880761
 21
641.08075855491893
 31
0.0
  0
LINE
  5
30567
  8
0
 10
336.77400288807621
 20
721.08075855491882
 30
0.0
 11
336.77400288807632
 21
711.08075855491893
 31
0.0
  0
LINE
  5
30568
  8
0
 10
336.77400288807632
 20
701.08075855491916
 30
0.0
 11
336.77400288807632
 21
691.08075855491893
 31
0.0
  0
LINE
  5
30569
  8
0
 10
336.77400288807632
 20
681.08075855491893
 30
0.0
 11
336.77400288807632
 21
671.08075855491893
 31
0.0
  0
LINE
  5
3056A
  8
0
 10
336.77400288807632
 20
661.08075855491893
 30
0.0
 11
336.77400288807621
 21
651.08075855491916
 31
0.0
  0
LINE
  5
3056B
  8
0
 10
336.77400288807621
 20
641.08075855491893
 30
0.0
 11
336.77400288807621
 21
631.08075855491916
 31
0.0
  0
LINE
  5
3056C
  8
0
 10
296.7740028880761
 20
641.33075855491893
 30
0.0
 11
296.7740028880761
 21
661.33075855491916
 31
0.0
  0
LINE
  5
3056D
  8
0
 10
296.77400288807632
 20
690.83075855491893
 30
0.0
 11
296.77400288807632
 21
710.83075855491927
 31
0.0
  0
LINE
  5
3056E
  8
0
 10
316.77400288807621
 20
631.08075855491893
 30
0.0
 11
296.7740028880761
 21
641.33075855491893
 31
0.0
  0
LINE
  5
3056F
  8
0
 10
316.77400288807621
 20
670.83075855491893
 30
0.0
 11
296.7740028880761
 21
661.33075855491916
 31
0.0
  0
LINE
  5
30570
  8
0
 10
316.77400288807621
 20
721.08075855491893
 30
0.0
 11
296.7740028880761
 21
710.83075855491893
 31
0.0
  0
LINE
  5
30571
  8
0
 10
316.77400288807621
 20
681.33075855491893
 30
0.0
 11
296.7740028880761
 21
690.83075855491893
 31
0.0
  0
LINE
  5
30572
  8
0
 10
316.77400288807621
 20
681.33075855491893
 30
0.0
 11
316.77400288807621
 21
670.83075855491893
 31
0.0
  0
LINE
  5
30573
  8
0
 10
352.73458906049558
 20
711.08075855491893
 30
0.0
 11
352.73458906049558
 21
701.08075855491916
 31
0.0
  0
LINE
  5
30574
  8
0
 10
352.73458906049558
 20
691.08075855491893
 30
0.0
 11
352.73458906049558
 21
681.08075855491893
 31
0.0
  0
LINE
  5
30575
  8
0
 10
352.73458906049558
 20
671.08075855491893
 30
0.0
 11
352.73458906049558
 21
661.08075855491893
 31
0.0
  0
LINE
  5
30576
  8
0
 10
352.73458906049558
 20
651.08075855491916
 30
0.0
 11
352.73458906049558
 21
641.08075855491893
 31
0.0
  0
LINE
  5
30577
  8
0
 10
349.73458906049569
 20
641.08075855491893
 30
0.0
 11
352.73458906049558
 21
641.08075855491893
 31
0.0
  0
LINE
  5
30578
  8
0
 10
352.73458906049558
 20
651.08075855491916
 30
0.0
 11
349.73458906049569
 21
651.08075855491916
 31
0.0
  0
LINE
  5
30579
  8
0
 10
349.73458906049569
 20
651.08075855491916
 30
0.0
 11
352.73458906049558
 21
651.08075855491916
 31
0.0
  0
LINE
  5
3057A
  8
0
 10
352.73458906049558
 20
661.08075855491893
 30
0.0
 11
349.73458906049569
 21
661.08075855491893
 31
0.0
  0
LINE
  5
3057B
  8
0
 10
349.73458906049569
 20
661.08075855491893
 30
0.0
 11
352.73458906049558
 21
661.08075855491893
 31
0.0
  0
LINE
  5
3057C
  8
0
 10
352.73458906049558
 20
671.08075855491893
 30
0.0
 11
349.73458906049569
 21
671.08075855491893
 31
0.0
  0
LINE
  5
3057D
  8
0
 10
349.73458906049569
 20
671.08075855491893
 30
0.0
 11
352.73458906049558
 21
671.08075855491893
 31
0.0
  0
LINE
  5
3057E
  8
0
 10
352.73458906049558
 20
681.08075855491893
 30
0.0
 11
349.73458906049569
 21
681.08075855491893
 31
0.0
  0
LINE
  5
3057F
  8
0
 10
349.73458906049569
 20
681.08075855491893
 30
0.0
 11
352.73458906049558
 21
681.08075855491893
 31
0.0
  0
LINE
  5
30580
  8
0
 10
352.73458906049558
 20
691.08075855491893
 30
0.0
 11
349.73458906049569
 21
691.08075855491893
 31
0.0
  0
LINE
  5
30581
  8
0
 10
349.73458906049569
 20
691.08075855491893
 30
0.0
 11
352.73458906049558
 21
691.08075855491893
 31
0.0
  0
LINE
  5
30582
  8
0
 10
352.73458906049558
 20
701.08075855491916
 30
0.0
 11
349.73458906049569
 21
701.08075855491916
 31
0.0
  0
LINE
  5
30583
  8
0
 10
349.73458906049569
 20
701.08075855491916
 30
0.0
 11
352.73458906049558
 21
701.08075855491916
 31
0.0
  0
LINE
  5
30584
  8
0
 10
352.73458906049558
 20
711.08075855491893
 30
0.0
 11
349.73458906049569
 21
711.08075855491893
 31
0.0
  0
LINE
  5
30585
  8
0
 10
349.73458906049569
 20
711.08075855491893
 30
0.0
 11
352.73458906049558
 21
711.08075855491893
 31
0.0
  0
LINE
  5
30586
  8
0
 10
336.77400288807621
 20
641.08075855491893
 30
0.0
 11
339.7740028880761
 21
641.08075855491893
 31
0.0
  0
LINE
  5
30587
  8
0
 10
339.7740028880761
 20
651.08075855491916
 30
0.0
 11
336.77400288807621
 21
651.08075855491916
 31
0.0
  0
LINE
  5
30588
  8
0
 10
336.77400288807621
 20
651.08075855491916
 30
0.0
 11
339.7740028880761
 21
651.08075855491916
 31
0.0
  0
LINE
  5
30589
  8
0
 10
339.7740028880761
 20
661.08075855491893
 30
0.0
 11
336.77400288807621
 21
661.08075855491893
 31
0.0
  0
LINE
  5
3058A
  8
0
 10
336.77400288807621
 20
661.08075855491893
 30
0.0
 11
339.7740028880761
 21
661.08075855491893
 31
0.0
  0
LINE
  5
3058B
  8
0
 10
339.7740028880761
 20
671.08075855491893
 30
0.0
 11
336.77400288807621
 21
671.08075855491893
 31
0.0
  0
LINE
  5
3058C
  8
0
 10
336.77400288807621
 20
671.08075855491893
 30
0.0
 11
339.7740028880761
 21
671.08075855491893
 31
0.0
  0
LINE
  5
3058D
  8
0
 10
339.7740028880761
 20
681.08075855491893
 30
0.0
 11
336.77400288807621
 21
681.08075855491893
 31
0.0
  0
LINE
  5
3058E
  8
0
 10
336.77400288807621
 20
681.08075855491893
 30
0.0
 11
339.7740028880761
 21
681.08075855491893
 31
0.0
  0
LINE
  5
3058F
  8
0
 10
339.7740028880761
 20
691.08075855491893
 30
0.0
 11
336.77400288807621
 21
691.08075855491893
 31
0.0
  0
LINE
  5
30590
  8
0
 10
336.77400288807621
 20
691.08075855491893
 30
0.0
 11
339.7740028880761
 21
691.08075855491893
 31
0.0
  0
LINE
  5
30591
  8
0
 10
339.7740028880761
 20
701.08075855491916
 30
0.0
 11
336.77400288807621
 21
701.08075855491916
 31
0.0
  0
LINE
  5
30592
  8
0
 10
336.77400288807621
 20
701.08075855491916
 30
0.0
 11
339.7740028880761
 21
701.08075855491916
 31
0.0
  0
LINE
  5
30593
  8
0
 10
339.7740028880761
 20
711.08075855491893
 30
0.0
 11
336.77400288807621
 21
711.08075855491893
 31
0.0
  0
LINE
  5
30594
  8
0
 10
336.77400288807621
 20
711.08075855491893
 30
0.0
 11
339.7740028880761
 21
711.08075855491893
 31
0.0
  0
POLYLINE
  5
305D4
  8
0
 66
     1
 10
0.0
 20
0.0
 30
0.0
  0
VERTEX
  5
3251B
  8
0
 10
349.73458906049569
 20
701.08075855491916
 30
0.0
  0
VERTEX
  5
3251C
  8
0
 10
349.73458906049569
 20
691.08075855491893
 30
0.0
  0
SEQEND
  5
3251D
  8
0
  0
POLYLINE
  5
305D5
  8
0
 66
     1
 10
0.0
 20
0.0
 30
0.0
  0
VERTEX
  5
3251E
  8
0
 10
349.73458906049569
 20
681.08075855491893
 30
0.0
  0
VERTEX
  5
3251F
  8
0
 10
349.73458906049569
 20
671.08075855491893
 30
0.0
  0
SEQEND
  5
32520
  8
0
  0
POLYLINE
  5
305D6
  8
0
 66
     1
 10
0.0
 20
0.0
 30
0.0
  0
VERTEX
  5
32521
  8
0
 10
349.73458906049569
 20
661.08075855491893
 30
0.0
  0
VERTEX
  5
32522
  8
0
 10
349.73458906049569
 20
651.08075855491916
 30
0.0
  0
SEQEND
  5
32523
  8
0
  0
POLYLINE
  5
305D7
  8
0
 66
     1
 10
0.0
 20
0.0
 30
0.0
  0
VERTEX
  5
32524
  8
0
 10
349.73458906049569
 20
641.08075855491893
 30
0.0
  0
VERTEX
  5
32525
  8
0
 10
349.73458906049569
 20
631.08075855491893
 30
0.0
  0
VERTEX
  5
32526
  8
0
 10
459.73458906049552
 20
631.08075855491893
 30
0.0
  0
VERTEX
  5
32527
  8
0
 10
459.73458906049552
 20
641.08075855491893
 30
0.0
  0
SEQEND
  5
32528
  8
0
  0
VIEWPORT
  5
3247C
 67
     1
  8
0
 10
5.6487502451018079
 20
3.866250083202452
 30
0.0
 40
24.589859270574109
 41
8.7478968378502557
 68
     1
 69
     1
1001
ACAD
1000
MVIEW
1002
{
1070
    16
1010
0.0
1020
0.0
1030
0.0
1010
0.0
1020
0.0
1030
1.0
1040
0.0
1040
8.7478968378502557
1040
5.6487502451018079
1040
3.866250083202452
1040
50.0
1040
0.0
1040
0.0
1070
     0
1070
  1000
1070
     1
1070
     1
1070
     0
1070
     0
1070
     0
1070
     0
1040
0.0
1040
0.0
1040
0.0
1040
10.0
1040
10.0
1040
10.0
1040
10.0
1070
     0
1002
{
1002
}
1002
}
  0
ENDSEC
  0
EOF
