  0
SECTION
  2
HEADER
  9
$ACADVER
  1
AC1014
  9
$ACADMAINTVER
 70
     0
  9
$DWGCODEPAGE
  3
ANSI_1252
  9
$INSBASE
 10
0.0
 20
0.0
 30
0.0
  9
$EXTMIN
 10
0.0
 20
0.0
 30
0.0
  9
$EXTMAX
 10
431.8
 20
279.4
 30
0.0
  9
$LIMMIN
 10
0.0
 20
0.0
  9
$LIMMAX
 10
12.0
 20
9.0
  9
$ORTHOMODE
 70
     0
  9
$REGENMODE
 70
     1
  9
$FILLMODE
 70
     0
  9
$QTEXTMODE
 70
     0
  9
$MIRRTEXT
 70
     1
  9
$DRAGMODE
 70
     2
  9
$LTSCALE
 40
1.0
  9
$OSMODE
 70
     0
  9
$ATTMODE
 70
     1
  9
$TEXTSIZE
 40
0.2
  9
$TRACEWID
 40
0.05
  9
$TEXTSTYLE
  7
STANDARD
  9
$CLAYER
  8
0
  9
$CELTYPE
  6
BYLAYER
  9
$CECOLOR
 62
   256
  9
$CELTSCALE
 40
1.0
  9
$DELOBJ
 70
     1
  9
$DISPSILH
 70
     0
  9
$DIMSCALE
 40
1.0
  9
$DIMASZ
 40
0.18
  9
$DIMEXO
 40
0.0625
  9
$DIMDLI
 40
0.38
  9
$DIMRND
 40
0.0
  9
$DIMDLE
 40
0.0
  9
$DIMEXE
 40
0.18
  9
$DIMTP
 40
0.0
  9
$DIMTM
 40
0.0
  9
$DIMTXT
 40
0.18
  9
$DIMCEN
 40
0.09
  9
$DIMTSZ
 40
0.0
  9
$DIMTOL
 70
     0
  9
$DIMLIM
 70
     0
  9
$DIMTIH
 70
     0
  9
$DIMTOH
 70
     0
  9
$DIMSE1
 70
     0
  9
$DIMSE2
 70
     0
  9
$DIMTAD
 70
     1
  9
$DIMZIN
 70
     0
  9
$DIMBLK
  1

  9
$DIMASO
 70
     1
  9
$DIMSHO
 70
     1
  9
$DIMPOST
  1

  9
$DIMAPOST
  1

  9
$DIMALT
 70
     0
  9
$DIMALTD
 70
     2
  9
$DIMALTF
 40
25.4
  9
$DIMLFAC
 40
1.0
  9
$DIMTOFL
 70
     0
  9
$DIMTVP
 40
0.0
  9
$DIMTIX
 70
     0
  9
$DIMSOXD
 70
     0
  9
$DIMSAH
 70
     0
  9
$DIMBLK1
  1

  9
$DIMBLK2
  1

  9
$DIMSTYLE
  2
STANDARD
  9
$DIMCLRD
 70
     0
  9
$DIMCLRE
 70
     0
  9
$DIMCLRT
 70
     0
  9
$DIMTFAC
 40
1.0
  9
$DIMGAP
 40
0.09
  9
$DIMJUST
 70
     0
  9
$DIMSD1
 70
     0
  9
$DIMSD2
 70
     0
  9
$DIMTOLJ
 70
     1
  9
$DIMTZIN
 70
     0
  9
$DIMALTZ
 70
     0
  9
$DIMALTTZ
 70
     0
  9
$DIMFIT
 70
     3
  9
$DIMUPT
 70
     0
  9
$DIMUNIT
 70
     2
  9
$DIMDEC
 70
     2
  9
$DIMTDEC
 70
     4
  9
$DIMALTU
 70
     2
  9
$DIMALTTD
 70
     2
  9
$DIMTXSTY
  7
STANDARD
  9
$DIMAUNIT
 70
     0
  9
$LUNITS
 70
     2
  9
$LUPREC
 70
     4
  9
$SKETCHINC
 40
0.1
  9
$FILLETRAD
 40
0.5
  9
$AUNITS
 70
     0
  9
$AUPREC
 70
     0
  9
$MENU
  1
.
  9
$ELEVATION
 40
0.0
  9
$PELEVATION
 40
0.0
  9
$THICKNESS
 40
0.0
  9
$LIMCHECK
 70
     0
  9
$BLIPMODE
 70
     0
  9
$CHAMFERA
 40
0.5
  9
$CHAMFERB
 40
0.5
  9
$CHAMFERC
 40
1.0
  9
$CHAMFERD
 40
0.0
  9
$SKPOLY
 70
     0
  9
$TDCREATE
 40
2450772.666465926
  9
$TDUPDATE
 40
2458617.838715266
  9
$TDINDWG
 40
0.0011564931
  9
$TDUSRTIMER
 40
0.0000000000
  9
$USRTIMER
 70
     1
  9
$ANGBASE
 50
0.0
  9
$ANGDIR
 70
     0
  9
$PDMODE
 70
     0
  9
$PDSIZE
 40
0.0
  9
$PLINEWID
 40
0.0
  9
$COORDS
 70
     1
  9
$SPLFRAME
 70
     0
  9
$SPLINETYPE
 70
     6
  9
$SPLINESEGS
 70
     8
  9
$ATTDIA
 70
     0
  9
$ATTREQ
 70
     1
  9
$HANDLING
 70
     1
  9
$HANDSEED
  5
142
  9
$SURFTAB1
 70
     6
  9
$SURFTAB2
 70
     6
  9
$SURFTYPE
 70
     6
  9
$SURFU
 70
     6
  9
$SURFV
 70
     6
  9
$UCSNAME
  2

  9
$UCSORG
 10
0.0
 20
0.0
 30
0.0
  9
$UCSXDIR
 10
1.0
 20
0.0
 30
0.0
  9
$UCSYDIR
 10
0.0
 20
1.0
 30
0.0
  9
$PUCSNAME
  2

  9
$PUCSORG
 10
0.0
 20
0.0
 30
0.0
  9
$PUCSXDIR
 10
1.0
 20
0.0
 30
0.0
  9
$PUCSYDIR
 10
0.0
 20
1.0
 30
0.0
  9
$USERI1
 70
     0
  9
$USERI2
 70
     0
  9
$USERI3
 70
     0
  9
$USERI4
 70
     0
  9
$USERI5
 70
     0
  9
$USERR1
 40
0.0
  9
$USERR2
 40
0.0
  9
$USERR3
 40
0.0
  9
$USERR4
 40
0.0
  9
$USERR5
 40
0.0
  9
$WORLDVIEW
 70
     1
  9
$SHADEDGE
 70
     3
  9
$SHADEDIF
 70
    70
  9
$TILEMODE
 70
     1
  9
$MAXACTVP
 70
    48
  9
$PINSBASE
 10
0.0
 20
0.0
 30
0.0
  9
$PLIMCHECK
 70
     0
  9
$PEXTMIN
 10
0.0
 20
0.0
 30
0.0
  9
$PEXTMAX
 10
0.0
 20
0.0
 30
0.0
  9
$PLIMMIN
 10
0.0
 20
0.0
  9
$PLIMMAX
 10
12.0
 20
9.0
  9
$UNITMODE
 70
     0
  9
$VISRETAIN
 70
     1
  9
$PLINEGEN
 70
     0
  9
$PSLTSCALE
 70
     1
  9
$TREEDEPTH
 70
  3020
  9
$PICKSTYLE
 70
     1
  9
$CMLSTYLE
  2
STANDARD
  9
$CMLJUST
 70
     0
  9
$CMLSCALE
 40
1.0
  9
$PROXYGRAPHICS
 70
     1
  9
$MEASUREMENT
 70
     0
  0
ENDSEC
  0
SECTION
  2
CLASSES
  0
CLASS
  1
LWPOLYLINE
  2
AcDbPolyline
  3
"AutoCAD"
 90
        0
280
     0
281
     1
  0
CLASS
  1
IMAGE
  2
AcDbRasterImage
  3
ISM
 90
      127
280
     0
281
     1
  0
CLASS
  1
OLE2FRAME
  2
AcDbOle2Frame
  3
""
 90
        0
280
     0
281
     1
  0
CLASS
  1
HATCH
  2
AcDbHatch
  3
"ACAD_SEDONA"
 90
        0
280
     0
281
     1
  0
CLASS
  1
DICTIONARYVAR
  2
AcDbDictionaryVar
  3
"AutoCAD"
 90
        0
280
     0
281
     0
  0
CLASS
  1
RASTERVARIABLES
  2
AcDbRasterVariables
  3
ISM
 90
        0
280
     0
281
     0
  0
CLASS
  1
IMAGEDEF
  2
AcDbRasterImageDef
  3
ISM
 90
        0
280
     0
281
     0
  0
CLASS
  1
IMAGEDEF_REACTOR
  2
AcDbRasterImageDefReactor
  3
ISM
 90
        1
280
     0
281
     0
  0
CLASS
  1
IDBUFFER
  2
AcDbIdBuffer
  3
"Acad"
 90
        0
280
     0
281
     0
  0
CLASS
  1
SPATIAL_FILTER
  2
AcDbSpatialFilter
  3
"Acad"
 90
        0
280
     0
281
     0
  0
CLASS
  1
XRECORD
  2
AcDbXrecord
  3
"<Built In>"
 90
        0
280
     0
281
     0
  0
CLASS
  1
SORTENTSTABLE
  2
AcDbSortentsTable
  3
"AutoCAD"
 90
        0
280
     0
281
     0
  0
CLASS
  1
LAYER_INDEX
  2
AcDbLayerIndex
  3
"Acad"
 90
        0
280
     0
281
     0
  0
CLASS
  1
SPATIAL_INDEX
  2
AcDbSpatialIndex
  3
"Acad"
 90
        0
280
     0
281
     0
  0
CLASS
  1
OBJECT_PTR
  2
CAseDLPNTableRecord
  3
"ASE-LPNTableRecord"
 90
        1
280
     0
281
     0
  0
CLASS
  1
LAYOUT
  2
AcDbLayout
  3
"AutoCAD 2000"
 90
        1
280
     0
281
     0
  0
CLASS
  1
PLOTSETTINGS
  2
AcDbPlotSettings
  3
"AutoCAD 2000"
 90
        1
280
     0
281
     0
  0
CLASS
  1
ACDBDICTIONARYWDFLT
  2
AcDbDictionaryWithDefault
  3
"AutoCAD 2000"
 90
        1
280
     0
281
     0
  0
CLASS
  1
ACDBPLACEHOLDER
  2
AcDbPlaceHolder
  3
"AutoCAD 2000"
 90
        1
280
     0
281
     0
  0
CLASS
  1
VBA_PROJECT
  2
AcDbVbaProject
  3
"acadvba"
 90
        1
280
     0
281
     0
  0
CLASS
  1
WIPEOUT
  2
AcDbWipeout
  3
WipeOut|AutoCAD Express Tool|expresstools@autodesk.com
 90
      127
280
     0
281
     1
  0
CLASS
  1
WIPEOUTVARIABLES
  2
AcDbWipeoutVariables
  3
WipeOut|AutoCAD Express Tool|expresstools@autodesk.com
 90
        0
280
     0
281
     0
  0
CLASS
  1
RTEXT
  2
RText
  3
RText|AutoCAD Express Tool|expresstools@autodesk.com
 90
        0
280
     0
281
     1
  0
CLASS
  1
ARCALIGNEDTEXT
  2
AcDbArcAlignedText
  3
ATEXT|AutoCAD Express Tool|expresstools@autodesk.com
 90
        0
280
     0
281
     1
  0
ENDSEC
  0
SECTION
  2
TABLES
  0
TABLE
  2
VPORT
  5
8
100
AcDbSymbolTable
 70
     1
  0
VPORT
  5
25
100
AcDbSymbolTableRecord
100
AcDbViewportTableRecord
  2
*ACTIVE
 70
     0
 10
0.0
 20
0.0
 11
1.0
 21
1.0
 12
215.9
 22
139.7
 13
0.0
 23
0.0
 14
0.5
 24
0.5
 15
0.5
 25
0.5
 16
0.0
 26
0.0
 36
1.0
 17
0.0
 27
0.0
 37
0.0
 40
279.4
 41
1.545455
 42
50.0
 43
0.0
 44
0.0
 50
0.0
 51
0.0
 71
     0
 72
   100
 73
     1
 74
     1
 75
     0
 76
     0
 77
     0
 78
     0
  0
ENDTAB
  0
TABLE
  2
LTYPE
  5
5
100
AcDbSymbolTable
 70
     3
  0
LTYPE
  5
12
100
AcDbSymbolTableRecord
100
AcDbLinetypeTableRecord
  2
BYBLOCK
 70
    64
  3

 72
    65
 73
     0
 40
0.0
  0
LTYPE
  5
13
100
AcDbSymbolTableRecord
100
AcDbLinetypeTableRecord
  2
BYLAYER
 70
    64
  3

 72
    65
 73
     0
 40
0.0
  0
LTYPE
  5
14
100
AcDbSymbolTableRecord
100
AcDbLinetypeTableRecord
  2
CONTINUOUS
 70
     0
  3
Solid line
 72
    65
 73
     0
 40
0.0
  0
ENDTAB
  0
TABLE
  2
LAYER
  5
2
100
AcDbSymbolTable
 70
     2
  0
LAYER
  5
E
100
AcDbSymbolTableRecord
100
AcDbLayerTableRecord
  2
0
 70
     0
 62
     7
  6
CONTINUOUS
  0
LAYER
  5
31
100
AcDbSymbolTableRecord
100
AcDbLayerTableRecord
  2
CONNECTOR
 70
     0
 62
     7
  6
CONTINUOUS
  0
ENDTAB
  0
TABLE
  2
STYLE
  5
3
100
AcDbSymbolTable
 70
     1
  0
STYLE
  5
F
100
AcDbSymbolTableRecord
100
AcDbTextStyleTableRecord
  2
STANDARD
 70
     0
 40
0.0
 41
1.0
 50
0.0
 71
     0
 42
0.2
  3
txt.shx
  4

  0
ENDTAB
  0
TABLE
  2
VIEW
  5
6
100
AcDbSymbolTable
 70
     0
  0
ENDTAB
  0
TABLE
  2
UCS
  5
7
100
AcDbSymbolTable
 70
     0
  0
ENDTAB
  0
TABLE
  2
APPID
  5
9
100
AcDbSymbolTable
 70
     1
  0
APPID
  5
10
100
AcDbSymbolTableRecord
100
AcDbRegAppTableRecord
  2
ACAD
 70
     0
  0
ENDTAB
  0
TABLE
  2
DIMSTYLE
  5
A
100
AcDbSymbolTable
 70
     1
  0
DIMSTYLE
105
1D
100
AcDbSymbolTableRecord
100
AcDbDimStyleTableRecord
  2
STANDARD
 70
     0
  3

  4

  5

  6

  7

 40
1.0
 41
0.18
 42
0.0625
 43
0.38
 44
0.18
 45
0.0
 46
0.0
 47
0.0
 48
0.0
 71
     0
 72
     0
 73
     1
 74
     1
 75
     0
 76
     0
 77
     0
 78
     0
140
0.18
141
0.09
142
0.0
143
25.4
144
1.0
145
0.0
146
1.0
147
0.09
170
     0
171
     2
172
     0
173
     0
174
     0
175
     0
176
     0
177
     0
178
     0
270
     2
271
     4
272
     4
273
     2
274
     2
275
     0
280
     0
281
     0
282
     0
283
     1
284
     0
285
     0
286
     0
287
     3
288
     0
340
F
  0
ENDTAB
  0
TABLE
  2
BLOCK_RECORD
  5
1
100
AcDbSymbolTable
 70
     2
  0
BLOCK_RECORD
  5
18
100
AcDbSymbolTableRecord
100
AcDbBlockTableRecord
  2
*MODEL_SPACE
  0
BLOCK_RECORD
  5
15
100
AcDbSymbolTableRecord
100
AcDbBlockTableRecord
  2
*PAPER_SPACE
  0
BLOCK_RECORD
  5
139
100
AcDbSymbolTableRecord
100
AcDbBlockTableRecord
  2
CENTER_DRAG_CIRCLE
  0
BLOCK_RECORD
  5
13E
100
AcDbSymbolTableRecord
100
AcDbBlockTableRecord
  2
LINE-CURVE_CONNECTOR
  0
ENDTAB
  0
ENDSEC
  0
SECTION
  2
BLOCKS
  0
BLOCK
  5
19
100
AcDbEntity
  8
0
100
AcDbBlockBegin
  2
*MODEL_SPACE
 70
     0
 10
0.0
 20
0.0
 30
0.0
  3
*MODEL_SPACE
  1

  0
ENDBLK
  5
1A
100
AcDbEntity
  8
0
100
AcDbBlockEnd
  0
BLOCK
  5
16
100
AcDbEntity
 67
     1
  8
0
100
AcDbBlockBegin
  2
*PAPER_SPACE
 70
     0
 10
0.0
 20
0.0
 30
0.0
  3
*PAPER_SPACE
  1

  0
ENDBLK
  5
17
100
AcDbEntity
 67
     1
  8
0
100
AcDbBlockEnd
  0
BLOCK
  5
13A
100
AcDbEntity
  8
0
100
AcDbBlockBegin
  2
CENTER_DRAG_CIRCLE
 70
     0
 10
0.0
 20
0.0
 30
0.0
  3
CENTER_DRAG_CIRCLE
  1

  0
LWPOLYLINE
  5
13B
102
{ACAD_REACTORS
330
13C
102
}
100
AcDbEntity
  8
0
  6
CONTINUOUS
 62
     7
100
AcDbPolyline
 90
        2
 70
     1
 10
30.559375
 20
50.8
 42
-1.0
 10
68.659375
 20
50.8
 42
-1.0
  0
HATCH
  5
13C
100
AcDbEntity
  8
0
 62
   254
100
AcDbHatch
 10
0.0
 20
0.0
 30
0.0
210
0.0
220
0.0
230
1.0
  2
SOLID
 70
     1
 71
     1
 91
        1
 92
        3
 72
     1
 73
     1
 93
        2
 10
30.559375000000003
 20
50.799999999999997
 42
-0.9999999999999999
 10
68.659374999999997
 20
50.799999999999997
 42
-1.0000000000000071
 97
        1
330
13B
 75
     0
 76
     1
 98
        0
  0
ENDBLK
  5
13D
100
AcDbEntity
  8
0
100
AcDbBlockEnd
  0
BLOCK
  5
13F
100
AcDbEntity
  8
0
100
AcDbBlockBegin
  2
LINE-CURVE_CONNECTOR
 70
     0
 10
0.0
 20
0.0
 30
0.0
  3
LINE-CURVE_CONNECTOR
  1

  0
SPLINE
  5
140
100
AcDbEntity
  8
CONNECTOR
  6
CONTINUOUS
100
AcDbSpline
210
0.0
220
0.0
230
1.0
 70
     8
 71
     2
 72
     6
 73
     3
 74
     0
 42
0.0000001
 43
0.0000001
 40
0.0
 40
0.0
 40
0.0
 40
1.0
 40
1.0
 40
1.0
 10
49.645544730744014
 20
48.100000000000136
 30
0.0
 10
28.420224579407556
 20
49.325320151336278
 30
0.0
 10
29.645544730744298
 20
28.099999999999863
 30
0.0
  0
ENDBLK
  5
141
100
AcDbEntity
  8
0
100
AcDbBlockEnd
  0
ENDSEC
  0
SECTION
  2
ENTITIES
  0
MTEXT
  5
32
100
AcDbEntity
  8
CONNECTOR
100
AcDbMText
 10
87.3125
 20
60.325
 30
0.0
 40
2.054647
 41
3.175
 71
     5
 72
     5
  1
\C7;\fArial|b0|i0|;\H2.0546471100301; 
  0
ARC
  5
34
102
{ACAD_REACTORS
330
5B
102
}
100
AcDbEntity
  8
0
  6
CONTINUOUS
 62
     7
100
AcDbCircle
 10
257.175
 20
201.6125
 30
0.0
 40
19.866597
100
AcDbArc
 50
126.848088
 51
141.29273
  0
ARC
  5
35
102
{ACAD_REACTORS
330
5B
102
}
100
AcDbEntity
  8
0
  6
CONTINUOUS
 62
     7
100
AcDbCircle
 10
257.175
 20
201.6125
 30
0.0
 40
19.866597
100
AcDbArc
 50
121.351912
 51
126.848088
  0
ARC
  5
36
102
{ACAD_REACTORS
330
5B
102
}
100
AcDbEntity
  8
0
  6
CONTINUOUS
 62
     7
100
AcDbCircle
 10
257.175
 20
201.6125
 30
0.0
 40
19.866597
100
AcDbArc
 50
66.848088
 51
121.351912
  0
ARC
  5
37
102
{ACAD_REACTORS
330
5B
102
}
100
AcDbEntity
  8
0
  6
CONTINUOUS
 62
     7
100
AcDbCircle
 10
257.175
 20
201.6125
 30
0.0
 40
19.866597
100
AcDbArc
 50
61.351912
 51
66.848088
  0
ARC
  5
38
102
{ACAD_REACTORS
330
5B
102
}
100
AcDbEntity
  8
0
  6
CONTINUOUS
 62
     7
100
AcDbCircle
 10
257.175
 20
201.6125
 30
0.0
 40
19.866597
100
AcDbArc
 50
6.848088
 51
61.351912
  0
ARC
  5
39
102
{ACAD_REACTORS
330
5B
102
}
100
AcDbEntity
  8
0
  6
CONTINUOUS
 62
     7
100
AcDbCircle
 10
257.175
 20
201.6125
 30
0.0
 40
19.866597
100
AcDbArc
 50
1.351912
 51
6.848088
  0
ARC
  5
3A
102
{ACAD_REACTORS
330
5B
102
}
100
AcDbEntity
  8
0
  6
CONTINUOUS
 62
     7
100
AcDbCircle
 10
257.175
 20
201.6125
 30
0.0
 40
19.866597
100
AcDbArc
 50
348.151376
 51
1.351912
  0
ARC
  5
3B
102
{ACAD_REACTORS
330
5B
102
}
100
AcDbEntity
  8
0
  6
CONTINUOUS
 62
     7
100
AcDbCircle
 10
265.1125
 20
197.246875
 30
0.0
 40
11.509375
100
AcDbArc
 50
1.426309
 51
4.425212
  0
ELLIPSE
  5
3C
102
{ACAD_REACTORS
330
5B
102
}
100
AcDbEntity
  8
0
  6
CONTINUOUS
 62
     7
100
AcDbEllipse
 10
276.172937
 20
200.942524
 30
0.0
 11
-2.7517246140109664
 21
-1.1117689103365793
 31
0.0
210
0.0
220
0.0
230
1.0
 40
0.953891
 41
-1.4618061414718393
 42
1.3440082498729511
  0
ARC
  5
3D
102
{ACAD_REACTORS
330
5B
102
}
100
AcDbEntity
  8
0
  6
CONTINUOUS
 62
     7
100
AcDbCircle
 10
265.1125
 20
197.246875
 30
0.0
 40
11.509375
100
AcDbArc
 50
32.500025
 51
49.425212
  0
ELLIPSE
  5
3E
102
{ACAD_REACTORS
330
5B
102
}
100
AcDbEntity
  8
0
  6
CONTINUOUS
 62
     7
100
AcDbEllipse
 10
270.320191
 20
207.681003
 30
0.0
 11
-1.1596237989137335
 21
-2.7319024701364283
 31
0.0
210
0.0
220
0.0
230
1.0
 40
0.953891
 41
-1.461806141471822
 42
1.3440082498729375
  0
ARC
  5
3F
102
{ACAD_REACTORS
330
5B
102
}
100
AcDbEntity
  8
0
  6
CONTINUOUS
 62
     7
100
AcDbCircle
 10
265.1125
 20
197.246875
 30
0.0
 40
11.509375
100
AcDbArc
 50
77.500025
 51
94.425212
  0
ELLIPSE
  5
40
102
{ACAD_REACTORS
330
5B
102
}
100
AcDbEntity
  8
0
  6
CONTINUOUS
 62
     7
100
AcDbEllipse
 10
261.416851
 20
208.307312
 30
0.0
 11
1.1117689103365394
 21
-2.7517246140109846
 31
0.0
210
0.0
220
0.0
230
1.0
 40
0.953891
 41
-1.4618061414718242
 42
1.3440082498729395
  0
ARC
  5
41
102
{ACAD_REACTORS
330
5B
102
}
100
AcDbEntity
  8
0
  6
CONTINUOUS
 62
     7
100
AcDbCircle
 10
265.1125
 20
197.246875
 30
0.0
 40
11.509375
100
AcDbArc
 50
122.500025
 51
139.425212
  0
ELLIPSE
  5
42
102
{ACAD_REACTORS
330
5B
102
}
100
AcDbEntity
  8
0
  6
CONTINUOUS
 62
     7
100
AcDbEllipse
 10
254.678372
 20
202.454566
 30
0.0
 11
2.7319024701364594
 21
-1.1596237989137723
 31
0.0
210
0.0
220
0.0
230
1.0
 40
0.953891
 41
-1.4618061414718146
 42
1.3440082498729322
  0
ARC
  5
43
102
{ACAD_REACTORS
330
5B
102
}
100
AcDbEntity
  8
0
  6
CONTINUOUS
 62
     7
100
AcDbCircle
 10
265.1125
 20
197.246875
 30
0.0
 40
11.509375
100
AcDbArc
 50
167.500025
 51
184.425212
  0
ELLIPSE
  5
44
102
{ACAD_REACTORS
330
5B
102
}
100
AcDbEntity
  8
0
  6
CONTINUOUS
 62
     7
100
AcDbEllipse
 10
254.052063
 20
193.551226
 30
0.0
 11
-2.7517246140110858
 21
-1.1117689103366117
 31
0.0
210
0.0
220
0.0
230
1.0
 40
0.953891
 41
1.6797865121179885
 42
4.485600903462676
  0
ARC
  5
45
102
{ACAD_REACTORS
330
5B
102
}
100
AcDbEntity
  8
0
  6
CONTINUOUS
 62
     7
100
AcDbCircle
 10
265.1125
 20
197.246875
 30
0.0
 40
11.509375
100
AcDbArc
 50
212.500025
 51
229.425212
  0
ELLIPSE
  5
46
102
{ACAD_REACTORS
330
5B
102
}
100
AcDbEntity
  8
0
  6
CONTINUOUS
 62
     7
100
AcDbEllipse
 10
259.904809
 20
186.812747
 30
0.0
 11
-1.1596237989137972
 21
-2.7319024701365544
 31
0.0
210
0.0
220
0.0
230
1.0
 40
0.953891
 41
1.6797865121180076
 42
4.4856009034626734
  0
ARC
  5
47
102
{ACAD_REACTORS
330
5B
102
}
100
AcDbEntity
  8
0
  6
CONTINUOUS
 62
     7
100
AcDbCircle
 10
265.1125
 20
197.246875
 30
0.0
 40
11.509375
100
AcDbArc
 50
257.500025
 51
274.425212
  0
ELLIPSE
  5
48
102
{ACAD_REACTORS
330
5B
102
}
100
AcDbEntity
  8
0
  6
CONTINUOUS
 62
     7
100
AcDbEllipse
 10
268.808149
 20
186.186438
 30
0.0
 11
1.1117689103365498
 21
-2.7517246140109628
 31
0.0
210
0.0
220
0.0
230
1.0
 40
0.953891
 41
1.7042670245288694
 42
4.4856009034627204
  0
ARC
  5
49
102
{ACAD_REACTORS
330
5B
102
}
100
AcDbEntity
  8
0
  6
CONTINUOUS
 62
     7
100
AcDbCircle
 10
257.175
 20
201.6125
 30
0.0
 40
19.866597
100
AcDbArc
 50
306.848088
 51
315.158857
  0
ARC
  5
4A
102
{ACAD_REACTORS
330
5B
102
}
100
AcDbEntity
  8
0
  6
CONTINUOUS
 62
     7
100
AcDbCircle
 10
257.175
 20
201.6125
 30
0.0
 40
19.866597
100
AcDbArc
 50
301.351912
 51
306.848088
  0
ARC
  5
4B
102
{ACAD_REACTORS
330
5B
102
}
100
AcDbEntity
  8
0
  6
CONTINUOUS
 62
     7
100
AcDbCircle
 10
257.175
 20
201.6125
 30
0.0
 40
19.866597
100
AcDbArc
 50
246.848088
 51
301.351912
  0
ARC
  5
4C
102
{ACAD_REACTORS
330
5B
102
}
100
AcDbEntity
  8
0
  6
CONTINUOUS
 62
     7
100
AcDbCircle
 10
257.175
 20
201.6125
 30
0.0
 40
19.866597
100
AcDbArc
 50
241.351912
 51
246.848088
  0
ARC
  5
4D
102
{ACAD_REACTORS
330
5B
102
}
100
AcDbEntity
  8
0
  6
CONTINUOUS
 62
     7
100
AcDbCircle
 10
257.175
 20
201.6125
 30
0.0
 40
19.866597
100
AcDbArc
 50
187.979978
 51
241.351912
  0
ARC
  5
4E
102
{ACAD_REACTORS
330
5B
102
}
100
AcDbEntity
  8
0
  6
CONTINUOUS
 62
     7
100
AcDbCircle
 10
245.619602
 20
204.7875
 30
0.0
 40
10.055647
100
AcDbArc
 50
216.158344
 51
217.425212
  0
ELLIPSE
  5
4F
102
{ACAD_REACTORS
330
5B
102
}
100
AcDbEntity
  8
0
  6
CONTINUOUS
 62
     7
100
AcDbEllipse
 10
239.273744
 20
196.816479
 30
0.0
 11
-1.4872661282901918
 21
-2.1240361566126764
 31
0.0
210
0.0
220
0.0
230
1.0
 40
0.953891
 41
1.6797865121180029
 42
4.4856009034626823
  0
ARC
  5
50
102
{ACAD_REACTORS
330
5B
102
}
100
AcDbEntity
  8
0
  6
CONTINUOUS
 62
     7
100
AcDbCircle
 10
245.619602
 20
204.7875
 30
0.0
 40
10.055647
100
AcDbArc
 50
245.500025
 51
262.425212
  0
ELLIPSE
  5
51
102
{ACAD_REACTORS
330
5B
102
}
100
AcDbEntity
  8
0
  6
CONTINUOUS
 62
     7
100
AcDbEllipse
 10
246.768766
 20
194.663938
 30
0.0
 11
0.4502644050831711
 21
-2.5535763345692071
 31
0.0
210
0.0
220
0.0
230
1.0
 40
0.953891
 41
1.6797865121179736
 42
4.48560090346274
  0
ARC
  5
52
102
{ACAD_REACTORS
330
5B
102
}
100
AcDbEntity
  8
0
  6
CONTINUOUS
 62
     7
100
AcDbCircle
 10
245.619602
 20
204.7875
 30
0.0
 40
10.055647
100
AcDbArc
 50
290.500025
 51
307.425212
  0
ELLIPSE
  5
53
102
{ACAD_REACTORS
330
5B
102
}
100
AcDbEntity
  8
0
  6
CONTINUOUS
 62
     7
100
AcDbEllipse
 10
253.590623
 20
198.441642
 30
0.0
 11
2.1240361566125951
 21
-1.4872661282901514
 31
0.0
210
0.0
220
0.0
230
1.0
 40
0.953891
 41
1.6797865121179889
 42
4.4856009034627284
  0
ARC
  5
54
102
{ACAD_REACTORS
330
5B
102
}
100
AcDbEntity
  8
0
  6
CONTINUOUS
 62
     7
100
AcDbCircle
 10
245.619602
 20
204.7875
 30
0.0
 40
10.055647
100
AcDbArc
 50
335.500025
 51
352.425212
  0
ELLIPSE
  5
55
102
{ACAD_REACTORS
330
5B
102
}
100
AcDbEntity
  8
0
  6
CONTINUOUS
 62
     7
100
AcDbEllipse
 10
255.743164
 20
205.936664
 30
0.0
 11
-2.5535763345692044
 21
-0.4502644050831988
 31
0.0
210
0.0
220
0.0
230
1.0
 40
0.953891
 41
-1.4618061414718484
 42
1.3440082498729284
  0
ARC
  5
56
102
{ACAD_REACTORS
330
5B
102
}
100
AcDbEntity
  8
0
  6
CONTINUOUS
 62
     7
100
AcDbCircle
 10
245.619602
 20
204.7875
 30
0.0
 40
10.055647
100
AcDbArc
 50
20.500025
 51
37.425212
  0
ELLIPSE
  5
57
102
{ACAD_REACTORS
330
5B
102
}
100
AcDbEntity
  8
0
  6
CONTINUOUS
 62
     7
100
AcDbEllipse
 10
251.96546
 20
212.758521
 30
0.0
 11
-1.4872661282901576
 21
-2.124036156612628
 31
0.0
210
0.0
220
0.0
230
1.0
 40
0.953891
 41
-1.4618061414718277
 42
1.3440082498729282
  0
ARC
  5
58
102
{ACAD_REACTORS
330
5B
102
}
100
AcDbEntity
  8
0
  6
CONTINUOUS
 62
     7
100
AcDbCircle
 10
245.619602
 20
204.7875
 30
0.0
 40
10.055647
100
AcDbArc
 50
65.500025
 51
82.425212
  0
ELLIPSE
  5
59
102
{ACAD_REACTORS
330
5B
102
}
100
AcDbEntity
  8
0
  6
CONTINUOUS
 62
     7
100
AcDbEllipse
 10
244.470438
 20
214.911062
 30
0.0
 11
0.4502644050831504
 21
-2.5535763345691929
 31
0.0
210
0.0
220
0.0
230
1.0
 40
0.953891
 41
-1.4618061414718069
 42
1.3440082498729333
  0
ARC
  5
5A
102
{ACAD_REACTORS
330
5B
102
}
100
AcDbEntity
  8
0
  6
CONTINUOUS
 62
     7
100
AcDbCircle
 10
245.619602
 20
204.7875
 30
0.0
 40
10.055647
100
AcDbArc
 50
110.500025
 51
113.114365
  0
HATCH
  5
5B
102
{ACAD_REACTORS
330
33
102
}
100
AcDbEntity
  8
0
 62
     7
100
AcDbHatch
 10
0.0
 20
0.0
 30
0.0
210
0.0
220
0.0
230
1.0
  2
SOLID
 70
     1
 71
     1
 91
       15
 92
        1
 93
       39
 72
     2
 10
257.17499999999671
 20
201.61250000000396
 40
19.86659684778186
 50
126.848088
 51
141.29273
 73
     1
 72
     2
 10
257.17500000000558
 20
201.6124999999912
 40
19.866596847797396
 50
121.351912
 51
126.848088
 73
     1
 72
     2
 10
257.17500000000001
 20
201.61250000000007
 40
19.866596847786919
 50
66.848088
 51
121.351912
 73
     1
 72
     2
 10
257.17500000000803
 20
201.61250000001743
 40
19.86659684776782
 50
61.351912
 51
66.848088
 73
     1
 72
     2
 10
257.17500000000001
 20
201.61249999999993
 40
19.866596847787005
 50
6.848088
 51
61.351912
 73
     1
 72
     2
 10
257.1749999999783
 20
201.61249999999873
 40
19.866596847808715
 50
1.351912
 51
6.848088
 73
     1
 72
     2
 10
257.17500000000263
 20
201.61249999999973
 40
19.866596847784333
 50
348.151376
 51
1.351912
 73
     1
 72
     2
 10
265.11249999995078
 20
197.24687499999678
 40
11.509375000049356
 50
94.362599
 51
97.361503
 73
     1
 72
     3
 10
276.17293667542799
 20
200.94252434908367
 11
-2.7517246140109664
 21
-1.1117689103365793
 40
0.953891
 50
282.994
 51
83.755322
 73
     0
 72
     2
 10
265.11250000000308
 20
197.24687500000331
 40
11.50937499999552
 50
125.436316
 51
142.361503
 73
     1
 72
     3
 10
270.32019106045499
 20
207.68100349170422
 11
-1.1596237989137335
 21
-2.7319024701364283
 40
0.953891
 50
282.994
 51
83.755322
 73
     0
 72
     2
 10
265.11250000000007
 20
197.24687500000621
 40
11.509374999993836
 50
170.436316
 51
187.361503
 73
     1
 72
     3
 10
261.41685065091639
 20
208.30731167542805
 11
1.1117689103365394
 21
-2.7517246140109846
 40
0.953891
 50
282.994
 51
83.755322
 73
     0
 72
     2
 10
265.11249999999916
 20
197.2468750000007
 40
11.509374999998951
 50
215.436316
 51
232.361503
 73
     1
 72
     3
 10
254.67837150829575
 20
202.45456606045491
 11
2.7319024701364594
 21
-1.1596237989137723
 40
0.953891
 50
282.994
 51
83.755322
 73
     0
 72
     2
 10
265.1124999999991
 20
197.24687499999996
 40
11.509374999999109
 50
260.436316
 51
277.361503
 73
     1
 72
     3
 10
254.05206332457183
 20
193.55122565091639
 11
-2.7517246140110858
 21
-1.1117689103366117
 40
0.953891
 50
102.994
 51
263.755322
 73
     0
 72
     2
 10
265.11250000000109
 20
197.24687500000093
 40
11.509375000001432
 50
305.436316
 51
322.361503
 73
     1
 72
     3
 10
259.90480893954492
 20
186.8127465082957
 11
-1.1596237989137972
 21
-2.7319024701365544
 40
0.953891
 50
102.994
 51
263.755322
 73
     0
 72
     2
 10
265.11250000000001
 20
197.24687499999732
 40
11.509374999997348
 50
350.436316
 51
7.361503
 73
     1
 72
     3
 10
268.80814934908364
 20
186.18643832457192
 11
1.1117689103365498
 21
-2.7517246140109628
 40
0.953891
 50
102.994
 51
262.352692
 73
     0
 72
     2
 10
257.17500000000172
 20
201.61249999999779
 40
19.866596847784212
 50
306.848088
 51
315.158857
 73
     1
 72
     2
 10
257.17500000000024
 20
201.61249999999984
 40
19.866596847786727
 50
301.351912
 51
306.848088
 73
     1
 72
     2
 10
257.17500000000001
 20
201.61250000000004
 40
19.866596847787012
 50
246.848088
 51
301.351912
 73
     1
 72
     2
 10
257.17499999999455
 20
201.61249999998887
 40
19.866596847774616
 50
241.351912
 51
246.848088
 73
     1
 72
     2
 10
257.17499999999995
 20
201.61249999999993
 40
19.86659684778688
 50
187.979978
 51
241.351912
 73
     1
 72
     2
 10
245.6196021968685
 20
204.78750000012352
 40
10.055646979317679
 50
322.466737
 51
323.733605
 73
     1
 72
     3
 10
239.27374440312684
 20
196.81647921199453
 11
-1.4872661282901918
 21
-2.1240361566126764
 40
0.953891
 50
102.994
 51
263.755322
 73
     0
 72
     2
 10
245.61960219670303
 20
204.78749999999809
 40
10.055646979109545
 50
351.808418
 51
8.733605
 73
     1
 72
     3
 10
246.76876597059766
 20
194.66393806953903
 11
0.4502644050831711
 21
-2.5535763345692071
 40
0.953891
 50
102.994
 51
263.755322
 73
     0
 72
     2
 10
245.61960219670345
 20
204.78750000000008
 40
10.055646979111472
 50
36.808418
 51
53.733605
 73
     1
 72
     3
 10
253.59062298470877
 20
198.44164220642358
 11
2.1240361566125951
 21
-1.4872661282901514
 40
0.953891
 50
102.994
 51
263.755322
 73
     0
 72
     2
 10
245.61960219670695
 20
204.78749999999914
 40
10.055646979107724
 50
81.808418
 51
98.733605
 73
     1
 72
     3
 10
255.74316412716425
 20
205.93666377389428
 11
-2.5535763345692044
 21
-0.4502644050831988
 40
0.953891
 50
282.994
 51
83.755322
 73
     0
 72
     2
 10
245.6196021967061
 20
204.7875000000017
 40
10.055646979108259
 50
126.808418
 51
143.733605
 73
     1
 72
     3
 10
251.96545999027978
 20
212.75852078800537
 11
-1.4872661282901576
 21
-2.124036156612628
 40
0.953891
 50
282.994
 51
83.755322
 73
     0
 72
     2
 10
245.61960219670465
 20
204.78750000000582
 40
10.055646979105566
 50
171.808418
 51
188.733605
 73
     1
 72
     3
 10
244.47043842280914
 20
214.91106193046096
 11
0.4502644050831504
 21
-2.5535763345691929
 40
0.953891
 50
282.994
 51
83.755322
 73
     0
 72
     2
 10
245.6196021966729
 20
204.78750000007489
 40
10.055646979030568
 50
216.808418
 51
219.422757
 73
     1
 97
       39
330
34
330
35
330
36
330
37
330
38
330
39
330
3A
330
3B
330
3C
330
3D
330
3E
330
3F
330
40
330
41
330
42
330
43
330
44
330
45
330
46
330
47
330
48
330
49
330
4A
330
4B
330
4C
330
4D
330
4E
330
4F
330
50
330
51
330
52
330
53
330
54
330
55
330
56
330
57
330
58
330
59
330
5A
 92
        1
 93
        2
 72
     2
 10
257.1749999999995
 20
201.61250000000015
 40
19.866596847786489
 50
149.298892
 51
158.857398
 73
     1
 72
     3
 10
237.64858140869796
 20
211.13335779357635
 11
2.1240361566125769
 21
-1.4872661282901365
 40
0.953891
 50
309.385841
 51
33.282034
 73
     0
 97
        2
330
5C
330
5D
 92
        1
 93
        2
 72
     2
 10
257.17499999999973
 20
201.61250000000004
 40
19.866596847786706
 50
169.908213
 51
179.172818
 73
     1
 72
     3
 10
235.4960402662422
 20
203.63833622610588
 11
-2.5535763345693514
 21
-0.450264405083206
 40
0.953891
 50
154.492993
 51
235.064117
 73
     0
 97
        2
330
5E
330
5F
 92
        3
 72
     1
 73
     1
 93
        8
 10
243.25852704355552
 20
201.13901301605253
 42
-0.1989123673796623
 10
241.37020005760135
 20
203.87716236426189
 42
-0.1989123673796497
 10
241.97111521275588
 20
207.14857515314776
 42
-0.1989123673796793
 10
244.70926456096515
 20
209.03690213910207
 42
-0.1989123673796563
 10
247.98067734985128
 20
208.4359869839474
 42
-0.1989123673796449
 10
249.86900433580536
 20
205.69783763573821
 42
-0.1989123673796726
 10
249.2680891806508
 20
202.42642484685211
 42
-0.1989123673796596
 10
246.52993983244144
 20
200.53809786089801
 42
-0.1989123673796513
 97
        1
330
60
 92
        1
 93
        2
 72
     3
 10
275.54662849170415
 20
192.0391839395451
 11
2.731902470136454
 21
-1.1596237989137701
 40
0.953891
 50
114.609225
 51
254.061216
 73
     0
 72
     2
 10
257.17500000000064
 20
201.61249999999959
 40
19.866596847786226
 50
324.772094
 51
340.140066
 73
     1
 97
        2
330
61
330
62
 92
        3
 72
     1
 73
     1
 93
       11
 10
279.25194760635065
 20
218.47684807364189
 42
0.0
 10
277.27659834458069
 20
217.13943607873591
 42
0.0382228325025223
 10
274.67878394138597
 20
220.01841067383734
 42
0.0
 10
272.50057557256019
 20
217.72793972196351
 42
0.0727639643044331
 10
267.2416106404666
 20
221.44288109254933
 42
0.0088488645804451
 10
266.53356514301504
 20
221.78668951349565
 42
0.072763964304448
 10
260.36196479429958
 20
223.62213242451793
 42
0.0
 10
260.81492483832727
 20
226.75033895189338
 42
0.0382228325025177
 10
256.94595257097393
 20
227.01146724820236
 42
0.0
 10
256.77539443894432
 20
229.39087588769499
 42
-0.1171375822429738
 10
269.30989968309024
 20
226.60333954659859
 42
-0.1171375822429728
 97
        1
330
63
 92
        3
 72
     1
 73
     1
 93
       11
 10
241.59974793229031
 20
224.61705117123142
 42
-0.1171375822429723
 10
253.6085199531386
 20
229.16387150193867
 42
0.0
 10
253.77907808516824
 20
226.78446286244611
 42
0.0382228325025241
 10
249.98690574736298
 20
225.97417689251313
 42
0.0
 10
250.88140759390313
 20
222.94255763443718
 42
0.0727639643044571
 10
245.03469152735843
 20
220.24563109092529
 42
0.008848864580519
 10
244.38292195205864
 20
219.80434991357058
 42
0.0727639643044379
 10
239.70758158955942
 20
215.3773086850891
 42
0.0
 10
237.22495529058196
 20
217.33368685380404
 42
0.0382228325025226
 10
235.06432541865476
 20
214.11362273189306
 42
0.0
 10
232.91841802485521
 20
215.15561937647973
 42
-0.1171375822429812
 97
        1
330
64
 92
        3
 72
     1
 73
     1
 93
       11
 10
263.46859240609695
 20
180.28244236556259
 42
0.0727639643044456
 10
269.31530847264133
 20
182.97936890907451
 42
0.0088488645804899
 10
269.96707804794158
 20
183.42065008642965
 42
0.072763964304434
 10
274.64241841044031
 20
187.84769131491072
 42
0.0
 10
277.12504470941769
 20
185.89131314619539
 42
0.0382228325025147
 10
279.28567458134506
 20
189.11137726810665
 42
0.0
 10
281.43158197514464
 20
188.06938062351998
 42
-0.1171375822429697
 10
272.75025206771033
 20
178.607948828769
 42
-0.1171375822429781
 10
260.7414800468614
 20
174.06112849806129
 42
0.0
 10
260.57092191483179
 20
176.44053713755389
 42
0.0382228325025146
 10
264.3630942526367
 20
177.25082310748681
 42
0.0
 97
        1
330
65
 92
        3
 72
     1
 73
     1
 93
       11
 10
241.84942442743917
 20
185.49706027803668
 42
0.0727639643044481
 10
247.10838935953356
 20
181.78211890745027
 42
0.0088488645805124
 10
247.81643485698459
 20
181.43831048650421
 42
0.0727639643044443
 10
253.98803520570041
 20
179.60286757548187
 42
0.0
 10
253.53507516167235
 20
176.47466104810667
 42
0.0382228325025176
 10
257.40404742902604
 20
176.21353275179763
 42
0.0
 10
257.57460556105565
 20
173.83412411230506
 42
-0.1171375822429803
 10
245.04010031690947
 20
176.62166045340155
 42
-0.1171375822429724
 10
235.09805239364914
 20
184.74815192635839
 42
0.0
 10
237.07340165541908
 20
186.08556392126437
 42
0.0382228325025239
 10
239.67121605861354
 20
183.2065893261632
 42
0.0
 97
        1
330
66
 92
        3
 72
     1
 73
     1
 93
       11
 10
278.79416797865724
 20
196.39788208752586
 42
0.0727639643044386
 10
279.3819191131077
 20
202.80975000162385
 42
0.0088488645805076
 10
279.32564319095633
 20
203.59483959992551
 42
0.0727639643044285
 10
277.82938320474
 20
209.85732373942912
 42
0.0
 10
280.76496954774518
 20
211.02915209808958
 42
0.0382228325025191
 10
279.05662715231898
 20
214.51034451630949
 42
0.0
 10
281.03197641408894
 20
215.84775651121549
 42
-0.1171375822429771
 10
284.88515175080033
 20
203.59878837536738
 42
-0.1171375822429769
 10
282.8184276532121
 20
190.92547657170263
 42
0.0
 10
280.67252025941264
 20
191.96747321628931
 42
0.0382228325025242
 10
281.86687819402306
 20
195.65673378132337
 42
0.0
 97
        1
330
67
 92
        3
 72
     1
 73
     1
 93
       11
 10
233.31802358591125
 20
187.37724348878416
 42
-0.1171375822429877
 10
229.46484824919975
 20
199.62621162463256
 42
-0.1171375822429748
 10
231.5315723467877
 20
212.29952342829699
 42
0.0
 10
233.6774797405873
 20
211.25752678371035
 42
0.0382228325025265
 10
232.48312180597677
 20
207.56826621867592
 42
0.0
 10
235.55583202134281
 20
206.82711791247414
 42
0.0727639643044899
 10
234.96808088689207
 20
200.41524999837588
 42
0.008848864580535
 10
235.02435680904338
 20
199.63016040007446
 42
0.0727639643044408
 10
236.52061679525974
 20
193.36767626057105
 42
0.0
 10
233.58503045225456
 20
192.19584790191109
 42
0.0382228325025371
 10
235.29337284768081
 20
188.71465548369079
 42
0.0
 97
        1
330
68
 92
        3
 72
     1
 73
     1
 93
        6
 10
274.085273673514
 20
176.63613015694921
 42
0.2679491924311181
 10
287.26030761515466
 20
203.76904166468469
 42
0.2679491924311225
 10
270.35003394164079
 20
228.74541150773561
 42
0.2679491924311273
 10
240.26472632648628
 20
226.58886984305104
 42
0.2679491924311065
 10
227.08969238484528
 20
199.45595833531706
 42
0.2679491924311248
 10
243.99996605835773
 20
174.47958849226512
 42
0.267949192431139
 97
        1
330
69
 92
        3
 72
     1
 73
     1
 93
        2
 10
222.25
 20
201.61249999999998
 42
-0.9999999999999999
 10
292.10000000000002
 20
201.61250000000047
 42
-1.0000000000000135
 97
        1
330
6A
 92
        3
 72
     1
 73
     1
 93
        2
 10
215.90000000000001
 20
201.61250000000229
 42
1.000000000000028
 10
298.45000000000005
 20
201.61249999999998
 42
0.9999999999999997
 97
        1
330
6B
 92
        3
 72
     1
 73
     1
 93
        8
 10
263.33736964636722
 20
192.60032372420159
 42
-0.1989123673796729
 10
260.57168537320808
 20
195.21647379429587
 42
-0.1989123673796477
 10
260.46594872420155
 20
199.02200535363269
 42
-0.1989123673796565
 10
263.08209879429575
 20
201.78768962679194
 42
-0.1989123673796605
 10
266.88763035363286
 20
201.89342627579845
 42
-0.198912367379667
 10
269.65331462679183
 20
199.27727620570428
 42
-0.1989123673796546
 10
269.75905127579847
 20
195.47174464636717
 42
-0.1989123673796708
 10
267.14290120570416
 20
192.70606037320806
 42
-0.1989123673796419
 97
        1
330
6C
 75
     0
 76
     1
 98
        0
  0
ARC
  5
5C
102
{ACAD_REACTORS
330
5B
102
}
100
AcDbEntity
  8
0
  6
CONTINUOUS
 62
     7
100
AcDbCircle
 10
257.175
 20
201.6125
 30
0.0
 40
19.866597
100
AcDbArc
 50
149.298892
 51
158.857398
  0
ELLIPSE
  5
5D
102
{ACAD_REACTORS
330
5B
102
}
100
AcDbEntity
  8
0
  6
CONTINUOUS
 62
     7
100
AcDbEllipse
 10
237.648581
 20
211.133358
 30
0.0
 11
2.1240361566125769
 21
-1.4872661282901365
 31
0.0
210
0.0
220
0.0
230
1.0
 40
0.953891
 41
-0.5808810772148367
 42
0.8833837248984356
  0
ARC
  5
5E
102
{ACAD_REACTORS
330
5B
102
}
100
AcDbEntity
  8
0
  6
CONTINUOUS
 62
     7
100
AcDbCircle
 10
257.175
 20
201.6125
 30
0.0
 40
19.866597
100
AcDbArc
 50
169.908213
 51
179.172818
  0
ELLIPSE
  5
5F
102
{ACAD_REACTORS
330
5B
102
}
100
AcDbEntity
  8
0
  6
CONTINUOUS
 62
     7
100
AcDbEllipse
 10
235.49604
 20
203.638336
 30
0.0
 11
-2.5535763345693514
 21
-0.450264405083206
 31
0.0
210
0.0
220
0.0
230
1.0
 40
0.953891
 41
2.1805425140788577
 42
3.5867739001224961
  0
LWPOLYLINE
  5
60
102
{ACAD_REACTORS
330
5B
102
}
100
AcDbEntity
  8
0
  6
CONTINUOUS
 62
     7
100
AcDbPolyline
 90
        8
 70
     1
 10
243.258527
 20
201.139013
 42
-0.198912
 10
241.3702
 20
203.877162
 42
-0.198912
 10
241.971115
 20
207.148575
 42
-0.198912
 10
244.709265
 20
209.036902
 42
-0.198912
 10
247.980677
 20
208.435987
 42
-0.198912
 10
249.869004
 20
205.697838
 42
-0.198912
 10
249.268089
 20
202.426425
 42
-0.198912
 10
246.52994
 20
200.538098
 42
-0.198912
  0
ELLIPSE
  5
61
102
{ACAD_REACTORS
330
5B
102
}
100
AcDbEntity
  8
0
  6
CONTINUOUS
 62
     7
100
AcDbEllipse
 10
275.546628
 20
192.039184
 30
0.0
 11
2.731902470136454
 21
-1.1596237989137701
 31
0.0
210
0.0
220
0.0
230
1.0
 40
0.953891
 41
1.8489805813729523
 42
4.2828769713399977
  0
ARC
  5
62
102
{ACAD_REACTORS
330
5B
102
}
100
AcDbEntity
  8
0
  6
CONTINUOUS
 62
     7
100
AcDbCircle
 10
257.175
 20
201.6125
 30
0.0
 40
19.866597
100
AcDbArc
 50
324.772094
 51
340.140066
  0
LWPOLYLINE
  5
63
102
{ACAD_REACTORS
330
5B
102
}
100
AcDbEntity
  8
0
  6
CONTINUOUS
 62
     7
100
AcDbPolyline
 90
       11
 70
     1
 10
279.251948
 20
218.476848
 10
277.276598
 20
217.139436
 42
0.038223
 10
274.678784
 20
220.018411
 10
272.500576
 20
217.72794
 42
0.072764
 10
267.241611
 20
221.442881
 42
0.008849
 10
266.533565
 20
221.78669
 42
0.072764
 10
260.361965
 20
223.622132
 10
260.814925
 20
226.750339
 42
0.038223
 10
256.945953
 20
227.011467
 10
256.775394
 20
229.390876
 42
-0.117138
 10
269.3099
 20
226.60334
 42
-0.117138
  0
LWPOLYLINE
  5
64
102
{ACAD_REACTORS
330
5B
102
}
100
AcDbEntity
  8
0
  6
CONTINUOUS
 62
     7
100
AcDbPolyline
 90
       11
 70
     1
 10
241.599748
 20
224.617051
 42
-0.117138
 10
253.60852
 20
229.163872
 10
253.779078
 20
226.784463
 42
0.038223
 10
249.986906
 20
225.974177
 10
250.881408
 20
222.942558
 42
0.072764
 10
245.034692
 20
220.245631
 42
0.008849
 10
244.382922
 20
219.80435
 42
0.072764
 10
239.707582
 20
215.377309
 10
237.224955
 20
217.333687
 42
0.038223
 10
235.064325
 20
214.113623
 10
232.918418
 20
215.155619
 42
-0.117138
  0
LWPOLYLINE
  5
65
102
{ACAD_REACTORS
330
5B
102
}
100
AcDbEntity
  8
0
  6
CONTINUOUS
 62
     7
100
AcDbPolyline
 90
       11
 70
     1
 10
263.468592
 20
180.282442
 42
0.072764
 10
269.315308
 20
182.979369
 42
0.008849
 10
269.967078
 20
183.42065
 42
0.072764
 10
274.642418
 20
187.847691
 10
277.125045
 20
185.891313
 42
0.038223
 10
279.285675
 20
189.111377
 10
281.431582
 20
188.069381
 42
-0.117138
 10
272.750252
 20
178.607949
 42
-0.117138
 10
260.74148
 20
174.061128
 10
260.570922
 20
176.440537
 42
0.038223
 10
264.363094
 20
177.250823
  0
LWPOLYLINE
  5
66
102
{ACAD_REACTORS
330
5B
102
}
100
AcDbEntity
  8
0
  6
CONTINUOUS
 62
     7
100
AcDbPolyline
 90
       11
 70
     1
 10
241.849424
 20
185.49706
 42
0.072764
 10
247.108389
 20
181.782119
 42
0.008849
 10
247.816435
 20
181.43831
 42
0.072764
 10
253.988035
 20
179.602868
 10
253.535075
 20
176.474661
 42
0.038223
 10
257.404047
 20
176.213533
 10
257.574606
 20
173.834124
 42
-0.117138
 10
245.0401
 20
176.62166
 42
-0.117138
 10
235.098052
 20
184.748152
 10
237.073402
 20
186.085564
 42
0.038223
 10
239.671216
 20
183.206589
  0
LWPOLYLINE
  5
67
102
{ACAD_REACTORS
330
5B
102
}
100
AcDbEntity
  8
0
  6
CONTINUOUS
 62
     7
100
AcDbPolyline
 90
       11
 70
     1
 10
278.794168
 20
196.397882
 42
0.072764
 10
279.381919
 20
202.80975
 42
0.008849
 10
279.325643
 20
203.59484
 42
0.072764
 10
277.829383
 20
209.857324
 10
280.76497
 20
211.029152
 42
0.038223
 10
279.056627
 20
214.510345
 10
281.031976
 20
215.847757
 42
-0.117138
 10
284.885152
 20
203.598788
 42
-0.117138
 10
282.818428
 20
190.925477
 10
280.67252
 20
191.967473
 42
0.038223
 10
281.866878
 20
195.656734
  0
LWPOLYLINE
  5
68
102
{ACAD_REACTORS
330
5B
102
}
100
AcDbEntity
  8
0
  6
CONTINUOUS
 62
     7
100
AcDbPolyline
 90
       11
 70
     1
 10
233.318024
 20
187.377243
 42
-0.117138
 10
229.464848
 20
199.626212
 42
-0.117138
 10
231.531572
 20
212.299523
 10
233.67748
 20
211.257527
 42
0.038223
 10
232.483122
 20
207.568266
 10
235.555832
 20
206.827118
 42
0.072764
 10
234.968081
 20
200.41525
 42
0.008849
 10
235.024357
 20
199.63016
 42
0.072764
 10
236.520617
 20
193.367676
 10
233.58503
 20
192.195848
 42
0.038223
 10
235.293373
 20
188.714655
  0
LWPOLYLINE
  5
69
102
{ACAD_REACTORS
330
5B
102
}
100
AcDbEntity
  8
0
  6
CONTINUOUS
 62
     7
100
AcDbPolyline
 90
        6
 70
     1
 10
274.085274
 20
176.63613
 42
0.267949
 10
287.260308
 20
203.769042
 42
0.267949
 10
270.350034
 20
228.745412
 42
0.267949
 10
240.264726
 20
226.58887
 42
0.267949
 10
227.089692
 20
199.455958
 42
0.267949
 10
243.999966
 20
174.479588
 42
0.267949
  0
LWPOLYLINE
  5
6A
102
{ACAD_REACTORS
330
5B
102
}
100
AcDbEntity
  8
0
  6
CONTINUOUS
 62
     7
100
AcDbPolyline
 90
        2
 70
     1
 10
222.25
 20
201.6125
 42
-1.0
 10
292.1
 20
201.6125
 42
-1.0
  0
LWPOLYLINE
  5
6B
102
{ACAD_REACTORS
330
5B
102
}
100
AcDbEntity
  8
0
  6
CONTINUOUS
 62
     7
100
AcDbPolyline
 90
        2
 70
     1
 10
215.9
 20
201.6125
 42
1.0
 10
298.45
 20
201.6125
 42
1.0
  0
LWPOLYLINE
  5
6C
102
{ACAD_REACTORS
330
5B
102
}
100
AcDbEntity
  8
0
  6
CONTINUOUS
 62
     7
100
AcDbPolyline
 90
        8
 70
     1
 10
263.33737
 20
192.600324
 42
-0.198912
 10
260.571685
 20
195.216474
 42
-0.198912
 10
260.465949
 20
199.022005
 42
-0.198912
 10
263.082099
 20
201.78769
 42
-0.198912
 10
266.88763
 20
201.893426
 42
-0.198912
 10
269.653315
 20
199.277276
 42
-0.198912
 10
269.759051
 20
195.471745
 42
-0.198912
 10
267.142901
 20
192.70606
 42
-0.198912
  0
CIRCLE
  5
6D
102
{ACAD_REACTORS
330
33
102
}
100
AcDbEntity
  8
0
  6
CONTINUOUS
 62
    10
100
AcDbCircle
 10
257.175
 20
201.6125
 30
0.0
 40
47.625
  0
LWPOLYLINE
  5
6F
102
{ACAD_REACTORS
330
70
102
}
100
AcDbEntity
  8
0
  6
CONTINUOUS
 62
     7
100
AcDbPolyline
 90
        2
 70
     1
 10
307.975
 20
174.625
 42
1.0
 10
390.525
 20
174.625
 42
1.0
  0
HATCH
  5
70
102
{ACAD_REACTORS
330
6E
102
}
100
AcDbEntity
  8
0
 62
     7
100
AcDbHatch
 10
0.0
 20
0.0
 30
0.0
210
0.0
220
0.0
230
1.0
  2
SOLID
 70
     1
 71
     1
 91
        2
 92
        3
 72
     1
 73
     1
 93
        2
 10
307.97500000000002
 20
174.62500000000173
 42
1.0000000000000211
 10
390.52499999999998
 20
174.625
 42
0.9999999999999999
 97
        1
330
6F
 92
        3
 72
     1
 73
     1
 93
        2
 10
384.17500000000001
 20
174.625
 42
-1.0000000000000213
 10
314.32499999999999
 20
174.62500000000094
 42
-0.9999999999999866
 97
        1
330
71
 75
     0
 76
     1
 98
        0
  0
LWPOLYLINE
  5
71
102
{ACAD_REACTORS
330
70
102
}
100
AcDbEntity
  8
0
  6
CONTINUOUS
 62
     7
100
AcDbPolyline
 90
        2
 70
     1
 10
384.175
 20
174.625
 42
-1.0
 10
314.325
 20
174.625
 42
-1.0
  0
SPLINE
  5
72
102
{ACAD_REACTORS
330
92
102
}
100
AcDbEntity
  8
0
  6
CONTINUOUS
 62
     7
100
AcDbSpline
210
0.0
220
0.0
230
1.0
 70
     8
 71
     2
 72
     6
 73
     3
 74
     0
 42
0.0000001
 43
0.0000001
 40
0.0
 40
0.0
 40
0.0
 40
0.17821212263736
 40
0.17821212263736
 40
0.17821212263736
 10
319.72263701520319
 20
186.53125
 30
0.0
 10
320.76427369207158
 20
184.73127221024171
 30
0.0
 10
321.76598994887217
 20
183.06572045949622
 30
0.0
  0
LINE
  5
73
102
{ACAD_REACTORS
330
92
102
}
100
AcDbEntity
  8
0
  6
CONTINUOUS
 62
     7
100
AcDbLine
 10
321.76599
 20
183.06572
 30
0.0
 11
330.673227
 21
180.745559
 31
0.0
  0
SPLINE
  5
74
102
{ACAD_REACTORS
330
92
102
}
100
AcDbEntity
  8
0
  6
CONTINUOUS
 62
     7
100
AcDbSpline
210
0.0
220
0.0
230
1.0
 70
     8
 71
     2
 72
     6
 73
     3
 74
     0
 42
0.0000001
 43
0.0000001
 40
0.0778591894188888
 40
0.0778591894188888
 40
0.0778591894188888
 40
0.13507530534965
 40
0.13507530534965
 40
0.13507530534965
 10
330.67322666170622
 20
180.74555908208015
 30
0.0
 10
330.86245537885594
 20
179.39352056629471
 30
0.0
 10
331.11343539065899
 20
178.09342895441864
 30
0.0
  0
LINE
  5
75
102
{ACAD_REACTORS
330
92
102
}
100
AcDbEntity
  8
0
  6
CONTINUOUS
 62
     7
100
AcDbLine
 10
331.113435
 20
178.093429
 30
0.0
 11
323.615267
 21
180.051148
 31
0.0
  0
SPLINE
  5
76
102
{ACAD_REACTORS
330
92
102
}
100
AcDbEntity
  8
0
  6
CONTINUOUS
 62
     7
100
AcDbSpline
210
0.0
220
0.0
230
1.0
 70
     8
 71
     2
 72
     6
 73
     3
 74
     0
 42
0.0000001
 43
0.0000001
 40
0.0
 40
0.0
 40
0.0
 40
0.21548147612249
 40
0.21548147612249
 40
0.21548147612249
 10
323.61526713746281
 20
180.0511479821815
 30
0.0
 10
324.78106552797124
 20
178.19017853704977
 30
0.0
 10
325.8885005297164
 20
176.52573906734122
 30
0.0
  0
LINE
  5
77
102
{ACAD_REACTORS
330
92
102
}
100
AcDbEntity
  8
0
  6
CONTINUOUS
 62
     7
100
AcDbLine
 10
325.888501
 20
176.525739
 30
0.0
 11
331.822625
 21
174.980015
 31
0.0
  0
SPLINE
  5
78
102
{ACAD_REACTORS
330
92
102
}
100
AcDbEntity
  8
0
  6
CONTINUOUS
 62
     7
100
AcDbSpline
210
0.0
220
0.0
230
1.0
 70
     8
 71
     2
 72
     6
 73
     3
 74
     0
 42
0.0000001
 43
0.0000001
 40
0.2053071601020631
 40
0.2053071601020631
 40
0.2053071601020631
 40
0.24928373608616
 40
0.24928373608616
 40
0.24928373608616
 10
331.82262487370969
 20
174.98001545455347
 30
0.0
 10
332.07378853961796
 20
174.02976821994676
 30
0.0
 10
332.36143198011581
 20
173.11020878477592
 30
0.0
  0
LINE
  5
79
102
{ACAD_REACTORS
330
92
102
}
100
AcDbEntity
  8
0
  6
CONTINUOUS
 62
     7
100
AcDbLine
 10
332.361432
 20
173.110209
 30
0.0
 11
327.315148
 21
174.428279
 31
0.0
  0
SPLINE
  5
7A
102
{ACAD_REACTORS
330
92
102
}
100
AcDbEntity
  8
0
  6
CONTINUOUS
 62
     7
100
AcDbSpline
210
0.0
220
0.0
230
1.0
 70
     8
 71
     2
 72
     6
 73
     3
 74
     0
 42
0.0000001
 43
0.0000001
 40
0.0
 40
0.0
 40
0.0
 40
0.27709133754513
 40
0.27709133754513
 40
0.27709133754513
 10
327.31514809740287
 20
174.42827937352129
 30
0.0
 10
328.69002651257517
 20
172.45359238612534
 30
0.0
 10
329.96839621684552
 20
170.80388403659543
 30
0.0
  0
LINE
  5
7B
102
{ACAD_REACTORS
330
92
102
}
100
AcDbEntity
  8
0
  6
CONTINUOUS
 62
     7
100
AcDbLine
 10
329.968396
 20
170.803884
 30
0.0
 11
333.523934
 21
169.877736
 31
0.0
  0
SPLINE
  5
7C
102
{ACAD_REACTORS
330
92
102
}
100
AcDbEntity
  8
0
  6
CONTINUOUS
 62
     7
100
AcDbSpline
210
0.0
220
0.0
230
1.0
 70
     8
 71
     2
 72
     6
 73
     3
 74
     0
 42
0.0000001
 43
0.0000001
 40
0.3289883322295121
 40
0.3289883322295121
 40
0.3289883322295121
 40
0.91028303436798
 40
0.91028303436798
 40
0.91028303436798
 10
333.52393378484913
 20
169.87773587109896
 30
0.0
 10
338.20004033102242
 20
158.45793681044174
 30
0.0
 10
349.25
 20
152.39999999999998
 30
0.0
  0
SPLINE
  5
7D
102
{ACAD_REACTORS
330
92
102
}
100
AcDbEntity
  8
0
  6
CONTINUOUS
 62
     7
100
AcDbSpline
210
0.0
220
0.0
230
1.0
 70
     8
 71
     2
 72
     6
 73
     3
 74
     0
 42
0.0000001
 43
0.0000001
 40
0.0
 40
0.0
 40
0.0
 40
0.58092992997065
 40
0.58092992997065
 40
0.58092992997065
 10
349.25
 20
152.39999999999998
 30
0.0
 10
360.29302563409317
 20
158.45413535356457
 30
0.0
 10
364.97019503481818
 20
169.86340575187631
 30
0.0
  0
LINE
  5
7E
102
{ACAD_REACTORS
330
92
102
}
100
AcDbEntity
  8
0
  6
CONTINUOUS
 62
     7
100
AcDbLine
 10
364.970195
 20
169.863406
 30
0.0
 11
368.531604
 21
170.788183
 31
0.0
  0
SPLINE
  5
7F
102
{ACAD_REACTORS
330
92
102
}
100
AcDbEntity
  8
0
  6
CONTINUOUS
 62
     7
100
AcDbSpline
210
0.0
220
0.0
230
1.0
 70
     8
 71
     2
 72
     6
 73
     3
 74
     0
 42
0.0000001
 43
0.0000001
 40
0.0
 40
0.0
 40
0.0
 40
0.27709133754513
 40
0.27709133754513
 40
0.27709133754513
 10
368.53160378315448
 20
170.78818322720036
 30
0.0
 10
369.80997348742483
 20
172.43789157673046
 30
0.0
 10
371.18485190259713
 20
174.41257856412625
 30
0.0
  0
LINE
  5
80
102
{ACAD_REACTORS
330
92
102
}
100
AcDbEntity
  8
0
  6
CONTINUOUS
 62
     7
100
AcDbLine
 10
371.184852
 20
174.412579
 30
0.0
 11
366.134449
 21
173.097047
 31
0.0
  0
SPLINE
  5
81
102
{ACAD_REACTORS
330
92
102
}
100
AcDbEntity
  8
0
  6
CONTINUOUS
 62
     7
100
AcDbSpline
210
0.0
220
0.0
230
1.0
 70
     8
 71
     2
 72
     6
 73
     3
 74
     0
 42
0.0000001
 43
0.0000001
 40
0.6606845401096851
 40
0.6606845401096851
 40
0.6606845401096851
 40
0.70458562319895
 40
0.70458562319895
 40
0.70458562319895
 10
366.13444858978789
 20
173.09704703796052
 30
0.0
 10
366.42185889617224
 20
174.01480863289549
 30
0.0
 10
366.67291456731249
 20
174.96315275657327
 30
0.0
  0
LINE
  5
82
102
{ACAD_REACTORS
330
92
102
}
100
AcDbEntity
  8
0
  6
CONTINUOUS
 62
     7
100
AcDbLine
 10
366.672915
 20
174.963153
 30
0.0
 11
372.611499
 21
176.510038
 31
0.0
  0
SPLINE
  5
83
102
{ACAD_REACTORS
330
92
102
}
100
AcDbEntity
  8
0
  6
CONTINUOUS
 62
     7
100
AcDbSpline
210
0.0
220
0.0
230
1.0
 70
     8
 71
     2
 72
     6
 73
     3
 74
     0
 42
0.0000001
 43
0.0000001
 40
0.4183271387496471
 40
0.4183271387496471
 40
0.4183271387496471
 40
0.63380861487214
 40
0.63380861487214
 40
0.63380861487214
 10
372.61149947028366
 20
176.51003825794618
 30
0.0
 10
373.71893447202865
 20
178.1744777276549
 30
0.0
 10
374.88473286253719
 20
180.03544717278643
 30
0.0
  0
LINE
  5
84
102
{ACAD_REACTORS
330
92
102
}
100
AcDbEntity
  8
0
  6
CONTINUOUS
 62
     7
100
AcDbLine
 10
374.884733
 20
180.035447
 30
0.0
 11
367.384305
 21
178.081732
 31
0.0
  0
SPLINE
  5
85
102
{ACAD_REACTORS
330
92
102
}
100
AcDbEntity
  8
0
  6
CONTINUOUS
 62
     7
100
AcDbSpline
210
0.0
220
0.0
230
1.0
 70
     8
 71
     2
 72
     6
 73
     3
 74
     0
 42
0.0000001
 43
0.0000001
 40
0.7749503202545612
 40
0.7749503202545612
 40
0.7749503202545612
 40
0.83207900441317
 40
0.83207900441317
 40
0.83207900441317
 10
367.38430509874189
 20
178.08173207879071
 30
0.0
 10
367.63517897624507
 20
179.37960367858219
 30
0.0
 10
367.82449013883127
 20
180.72926354377188
 30
0.0
  0
LINE
  5
86
102
{ACAD_REACTORS
330
92
102
}
100
AcDbEntity
  8
0
  6
CONTINUOUS
 62
     7
100
AcDbLine
 10
367.82449
 20
180.729264
 30
0.0
 11
376.73401
 21
183.05002
 31
0.0
  0
SPLINE
  5
87
102
{ACAD_REACTORS
330
92
102
}
100
AcDbEntity
  8
0
  6
CONTINUOUS
 62
     7
100
AcDbSpline
210
0.0
220
0.0
230
1.0
 70
     8
 71
     2
 72
     6
 73
     3
 74
     0
 42
0.0000001
 43
0.0000001
 40
0.801450398378325
 40
0.801450398378325
 40
0.801450398378325
 40
0.97966252101569
 40
0.97966252101569
 40
0.97966252101569
 10
376.73401005112777
 20
183.05001965010112
 30
0.0
 10
377.73572630792859
 20
184.71557140084681
 30
0.0
 10
378.77736298479675
 20
186.51554919060496
 30
0.0
  0
LINE
  5
88
102
{ACAD_REACTORS
330
92
102
}
100
AcDbEntity
  8
0
  6
CONTINUOUS
 62
     7
100
AcDbLine
 10
378.777363
 20
186.515549
 30
0.0
 11
368.165638
 21
183.751402
 31
0.0
  0
SPLINE
  5
89
102
{ACAD_REACTORS
330
92
102
}
100
AcDbEntity
  8
0
  6
CONTINUOUS
 62
     7
100
AcDbSpline
210
0.0
220
0.0
230
1.0
 70
     8
 71
     2
 72
     6
 73
     3
 74
     0
 42
0.0000001
 43
0.0000001
 40
0.894721998621921
 40
0.894721998621921
 40
0.894721998621921
 40
0.91028303436798
 40
0.91028303436798
 40
0.91028303436798
 10
368.16563784812132
 20
183.75140183451256
 30
0.0
 10
368.19881609848414
 20
184.13449785262316
 30
0.0
 10
368.22742676716547
 20
184.5214362472866
 30
0.0
  0
SPLINE
  5
8A
102
{ACAD_REACTORS
330
92
102
}
100
AcDbEntity
  8
0
  6
CONTINUOUS
 62
     7
100
AcDbSpline
210
0.0
220
0.0
230
1.0
 70
     8
 71
     2
 72
     6
 73
     3
 74
     0
 42
0.0000001
 43
0.0000001
 40
0.9102830343679774
 40
0.9102830343679774
 40
0.9102830343679774
 40
1.0
 40
1.0
 40
1.0
 10
368.22742676716547
 20
184.5214362472866
 30
0.0
 10
368.39238123553736
 20
186.75232493761877
 30
0.0
 10
368.40550539519836
 20
189.11093749999998
 30
0.0
  0
SPLINE
  5
8B
102
{ACAD_REACTORS
330
92
102
}
100
AcDbEntity
  8
0
  6
CONTINUOUS
 62
     7
100
AcDbSpline
210
0.0
220
0.0
230
1.0
 70
     8
 71
     2
 72
     6
 73
     3
 74
     0
 42
0.0000001
 43
0.0000001
 40
0.0
 40
0.0
 40
0.0
 40
0.26342147891527
 40
0.26342147891527
 40
0.26342147891527
 10
368.40550539519836
 20
189.11093749999998
 30
0.0
 10
366.26765941546461
 20
189.59704374686692
 30
0.0
 10
363.92690524402923
 20
190.2539106487142
 30
0.0
  0
SPLINE
  5
8C
102
{ACAD_REACTORS
330
92
102
}
100
AcDbEntity
  8
0
  6
CONTINUOUS
 62
     7
100
AcDbSpline
210
0.0
220
0.0
230
1.0
 70
     8
 71
     2
 72
     6
 73
     3
 74
     0
 42
0.0000001
 43
0.0000001
 40
0.2634214789152678
 40
0.2634214789152678
 40
0.2634214789152678
 40
1.0
 40
1.0
 40
1.0
 10
363.92690524402923
 20
190.2539106487142
 30
0.0
 10
357.38169392368263
 20
192.09064033797321
 30
0.0
 10
349.25
 20
195.26249999999999
 30
0.0
  0
SPLINE
  5
8D
102
{ACAD_REACTORS
330
92
102
}
100
AcDbEntity
  8
0
  6
CONTINUOUS
 62
     7
100
AcDbSpline
210
0.0
220
0.0
230
1.0
 70
     8
 71
     2
 72
     6
 73
     3
 74
     0
 42
0.0000001
 43
0.0000001
 40
0.0
 40
0.0
 40
0.0
 40
0.73657852108473
 40
0.73657852108473
 40
0.73657852108473
 10
349.25
 20
195.26249999999999
 30
0.0
 10
341.11830607631731
 20
192.09064033797321
 30
0.0
 10
334.57309475597071
 20
190.2539106487144
 30
0.0
  0
SPLINE
  5
8E
102
{ACAD_REACTORS
330
92
102
}
100
AcDbEntity
  8
0
  6
CONTINUOUS
 62
     7
100
AcDbSpline
210
0.0
220
0.0
230
1.0
 70
     8
 71
     2
 72
     6
 73
     3
 74
     0
 42
0.0000001
 43
0.0000001
 40
0.0
 40
0.0
 40
0.0
 40
0.26342147891527
 40
0.26342147891527
 40
0.26342147891527
 10
334.57309475597071
 20
190.2539106487144
 30
0.0
 10
332.23234058453528
 20
189.59704374686731
 30
0.0
 10
330.09449460480164
 20
189.11093750000035
 30
0.0
  0
SPLINE
  5
8F
102
{ACAD_REACTORS
330
92
102
}
100
AcDbEntity
  8
0
  6
CONTINUOUS
 62
     7
100
AcDbSpline
210
0.0
220
0.0
230
1.0
 70
     8
 71
     2
 72
     6
 73
     3
 74
     0
 42
0.0000001
 43
0.0000001
 40
0.0
 40
0.0
 40
0.0
 40
0.089716965632023
 40
0.089716965632023
 40
0.089716965632023
 10
330.09449460480164
 20
189.11093750000035
 30
0.0
 10
330.10761876446259
 20
186.75232493761877
 30
0.0
 10
330.27257323283447
 20
184.52143624728686
 30
0.0
  0
SPLINE
  5
90
102
{ACAD_REACTORS
330
92
102
}
100
AcDbEntity
  8
0
  6
CONTINUOUS
 62
     7
100
AcDbSpline
210
0.0
220
0.0
230
1.0
 70
     8
 71
     2
 72
     6
 73
     3
 74
     0
 42
0.0000001
 43
0.0000001
 40
0.0
 40
0.0
 40
0.0
 40
0.015352053225113
 40
0.015352053225113
 40
0.015352053225113
 10
330.27257323283447
 20
184.52143624728686
 30
0.0
 10
330.30079966426035
 20
184.13969438082913
 30
0.0
 10
330.33347181722309
 20
183.76169237878673
 30
0.0
  0
LINE
  5
91
102
{ACAD_REACTORS
330
92
102
}
100
AcDbEntity
  8
0
  6
CONTINUOUS
 62
     7
100
AcDbLine
 10
330.333472
 20
183.761692
 30
0.0
 11
319.722637
 21
186.53125
 31
0.0
  0
HATCH
  5
92
102
{ACAD_REACTORS
330
6E
102
}
100
AcDbEntity
  8
0
 62
     7
100
AcDbHatch
 10
0.0
 20
0.0
 30
0.0
210
0.0
220
0.0
230
1.0
  2
SOLID
 70
     1
 71
     1
 91
        5
 92
        1
 93
       32
 72
     4
 94
        2
 73
     0
 74
     0
 95
        6
 96
        3
 40
0.0
 40
0.0
 40
0.0
 40
0.178212
 40
0.178212
 40
0.178212
 10
319.72263701520319
 20
186.53125
 10
320.76427369207158
 20
184.73127221024171
 10
321.76598994887217
 20
183.06572045949622
 72
     1
 10
321.76598994887217
 20
183.06572045949622
 11
330.67322666170622
 21
180.74555908208015
 72
     4
 94
        2
 73
     0
 74
     0
 95
        6
 96
        3
 40
0.077859
 40
0.077859
 40
0.077859
 40
0.135075
 40
0.135075
 40
0.135075
 10
330.67322666170622
 20
180.74555908208015
 10
330.86245537885594
 20
179.39352056629471
 10
331.11343539065899
 20
178.09342895441864
 72
     1
 10
331.11343539065899
 20
178.09342895441864
 11
323.61526713746281
 21
180.0511479821815
 72
     4
 94
        2
 73
     0
 74
     0
 95
        6
 96
        3
 40
0.0
 40
0.0
 40
0.0
 40
0.215481
 40
0.215481
 40
0.215481
 10
323.61526713746281
 20
180.0511479821815
 10
324.78106552797124
 20
178.19017853704977
 10
325.8885005297164
 20
176.52573906734122
 72
     1
 10
325.8885005297164
 20
176.52573906734122
 11
331.82262487370969
 21
174.98001545455347
 72
     4
 94
        2
 73
     0
 74
     0
 95
        6
 96
        3
 40
0.205307
 40
0.205307
 40
0.205307
 40
0.249284
 40
0.249284
 40
0.249284
 10
331.82262487370969
 20
174.98001545455347
 10
332.07378853961796
 20
174.02976821994676
 10
332.36143198011581
 20
173.11020878477592
 72
     1
 10
332.36143198011581
 20
173.11020878477592
 11
327.31514809740287
 21
174.42827937352129
 72
     4
 94
        2
 73
     0
 74
     0
 95
        6
 96
        3
 40
0.0
 40
0.0
 40
0.0
 40
0.277091
 40
0.277091
 40
0.277091
 10
327.31514809740287
 20
174.42827937352129
 10
328.69002651257517
 20
172.45359238612534
 10
329.96839621684552
 20
170.80388403659543
 72
     1
 10
329.96839621684552
 20
170.80388403659543
 11
333.52393378484913
 21
169.87773587109896
 72
     4
 94
        2
 73
     0
 74
     0
 95
        6
 96
        3
 40
0.328988
 40
0.328988
 40
0.328988
 40
0.910283
 40
0.910283
 40
0.910283
 10
333.52393378484913
 20
169.87773587109896
 10
338.20004033102242
 20
158.45793681044174
 10
349.25
 20
152.39999999999998
 72
     4
 94
        2
 73
     0
 74
     0
 95
        6
 96
        3
 40
0.0
 40
0.0
 40
0.0
 40
0.58093
 40
0.58093
 40
0.58093
 10
349.25
 20
152.39999999999998
 10
360.29302563409317
 20
158.45413535356457
 10
364.97019503481818
 20
169.86340575187631
 72
     1
 10
364.97019503481818
 20
169.86340575187631
 11
368.53160378315448
 21
170.78818322720036
 72
     4
 94
        2
 73
     0
 74
     0
 95
        6
 96
        3
 40
0.0
 40
0.0
 40
0.0
 40
0.277091
 40
0.277091
 40
0.277091
 10
368.53160378315448
 20
170.78818322720036
 10
369.80997348742483
 20
172.43789157673046
 10
371.18485190259713
 20
174.41257856412625
 72
     1
 10
371.18485190259713
 20
174.41257856412625
 11
366.13444858978789
 21
173.09704703796052
 72
     4
 94
        2
 73
     0
 74
     0
 95
        6
 96
        3
 40
0.660685
 40
0.660685
 40
0.660685
 40
0.704586
 40
0.704586
 40
0.704586
 10
366.13444858978789
 20
173.09704703796052
 10
366.42185889617224
 20
174.01480863289549
 10
366.67291456731249
 20
174.96315275657327
 72
     1
 10
366.67291456731249
 20
174.96315275657327
 11
372.61149947028366
 21
176.51003825794618
 72
     4
 94
        2
 73
     0
 74
     0
 95
        6
 96
        3
 40
0.418327
 40
0.418327
 40
0.418327
 40
0.633809
 40
0.633809
 40
0.633809
 10
372.61149947028366
 20
176.51003825794618
 10
373.71893447202865
 20
178.1744777276549
 10
374.88473286253719
 20
180.03544717278643
 72
     1
 10
374.88473286253719
 20
180.03544717278643
 11
367.38430509874189
 21
178.08173207879071
 72
     4
 94
        2
 73
     0
 74
     0
 95
        6
 96
        3
 40
0.77495
 40
0.77495
 40
0.77495
 40
0.832079
 40
0.832079
 40
0.832079
 10
367.38430509874189
 20
178.08173207879071
 10
367.63517897624507
 20
179.37960367858219
 10
367.82449013883127
 20
180.72926354377188
 72
     1
 10
367.82449013883127
 20
180.72926354377188
 11
376.73401005112777
 21
183.05001965010112
 72
     4
 94
        2
 73
     0
 74
     0
 95
        6
 96
        3
 40
0.80145
 40
0.80145
 40
0.80145
 40
0.979663
 40
0.979663
 40
0.979663
 10
376.73401005112777
 20
183.05001965010112
 10
377.73572630792859
 20
184.71557140084681
 10
378.77736298479675
 20
186.51554919060496
 72
     1
 10
378.77736298479675
 20
186.51554919060496
 11
368.16563784812132
 21
183.75140183451256
 72
     4
 94
        2
 73
     0
 74
     0
 95
        6
 96
        3
 40
0.894722
 40
0.894722
 40
0.894722
 40
0.910283
 40
0.910283
 40
0.910283
 10
368.16563784812132
 20
183.75140183451256
 10
368.19881609848414
 20
184.13449785262316
 10
368.22742676716547
 20
184.5214362472866
 72
     4
 94
        2
 73
     0
 74
     0
 95
        6
 96
        3
 40
0.910283
 40
0.910283
 40
0.910283
 40
1.0
 40
1.0
 40
1.0
 10
368.22742676716547
 20
184.5214362472866
 10
368.39238123553736
 20
186.75232493761877
 10
368.40550539519836
 20
189.11093749999998
 72
     4
 94
        2
 73
     0
 74
     0
 95
        6
 96
        3
 40
0.0
 40
0.0
 40
0.0
 40
0.263421
 40
0.263421
 40
0.263421
 10
368.40550539519836
 20
189.11093749999998
 10
366.26765941546461
 20
189.59704374686692
 10
363.92690524402923
 20
190.2539106487142
 72
     4
 94
        2
 73
     0
 74
     0
 95
        6
 96
        3
 40
0.263421
 40
0.263421
 40
0.263421
 40
1.0
 40
1.0
 40
1.0
 10
363.92690524402923
 20
190.2539106487142
 10
357.38169392368263
 20
192.09064033797321
 10
349.25
 20
195.26249999999999
 72
     4
 94
        2
 73
     0
 74
     0
 95
        6
 96
        3
 40
0.0
 40
0.0
 40
0.0
 40
0.736579
 40
0.736579
 40
0.736579
 10
349.25
 20
195.26249999999999
 10
341.11830607631731
 20
192.09064033797321
 10
334.57309475597071
 20
190.2539106487144
 72
     4
 94
        2
 73
     0
 74
     0
 95
        6
 96
        3
 40
0.0
 40
0.0
 40
0.0
 40
0.263421
 40
0.263421
 40
0.263421
 10
334.57309475597071
 20
190.2539106487144
 10
332.23234058453528
 20
189.59704374686731
 10
330.09449460480164
 20
189.11093750000035
 72
     4
 94
        2
 73
     0
 74
     0
 95
        6
 96
        3
 40
0.0
 40
0.0
 40
0.0
 40
0.089717
 40
0.089717
 40
0.089717
 10
330.09449460480164
 20
189.11093750000035
 10
330.10761876446259
 20
186.75232493761877
 10
330.27257323283447
 20
184.52143624728686
 72
     4
 94
        2
 73
     0
 74
     0
 95
        6
 96
        3
 40
0.0
 40
0.0
 40
0.0
 40
0.015352
 40
0.015352
 40
0.015352
 10
330.27257323283447
 20
184.52143624728686
 10
330.30079966426035
 20
184.13969438082913
 10
330.33347181722309
 20
183.76169237878673
 72
     1
 10
330.33347181722309
 20
183.76169237878673
 11
319.72263701520319
 21
186.53125
 97
       32
330
72
330
73
330
74
330
75
330
76
330
77
330
78
330
79
330
7A
330
7B
330
7C
330
7D
330
7E
330
7F
330
80
330
81
330
82
330
83
330
84
330
85
330
86
330
87
330
88
330
89
330
8A
330
8B
330
8C
330
8D
330
8E
330
8F
330
90
330
91
 92
        1
 93
        6
 72
     1
 10
362.87345616686912
 20
176.90674394178413
 11
349.25
 21
173.35809941325749
 72
     1
 10
349.25
 20
173.35809941325749
 11
335.62437305331207
 21
176.91565483719162
 72
     4
 94
        2
 73
     0
 74
     0
 95
        6
 96
        3
 40
0.611027
 40
0.611027
 40
0.611027
 40
0.67683
 40
0.67683
 40
0.67683
 10
335.62437305331207
 20
176.91565483719162
 10
335.3047794557836
 20
178.22828386577672
 10
335.07437591618162
 20
179.59914557071988
 72
     1
 10
335.07437591618162
 20
179.59914557071988
 11
349.25
 21
175.90667207300149
 72
     1
 10
349.25
 20
175.90667207300149
 11
363.42286068515727
 21
179.58272494988944
 72
     4
 94
        2
 73
     0
 74
     0
 95
        6
 96
        3
 40
0.323564
 40
0.323564
 40
0.323564
 40
0.389196
 40
0.389196
 40
0.389196
 10
363.42286068515727
 20
179.58272494988944
 10
363.19252227384976
 20
178.21576904707933
 10
362.87345616686918
 20
176.90674394178413
 97
        6
330
93
330
94
330
95
330
96
330
97
330
98
 92
        1
 93
        6
 72
     1
 10
361.20493560917555
 20
171.81300508467905
 11
349.25
 21
168.69897760745491
 72
     1
 10
349.25
 20
168.69897760745491
 11
337.2910329003638
 21
171.82261535201442
 72
     4
 94
        2
 73
     0
 74
     0
 95
        6
 96
        3
 40
0.477344
 40
0.477344
 40
0.477344
 40
0.529364
 40
0.529364
 40
0.529364
 10
337.2910329003638
 20
171.82261535201442
 10
336.89514020729223
 20
172.76677515246024
 10
336.55498687345454
 20
173.74732748523758
 72
     1
 10
336.55498687345454
 20
173.74732748523758
 11
349.25
 21
170.44052425415686
 72
     1
 10
349.25
 20
170.44052425415686
 11
361.9390196471914
 21
173.73006549140769
 72
     4
 94
        2
 73
     0
 74
     0
 95
        6
 96
        3
 40
0.471094
 40
0.471094
 40
0.471094
 40
0.522921
 40
0.522921
 40
0.522921
 10
361.9390196471914
 20
173.73006549140769
 10
361.59964068761758
 20
172.75347392532467
 10
361.20493560917549
 20
171.81300508467905
 97
        6
330
99
330
9A
330
9B
330
9C
330
9D
330
9E
 92
        1
 93
        4
 72
     4
 94
        2
 73
     0
 74
     0
 95
        6
 96
        3
 40
0.618786
 40
0.618786
 40
0.618786
 40
1.0
 40
1.0
 40
1.0
 10
359.55544500894075
 20
168.45737819023205
 10
355.89941260723469
 20
162.03117944569118
 10
349.25
 20
157.5593749999999
 72
     4
 94
        2
 73
     0
 74
     0
 95
        6
 96
        3
 40
0.0
 40
0.0
 40
0.0
 40
0.381506
 40
0.381506
 40
0.381506
 10
349.25
 20
157.5593749999999
 10
342.59549149105192
 20
162.03460649666303
 10
338.93895301151707
 20
168.46722901327874
 72
     1
 10
338.93895301151707
 20
168.46722901327874
 11
349.24999999999994
 21
165.78140244835433
 72
     1
 10
349.24999999999994
 20
165.78140244835433
 11
359.55544500894075
 21
168.45737819023205
 97
        4
330
9F
330
A0
330
A1
330
A2
 92
        1
 93
        6
 72
     4
 94
        2
 73
     0
 74
     0
 95
        6
 96
        3
 40
0.0
 40
0.0
 40
0.0
 40
0.740677
 40
0.740677
 40
0.740677
 10
334.50030666545786
 20
185.603303934607
 10
341.07306002914936
 20
187.44278326955151
 10
349.25
 20
190.63229166666687
 72
     4
 94
        2
 73
     0
 74
     0
 95
        6
 96
        3
 40
0.0
 40
0.0
 40
0.0
 40
0.740677
 40
0.740677
 40
0.740677
 10
349.25
 20
190.63229166666687
 10
357.42693997085064
 20
187.44278326955106
 10
363.99969333454209
 20
185.60330393460674
 72
     4
 94
        2
 73
     0
 74
     0
 95
        6
 96
        3
 40
0.18521
 40
0.18521
 40
0.18521
 40
0.252311
 40
0.252311
 40
0.252311
 10
363.99969333454209
 20
185.60330393460674
 10
363.95542560060159
 20
184.08089243292417
 10
363.8184129811126
 20
182.61903457398569
 72
     1
 10
363.8184129811126
 20
182.61903457398569
 11
349.25
 21
178.8242472321021
 72
     1
 10
349.25
 20
178.8242472321021
 11
334.68084350849887
 21
182.62697521237416
 72
     4
 94
        2
 73
     0
 74
     0
 95
        6
 96
        3
 40
0.747871
 40
0.747871
 40
0.747871
 40
0.81479
 40
0.81479
 40
0.81479
 10
334.68084350849887
 20
182.62697521237416
 10
334.54445417762201
 20
184.08502697966208
 10
334.50030666545786
 20
185.603303934607
 97
        6
330
A3
330
A4
330
A5
330
A6
330
A7
330
A8
 75
     0
 76
     1
 98
        0
  0
LINE
  5
93
102
{ACAD_REACTORS
330
92
102
}
100
AcDbEntity
  8
0
  6
CONTINUOUS
 62
     7
100
AcDbLine
 10
362.873456
 20
176.906744
 30
0.0
 11
349.25
 21
173.358099
 31
0.0
  0
LINE
  5
94
102
{ACAD_REACTORS
330
92
102
}
100
AcDbEntity
  8
0
  6
CONTINUOUS
 62
     7
100
AcDbLine
 10
349.25
 20
173.358099
 30
0.0
 11
335.624373
 21
176.915655
 31
0.0
  0
SPLINE
  5
95
102
{ACAD_REACTORS
330
92
102
}
100
AcDbEntity
  8
0
  6
CONTINUOUS
 62
     7
100
AcDbSpline
210
0.0
220
0.0
230
1.0
 70
     8
 71
     2
 72
     6
 73
     3
 74
     0
 42
0.0000001
 43
0.0000001
 40
0.6110271133831966
 40
0.6110271133831966
 40
0.6110271133831966
 40
0.67683018751778
 40
0.67683018751778
 40
0.67683018751778
 10
335.62437305331207
 20
176.91565483719162
 30
0.0
 10
335.3047794557836
 20
178.22828386577672
 30
0.0
 10
335.07437591618162
 20
179.59914557071988
 30
0.0
  0
LINE
  5
96
102
{ACAD_REACTORS
330
92
102
}
100
AcDbEntity
  8
0
  6
CONTINUOUS
 62
     7
100
AcDbLine
 10
335.074376
 20
179.599146
 30
0.0
 11
349.25
 21
175.906672
 31
0.0
  0
LINE
  5
97
102
{ACAD_REACTORS
330
92
102
}
100
AcDbEntity
  8
0
  6
CONTINUOUS
 62
     7
100
AcDbLine
 10
349.25
 20
175.906672
 30
0.0
 11
363.422861
 21
179.582725
 31
0.0
  0
SPLINE
  5
98
102
{ACAD_REACTORS
330
92
102
}
100
AcDbEntity
  8
0
  6
CONTINUOUS
 62
     7
100
AcDbSpline
210
0.0
220
0.0
230
1.0
 70
     8
 71
     2
 72
     6
 73
     3
 74
     0
 42
0.0000001
 43
0.0000001
 40
0.3235639677828312
 40
0.3235639677828312
 40
0.3235639677828312
 40
0.38919625835894
 40
0.38919625835894
 40
0.38919625835894
 10
363.42286068515727
 20
179.58272494988944
 30
0.0
 10
363.19252227384976
 20
178.21576904707933
 30
0.0
 10
362.87345616686918
 20
176.90674394178413
 30
0.0
  0
LINE
  5
99
102
{ACAD_REACTORS
330
92
102
}
100
AcDbEntity
  8
0
  6
CONTINUOUS
 62
     7
100
AcDbLine
 10
361.204936
 20
171.813005
 30
0.0
 11
349.25
 21
168.698978
 31
0.0
  0
LINE
  5
9A
102
{ACAD_REACTORS
330
92
102
}
100
AcDbEntity
  8
0
  6
CONTINUOUS
 62
     7
100
AcDbLine
 10
349.25
 20
168.698978
 30
0.0
 11
337.291033
 21
171.822615
 31
0.0
  0
SPLINE
  5
9B
102
{ACAD_REACTORS
330
92
102
}
100
AcDbEntity
  8
0
  6
CONTINUOUS
 62
     7
100
AcDbSpline
210
0.0
220
0.0
230
1.0
 70
     8
 71
     2
 72
     6
 73
     3
 74
     0
 42
0.0000001
 43
0.0000001
 40
0.4773439383655823
 40
0.4773439383655823
 40
0.4773439383655823
 40
0.5293637704555501
 40
0.5293637704555501
 40
0.5293637704555501
 10
337.2910329003638
 20
171.82261535201442
 30
0.0
 10
336.89514020729223
 20
172.76677515246024
 30
0.0
 10
336.55498687345454
 20
173.74732748523758
 30
0.0
  0
LINE
  5
9C
102
{ACAD_REACTORS
330
92
102
}
100
AcDbEntity
  8
0
  6
CONTINUOUS
 62
     7
100
AcDbLine
 10
336.554987
 20
173.747327
 30
0.0
 11
349.25
 21
170.440524
 31
0.0
  0
LINE
  5
9D
102
{ACAD_REACTORS
330
92
102
}
100
AcDbEntity
  8
0
  6
CONTINUOUS
 62
     7
100
AcDbLine
 10
349.25
 20
170.440524
 30
0.0
 11
361.93902
 21
173.730065
 31
0.0
  0
SPLINE
  5
9E
102
{ACAD_REACTORS
330
92
102
}
100
AcDbEntity
  8
0
  6
CONTINUOUS
 62
     7
100
AcDbSpline
210
0.0
220
0.0
230
1.0
 70
     8
 71
     2
 72
     6
 73
     3
 74
     0
 42
0.0000001
 43
0.0000001
 40
0.4710941922228916
 40
0.4710941922228916
 40
0.4710941922228916
 40
0.5229208333059801
 40
0.5229208333059801
 40
0.5229208333059801
 10
361.9390196471914
 20
173.73006549140769
 30
0.0
 10
361.59964068761758
 20
172.75347392532467
 30
0.0
 10
361.20493560917549
 20
171.81300508467905
 30
0.0
  0
SPLINE
  5
9F
102
{ACAD_REACTORS
330
92
102
}
100
AcDbEntity
  8
0
  6
CONTINUOUS
 62
     7
100
AcDbSpline
210
0.0
220
0.0
230
1.0
 70
     8
 71
     2
 72
     6
 73
     3
 74
     0
 42
0.0000001
 43
0.0000001
 40
0.6187859475895878
 40
0.6187859475895878
 40
0.6187859475895878
 40
1.0
 40
1.0
 40
1.0
 10
359.55544500894075
 20
168.45737819023205
 30
0.0
 10
355.89941260723469
 20
162.03117944569118
 30
0.0
 10
349.25
 20
157.5593749999999
 30
0.0
  0
SPLINE
  5
A0
102
{ACAD_REACTORS
330
92
102
}
100
AcDbEntity
  8
0
  6
CONTINUOUS
 62
     7
100
AcDbSpline
210
0.0
220
0.0
230
1.0
 70
     8
 71
     2
 72
     6
 73
     3
 74
     0
 42
0.0000001
 43
0.0000001
 40
0.0
 40
0.0
 40
0.0
 40
0.38150620292919
 40
0.38150620292919
 40
0.38150620292919
 10
349.25
 20
157.5593749999999
 30
0.0
 10
342.59549149105192
 20
162.03460649666303
 30
0.0
 10
338.93895301151707
 20
168.46722901327874
 30
0.0
  0
LINE
  5
A1
102
{ACAD_REACTORS
330
92
102
}
100
AcDbEntity
  8
0
  6
CONTINUOUS
 62
     7
100
AcDbLine
 10
338.938953
 20
168.467229
 30
0.0
 11
349.25
 21
165.781402
 31
0.0
  0
LINE
  5
A2
102
{ACAD_REACTORS
330
92
102
}
100
AcDbEntity
  8
0
  6
CONTINUOUS
 62
     7
100
AcDbLine
 10
349.25
 20
165.781402
 30
0.0
 11
359.555445
 21
168.457378
 31
0.0
  0
SPLINE
  5
A3
102
{ACAD_REACTORS
330
92
102
}
100
AcDbEntity
  8
0
  6
CONTINUOUS
 62
     7
100
AcDbSpline
210
0.0
220
0.0
230
1.0
 70
     8
 71
     2
 72
     6
 73
     3
 74
     0
 42
0.0000001
 43
0.0000001
 40
0.0
 40
0.0
 40
0.0
 40
0.74067696192879
 40
0.74067696192879
 40
0.74067696192879
 10
334.50030666545786
 20
185.603303934607
 30
0.0
 10
341.07306002914936
 20
187.44278326955151
 30
0.0
 10
349.25
 20
190.63229166666687
 30
0.0
  0
SPLINE
  5
A4
102
{ACAD_REACTORS
330
92
102
}
100
AcDbEntity
  8
0
  6
CONTINUOUS
 62
     7
100
AcDbSpline
210
0.0
220
0.0
230
1.0
 70
     8
 71
     2
 72
     6
 73
     3
 74
     0
 42
0.0000001
 43
0.0000001
 40
0.0
 40
0.0
 40
0.0
 40
0.74067696192879
 40
0.74067696192879
 40
0.74067696192879
 10
349.25
 20
190.63229166666687
 30
0.0
 10
357.42693997085064
 20
187.44278326955106
 30
0.0
 10
363.99969333454209
 20
185.60330393460674
 30
0.0
  0
SPLINE
  5
A5
102
{ACAD_REACTORS
330
92
102
}
100
AcDbEntity
  8
0
  6
CONTINUOUS
 62
     7
100
AcDbSpline
210
0.0
220
0.0
230
1.0
 70
     8
 71
     2
 72
     6
 73
     3
 74
     0
 42
0.0000001
 43
0.0000001
 40
0.1852096028926636
 40
0.1852096028926636
 40
0.1852096028926636
 40
0.25231121357191
 40
0.25231121357191
 40
0.25231121357191
 10
363.99969333454209
 20
185.60330393460674
 30
0.0
 10
363.95542560060159
 20
184.08089243292417
 30
0.0
 10
363.8184129811126
 20
182.61903457398569
 30
0.0
  0
LINE
  5
A6
102
{ACAD_REACTORS
330
92
102
}
100
AcDbEntity
  8
0
  6
CONTINUOUS
 62
     7
100
AcDbLine
 10
363.818413
 20
182.619035
 30
0.0
 11
349.25
 21
178.824247
 31
0.0
  0
LINE
  5
A7
102
{ACAD_REACTORS
330
92
102
}
100
AcDbEntity
  8
0
  6
CONTINUOUS
 62
     7
100
AcDbLine
 10
349.25
 20
178.824247
 30
0.0
 11
334.680844
 21
182.626975
 31
0.0
  0
SPLINE
  5
A8
102
{ACAD_REACTORS
330
92
102
}
100
AcDbEntity
  8
0
  6
CONTINUOUS
 62
     7
100
AcDbSpline
210
0.0
220
0.0
230
1.0
 70
     8
 71
     2
 72
     6
 73
     3
 74
     0
 42
0.0000001
 43
0.0000001
 40
0.7478710201705616
 40
0.7478710201705616
 40
0.7478710201705616
 40
0.81479039710734
 40
0.81479039710734
 40
0.81479039710734
 10
334.68084350849887
 20
182.62697521237416
 30
0.0
 10
334.54445417762201
 20
184.08502697966208
 30
0.0
 10
334.50030666545786
 20
185.603303934607
 30
0.0
  0
CIRCLE
  5
A9
102
{ACAD_REACTORS
330
6E
102
}
100
AcDbEntity
  8
0
  6
CONTINUOUS
 62
    10
100
AcDbCircle
 10
349.25
 20
174.625
 30
0.0
 40
47.625
  0
ELLIPSE
  5
AB
102
{ACAD_REACTORS
330
B1
102
}
100
AcDbEntity
  8
0
  6
CONTINUOUS
 62
     7
100
AcDbEllipse
 10
72.924588
 20
201.606948
 30
0.0
 11
41.375411808075363
 21
0.0
 31
0.0
210
0.0
220
0.0
230
1.0
 40
0.997619
 41
-1.567607932759979
 42
0.0096150882996996
  0
ELLIPSE
  5
AC
102
{ACAD_REACTORS
330
B1
102
}
100
AcDbEntity
  8
0
  6
CONTINUOUS
 62
     7
100
AcDbEllipse
 10
72.917916
 20
201.60414
 30
0.0
 11
41.382110755326671
 21
0.0
 31
0.0
210
0.0
220
0.0
230
1.0
 40
0.997619
 41
0.0096815341659924
 42
1.5674474904256597
  0
LINE
  5
AD
102
{ACAD_REACTORS
330
B1
102
}
100
AcDbEntity
  8
0
  6
CONTINUOUS
 62
     7
100
AcDbLine
 10
73.056498
 20
242.8875
 30
0.0
 11
72.993491
 21
242.887347
 31
0.0
  0
ELLIPSE
  5
AE
102
{ACAD_REACTORS
330
B1
102
}
100
AcDbEntity
  8
0
  6
CONTINUOUS
 62
     7
100
AcDbEllipse
 10
73.125412
 20
201.610649
 30
0.0
 11
41.375411808075242
 21
0.0
 31
0.0
210
0.0
220
0.0
230
1.0
 40
0.997619
 41
1.5739847208298112
 42
3.1319775652900921
  0
ELLIPSE
  5
AF
102
{ACAD_REACTORS
330
B1
102
}
100
AcDbEntity
  8
0
  6
CONTINUOUS
 62
     7
100
AcDbEllipse
 10
73.125412
 20
201.610649
 30
0.0
 11
41.375411808075405
 21
0.0
 31
0.0
210
0.0
220
0.0
230
1.0
 40
0.997619
 41
-3.1512077418895061
 42
-1.5739844466918742
  0
LINE
  5
B0
102
{ACAD_REACTORS
330
B1
102
}
100
AcDbEntity
  8
0
  6
CONTINUOUS
 62
     7
100
AcDbLine
 10
72.993502
 20
160.333951
 30
0.0
 11
73.056498
 21
160.333798
 31
0.0
  0
HATCH
  5
B1
102
{ACAD_REACTORS
330
AA
102
}
100
AcDbEntity
  8
0
 62
     7
100
AcDbHatch
 10
0.0
 20
0.0
 30
0.0
210
0.0
220
0.0
230
1.0
  2
SOLID
 70
     1
 71
     1
 91
       11
 92
        1
 93
        7
 72
     3
 10
72.924588191924627
 20
201.6069477367233
 11
41.375411808075363
 21
0.0
 40
0.997619
 50
270.182682
 51
0.550904
 73
     1
 72
     3
 10
72.917916083591777
 20
201.60414048379926
 11
41.382110755326671
 21
0.0
 40
0.997619
 50
0.554711
 51
89.808126
 73
     1
 72
     1
 10
73.056497742099253
 20
242.88749999999993
 11
72.993490915389359
 21
242.88734744697393
 72
     3
 10
73.125411808075285
 20
201.61064924557439
 11
41.375411808075242
 21
0.0
 40
0.997619
 50
90.182682
 51
179.449096
 73
     1
 72
     3
 10
73.125411808075441
 20
201.61064924557448
 11
41.375411808075405
 21
0.0
 40
0.997619
 50
179.449096
 51
269.817334
 73
     1
 72
     1
 10
72.993502257901909
 20
160.3339510080979
 11
73.056497742099282
 21
160.33379849114877
 72
     1
 10
73.056497742099282
 20
160.33379849114877
 11
73.056509084610681
 21
160.33024953532365
 97
        6
330
AB
330
AC
330
AD
330
AE
330
AF
330
B0
 92
        1
 93
        5
 72
     3
 10
72.924588191944906
 20
201.60694773671256
 11
34.214282841270219
 21
0.0
 40
0.997619
 50
24.01941
 51
31.004327
 73
     0
 72
     4
 94
        2
 73
     0
 74
     0
 95
        6
 96
        3
 40
0.0
 40
0.0
 40
0.0
 40
0.558455
 40
0.558455
 40
0.558455
 10
102.25062193569127
 20
184.02503259110819
 10
93.176775105111417
 20
181.36321745164315
 10
85.656808214313273
 20
183.80850018315382
 72
     4
 94
        2
 73
     0
 74
     0
 95
        6
 96
        3
 40
0.0
 40
0.0
 40
0.0
 40
0.441545
 40
0.441545
 40
0.441545
 10
85.656808214313273
 20
183.80850018315382
 10
79.711105012890158
 20
185.74187643018433
 10
74.736788293808232
 20
190.86788404393366
 72
     4
 94
        2
 73
     0
 74
     0
 95
        6
 96
        3
 40
0.0
 40
0.0
 40
0.0
 40
0.078864
 40
0.078864
 40
0.078864
 10
74.736788293808232
 20
190.86788404393366
 10
75.966033605839414
 20
192.48273811720676
 10
76.977545661615665
 20
194.09903206191953
 72
     4
 94
        2
 73
     0
 74
     0
 95
        6
 96
        3
 40
0.0
 40
0.0
 40
0.0
 40
0.861971
 40
0.861971
 40
0.861971
 10
76.977545661615665
 20
194.09903206191953
 10
86.580958968522296
 20
183.31290532585516
 10
104.17617474792979
 20
187.71331340236341
 97
        5
330
B2
330
B3
330
B4
330
B5
330
B6
 92
        1
 93
        4
 72
     3
 10
72.92458819190847
 20
201.60694773672702
 11
34.214282841309782
 21
0.0
 40
0.997619
 50
9.826705
 51
16.676126
 73
     0
 72
     4
 94
        2
 73
     0
 74
     0
 95
        6
 96
        3
 40
0.0
 40
0.0
 40
0.0
 40
0.877845
 40
0.877845
 40
0.877845
 10
105.69989182419882
 20
191.81214404677971
 10
86.752550840632779
 20
185.60498159544773
 10
78.68608530367527
 20
197.13750569341212
 72
     4
 94
        2
 73
     0
 74
     0
 95
        6
 96
        3
 40
0.0
 40
0.0
 40
0.0
 40
0.080834
 40
0.080834
 40
0.080834
 10
78.68608530367527
 20
197.13750569341212
 10
79.513189705076215
 20
198.79557722372957
 10
80.111542636551889
 20
200.45516148900538
 72
     4
 94
        2
 73
     0
 74
     0
 95
        6
 96
        3
 40
0.0
 40
0.0
 40
0.0
 40
1.0
 40
1.0
 40
1.0
 10
80.111542636551889
 20
200.45516148900538
 10
87.487128336374823
 20
189.2242462966052
 10
106.63689473840948
 20
195.78153988237912
 97
        4
330
B7
330
B8
330
B9
330
BA
 92
        1
 93
        2
 72
     4
 94
        2
 73
     0
 74
     0
 95
        6
 96
        3
 40
0.0
 40
0.0
 40
0.0
 40
0.542563
 40
0.542563
 40
0.542563
 10
76.775393106420609
 20
217.71532600056497
 10
79.875552618763322
 20
209.55344078551533
 10
76.651834107302733
 20
200.69057528601172
 72
     4
 94
        2
 73
     0
 74
     0
 95
        6
 96
        3
 40
0.0
 40
0.0
 40
0.0
 40
1.0
 40
1.0
 40
1.0
 10
76.651834107302733
 20
200.69057528601172
 10
72.719786874365113
 20
209.09589633900899
 10
76.775393106420609
 20
217.71532600056497
 97
        2
330
BB
330
BC
 92
        1
 93
        5
 72
     4
 94
        2
 73
     0
 74
     0
 95
        6
 96
        3
 40
0.0
 40
0.0
 40
0.0
 40
0.558455
 40
0.558455
 40
0.558455
 10
60.393191785686774
 20
183.81220169200495
 10
52.873224894888565
 20
181.36691896049433
 10
43.799378064308748
 20
184.02873409995934
 72
     3
 10
73.125411808068407
 20
201.61064924557007
 11
34.214282841284877
 21
-0.0000000000001236
 40
0.997619
 50
148.995673
 51
155.98059
 73
     0
 72
     4
 94
        2
 73
     0
 74
     0
 95
        6
 96
        3
 40
0.0
 40
0.0
 40
0.0
 40
0.861971
 40
0.861971
 40
0.861971
 10
41.873825252070297
 20
187.71701491121459
 10
59.469041031477694
 20
183.31660683470633
 10
69.072454338384347
 20
194.10273357077065
 72
     4
 94
        2
 73
     0
 74
     0
 95
        6
 96
        3
 40
0.0
 40
0.0
 40
0.0
 40
0.078864
 40
0.078864
 40
0.078864
 10
69.072454338384347
 20
194.10273357077065
 10
70.083966394160555
 20
192.48643962605792
 10
71.313211706191808
 20
190.87158555278478
 72
     4
 94
        2
 73
     0
 74
     0
 95
        6
 96
        3
 40
0.0
 40
0.0
 40
0.0
 40
0.441545
 40
0.441545
 40
0.441545
 10
71.313211706191808
 20
190.87158555278478
 10
66.338894987109825
 20
185.74557793903548
 10
60.393191785686774
 20
183.81220169200495
 97
        5
330
BD
330
BE
330
BF
330
C0
330
C1
 92
        1
 93
        4
 72
     4
 94
        2
 73
     0
 74
     0
 95
        6
 96
        3
 40
0.0
 40
0.0
 40
0.0
 40
0.877845
 40
0.877845
 40
0.877845
 10
67.36391469632477
 20
197.14120720226327
 10
59.297449159367211
 20
185.6086831042989
 10
40.350108175801253
 20
191.81584555563083
 72
     3
 10
73.12541180808293
 20
201.61064924557613
 11
34.214282841300886
 21
-0.0000000000001236
 40
0.997619
 50
163.323874
 51
170.173295
 73
     0
 72
     4
 94
        2
 73
     0
 74
     0
 95
        6
 96
        3
 40
0.0
 40
0.0
 40
0.0
 40
1.0
 40
1.0
 40
1.0
 10
39.413105261590594
 20
195.78524139123022
 10
58.562871663625167
 20
189.22794780545635
 10
65.938457363448222
 20
200.4588629978565
 72
     4
 94
        2
 73
     0
 74
     0
 95
        6
 96
        3
 40
0.0
 40
0.0
 40
0.0
 40
0.080834
 40
0.080834
 40
0.080834
 10
65.938457363448222
 20
200.4588629978565
 10
66.536810294923768
 20
198.79927873258077
 10
67.36391469632477
 20
197.14120720226327
 97
        4
330
C2
330
C3
330
C4
330
C5
 92
        1
 93
        2
 72
     4
 94
        2
 73
     0
 74
     0
 95
        6
 96
        3
 40
0.0
 40
0.0
 40
0.0
 40
1.0
 40
1.0
 40
1.0
 10
69.274606893579445
 20
217.71902750941609
 10
73.330213125634884
 20
209.09959784786017
 10
69.398165892697321
 20
200.69427679486293
 72
     4
 94
        2
 73
     0
 74
     0
 95
        6
 96
        3
 40
0.0
 40
0.0
 40
0.0
 40
0.542563
 40
0.542563
 40
0.542563
 10
69.398165892697321
 20
200.69427679486293
 10
66.174447381236661
 20
209.55714229436646
 10
69.274606893579445
 20
217.71902750941609
 97
        2
330
C6
330
C7
 92
        1
 93
        7
 72
     3
 10
72.924588191924713
 20
201.6069477367229
 11
34.214282841292807
 21
0.0
 40
0.997619
 50
40.157547
 51
89.779079
 73
     0
 72
     1
 10
73.056511335447397
 20
167.47437368974283
 11
72.993517273695133
 21
167.47807508855684
 72
     3
 10
73.125411808075256
 20
201.61064924557394
 11
34.214282841292707
 21
0.0
 40
0.997619
 50
90.220873
 51
139.842453
 73
     0
 72
     4
 94
        2
 73
     0
 74
     0
 95
        6
 96
        3
 40
0.0
 40
0.0
 40
0.0
 40
0.383872
 40
0.383872
 40
0.383872
 10
46.976322572660557
 20
179.59867616031539
 10
54.291841425868704
 20
178.42665410668243
 10
60.393191785686717
 20
180.21640520633127
 72
     4
 94
        2
 73
     0
 74
     0
 95
        6
 96
        3
 40
0.0
 40
0.0
 40
0.0
 40
0.449749
 40
0.449749
 40
0.449749
 10
60.393191785686717
 20
180.21640520633127
 10
67.541600483117563
 20
182.3132971355713
 10
73.023353911931849
 20
188.47573256823611
 72
     4
 94
        2
 73
     0
 74
     0
 95
        6
 96
        3
 40
0.0
 40
0.0
 40
0.0
 40
0.449884
 40
0.449884
 40
0.449884
 10
73.023353911931849
 20
188.47573256823611
 10
78.506252859318749
 20
182.31022532055948
 10
85.65680821431333
 20
180.21270369748009
 72
     4
 94
        2
 73
     0
 74
     0
 95
        6
 96
        3
 40
0.0
 40
0.0
 40
0.0
 40
0.383872
 40
0.383872
 40
0.383872
 10
85.65680821431333
 20
180.21270369748009
 10
91.758158574131272
 20
178.42295259783126
 10
99.073677427339476
 20
179.59497465146424
 97
        7
330
C8
330
C9
330
CA
330
CB
330
CC
330
CD
330
CE
 92
        1
 93
       15
 72
     4
 94
        2
 73
     0
 74
     0
 95
        6
 96
        3
 40
0.0
 40
0.0
 40
0.0
 40
0.542053
 40
0.542053
 40
0.542053
 10
72.924588191924698
 20
229.54996806972909
 10
63.545884188964926
 20
218.33269652195159
 10
64.453390680867429
 20
207.18344775110097
 72
     4
 94
        2
 73
     0
 74
     0
 95
        6
 96
        3
 40
0.0
 40
0.0
 40
0.0
 40
0.987306
 40
0.987306
 40
0.987306
 10
64.453390680867429
 20
207.18344775110097
 10
63.868294382676147
 20
201.50916708234948
 10
57.99717545043768
 20
198.05599573162226
 72
     4
 94
        2
 73
     0
 74
     0
 95
        6
 96
        3
 40
0.0
 40
0.0
 40
0.0
 40
0.012694
 40
0.012694
 40
0.012694
 10
57.99717545043768
 20
198.05599573162226
 10
57.921686742986076
 20
198.01159611293158
 10
57.845324156657867
 20
197.96756368534983
 72
     4
 94
        2
 73
     0
 74
     0
 95
        6
 96
        3
 40
0.0
 40
0.0
 40
0.0
 40
0.98961
 40
0.98961
 40
0.98961
 10
57.845324156657867
 20
197.96756368534983
 10
50.162695032250348
 20
194.53242181143881
 10
38.974768800590226
 20
199.52977411339972
 72
     3
 10
73.125411808061884
 20
201.61064924557377
 11
34.214282841279626
 21
0.0
 40
0.997619
 50
176.50485
 51
180.550904
 73
     0
 72
     3
 10
73.125411808074787
 20
201.61064924557454
 11
34.214282841292516
 21
0.0
 40
0.997619
 50
180.550904
 51
269.779102
 73
     0
 72
     3
 10
73.010114986960218
 20
235.4894346435735
 11
0.2549362001734378
 21
0.0
 40
0.997619
 50
266.263715
 51
280.479271
 73
     0
 72
     3
 10
72.924588191923036
 20
201.60694773672245
 11
34.214282841294676
 21
0.0
 40
0.997619
 50
270.220873
 51
359.449096
 73
     0
 72
     3
 10
72.924588191952893
 20
201.60694773672171
 11
34.21428284126484
 21
0.0
 40
0.997619
 50
359.449096
 51
3.49515
 73
     0
 72
     4
 94
        2
 73
     0
 74
     0
 95
        6
 96
        3
 40
0.0
 40
0.0
 40
0.0
 40
0.98961
 40
0.98961
 40
0.98961
 10
107.0752311994098
 20
199.5260726045486
 10
95.887304967749657
 20
194.52872030258763
 10
88.204675843342173
 20
197.96386217649868
 72
     4
 94
        2
 73
     0
 74
     0
 95
        6
 96
        3
 40
0.0
 40
0.0
 40
0.0
 40
0.012694
 40
0.012694
 40
0.012694
 10
88.204675843342173
 20
197.96386217649868
 10
88.128313257014739
 20
198.00789460408043
 10
88.052824549562359
 20
198.05229422277108
 72
     4
 94
        2
 73
     0
 74
     0
 95
        6
 96
        3
 40
0.0
 40
0.0
 40
0.0
 40
0.987306
 40
0.987306
 40
0.987306
 10
88.052824549562359
 20
198.05229422277108
 10
82.181705617323843
 20
201.5054655734983
 10
81.596609319132597
 20
207.17974624224979
 72
     4
 94
        2
 73
     0
 74
     0
 95
        6
 96
        3
 40
0.0
 40
0.0
 40
0.0
 40
0.542053
 40
0.542053
 40
0.542053
 10
81.596609319132597
 20
207.17974624224979
 10
82.504115811035064
 20
218.32899501310033
 10
73.125411808075299
 20
229.54626656087791
 72
     4
 94
        2
 73
     0
 74
     0
 95
        6
 96
        3
 40
0.0
 40
0.0
 40
0.0
 40
0.002938
 40
0.002938
 40
0.002938
 10
73.125411808075299
 20
229.54626656087791
 10
73.074578785312312
 20
229.60706470737486
 10
73.023443585400514
 20
229.6678648521715
 72
     4
 94
        2
 73
     0
 74
     0
 95
        6
 96
        3
 40
0.0
 40
0.0
 40
0.0
 40
0.002849
 40
0.002849
 40
0.002849
 10
73.023443585400514
 20
229.6678648521715
 10
72.973873858357308
 20
229.6089155217027
 10
72.924588191924727
 20
229.54996806972915
 97
       15
330
CF
330
D0
330
D1
330
D2
330
D3
330
D4
330
D5
330
D6
330
D7
330
D8
330
D9
330
DA
330
DB
330
DC
330
DD
 92
        1
 93
        4
 72
     4
 94
        2
 73
     0
 74
     0
 95
        6
 96
        3
 40
0.0
 40
0.0
 40
0.0
 40
0.13844
 40
0.13844
 40
0.13844
 10
74.926543687958713
 20
221.58662447572266
 10
73.823749336724575
 20
219.75529654145262
 10
73.025819773112389
 20
217.95419513283906
 72
     4
 94
        2
 73
     0
 74
     0
 95
        6
 96
        3
 40
0.0
 40
0.0
 40
0.0
 40
0.138582
 40
0.138582
 40
0.138582
 10
73.025819773112389
 20
217.95419513283906
 10
72.227383869387737
 20
219.75711621983774
 10
71.123456312041327
 20
221.59032598457378
 72
     4
 94
        2
 73
     0
 74
     0
 95
        6
 96
        3
 40
0.0
 40
0.0
 40
0.0
 40
0.099248
 40
0.099248
 40
0.099248
 10
71.123456312041327
 20
221.59032598457378
 10
71.967745971012917
 20
223.05260997699159
 10
73.023641619668368
 20
224.49143816803561
 72
     4
 94
        2
 73
     0
 74
     0
 95
        6
 96
        3
 40
0.0
 40
0.0
 40
0.0
 40
0.099376
 40
0.099376
 40
0.099376
 10
73.023641619668368
 20
224.49143816803561
 10
74.081168013842813
 20
223.05078941331701
 10
74.926543687958713
 20
221.58662447572266
 97
        4
330
DE
330
DF
330
E0
330
E1
 92
        1
 93
        6
 72
     4
 94
        2
 73
     0
 74
     0
 95
        6
 96
        3
 40
0.0
 40
0.0
 40
0.0
 40
0.097802
 40
0.097802
 40
0.097802
 10
74.917847398303195
 20
196.71822499866815
 10
74.067412529099201
 20
195.08179596775318
 10
73.026168732212895
 20
193.43276426709511
 72
     4
 94
        2
 73
     0
 74
     0
 95
        6
 96
        3
 40
0.0
 40
0.0
 40
0.0
 40
0.097912
 40
0.097912
 40
0.097912
 10
73.026168732212895
 20
193.43276426709511
 10
71.983541933660078
 20
195.08366087438412
 10
71.132152601696845
 20
196.72192650751933
 72
     4
 94
        2
 73
     0
 74
     0
 95
        6
 96
        3
 40
0.0
 40
0.0
 40
0.0
 40
0.041054
 40
0.041054
 40
0.041054
 10
71.132152601696845
 20
196.72192650751933
 10
71.546720053011327
 20
197.31702167269299
 10
71.943158773412605
 20
197.94656621320297
 72
     4
 94
        2
 73
     0
 74
     0
 95
        6
 96
        3
 40
0.0
 40
0.0
 40
0.0
 40
0.084027
 40
0.084027
 40
0.084027
 10
71.943158773412605
 20
197.94656621320297
 10
72.539785180056541
 20
198.93258121840859
 10
73.024101290918367
 20
199.92973148808059
 72
     4
 94
        2
 73
     0
 74
     0
 95
        6
 96
        3
 40
0.0
 40
0.0
 40
0.0
 40
0.084182
 40
0.084182
 40
0.084182
 10
73.024101290918367
 20
199.92973148808059
 10
73.509107466765869
 20
198.93070977748025
 10
74.106841226587406
 20
197.94286470435182
 72
     4
 94
        2
 73
     0
 74
     0
 95
        6
 96
        3
 40
0.0
 40
0.0
 40
0.0
 40
0.041054
 40
0.041054
 40
0.041054
 10
74.106841226587406
 20
197.94286470435182
 10
74.50327994698867
 20
197.31332016384181
 10
74.917847398303195
 20
196.71822499866815
 97
        6
330
E2
330
E3
330
E4
330
E5
330
E6
330
E7
 75
     0
 76
     1
 98
        0
  0
ELLIPSE
  5
B2
102
{ACAD_REACTORS
330
B1
102
}
100
AcDbEntity
  8
0
  6
CONTINUOUS
 62
     7
100
AcDbEllipse
 10
72.924588
 20
201.606948
 30
0.0
 11
34.214282841270219
 21
0.0
 31
0.0
210
0.0
220
0.0
230
1.0
 40
0.997619
 41
-0.54112757980532
 42
-0.4192177857929309
  0
SPLINE
  5
B3
102
{ACAD_REACTORS
330
B1
102
}
100
AcDbEntity
  8
0
  6
CONTINUOUS
 62
     7
100
AcDbSpline
210
0.0
220
0.0
230
1.0
 70
     8
 71
     2
 72
     6
 73
     3
 74
     0
 42
0.0000001
 43
0.0000001
 40
0.0
 40
0.0
 40
0.0
 40
0.55845471033353
 40
0.55845471033353
 40
0.55845471033353
 10
102.25062193569127
 20
184.02503259110819
 30
0.0
 10
93.176775105111417
 20
181.36321745164315
 30
0.0
 10
85.656808214313273
 20
183.80850018315382
 30
0.0
  0
SPLINE
  5
B4
102
{ACAD_REACTORS
330
B1
102
}
100
AcDbEntity
  8
0
  6
CONTINUOUS
 62
     7
100
AcDbSpline
210
0.0
220
0.0
230
1.0
 70
     8
 71
     2
 72
     6
 73
     3
 74
     0
 42
0.0000001
 43
0.0000001
 40
0.0
 40
0.0
 40
0.0
 40
0.44154528966647
 40
0.44154528966647
 40
0.44154528966647
 10
85.656808214313273
 20
183.80850018315382
 30
0.0
 10
79.711105012890158
 20
185.74187643018433
 30
0.0
 10
74.736788293808232
 20
190.86788404393366
 30
0.0
  0
SPLINE
  5
B5
102
{ACAD_REACTORS
330
B1
102
}
100
AcDbEntity
  8
0
  6
CONTINUOUS
 62
     7
100
AcDbSpline
210
0.0
220
0.0
230
1.0
 70
     8
 71
     2
 72
     6
 73
     3
 74
     0
 42
0.0000001
 43
0.0000001
 40
0.0
 40
0.0
 40
0.0
 40
0.078863598626939
 40
0.078863598626939
 40
0.078863598626939
 10
74.736788293808232
 20
190.86788404393366
 30
0.0
 10
75.966033605839414
 20
192.48273811720676
 30
0.0
 10
76.977545661615665
 20
194.09903206191953
 30
0.0
  0
SPLINE
  5
B6
102
{ACAD_REACTORS
330
B1
102
}
100
AcDbEntity
  8
0
  6
CONTINUOUS
 62
     7
100
AcDbSpline
210
0.0
220
0.0
230
1.0
 70
     8
 71
     2
 72
     6
 73
     3
 74
     0
 42
0.0000001
 43
0.0000001
 40
0.0
 40
0.0
 40
0.0
 40
0.8619706679805
 40
0.8619706679805
 40
0.8619706679805
 10
76.977545661615665
 20
194.09903206191953
 30
0.0
 10
86.580958968522296
 20
183.31290532585516
 30
0.0
 10
104.17617474792979
 20
187.71331340236341
 30
0.0
  0
ELLIPSE
  5
B7
102
{ACAD_REACTORS
330
B1
102
}
100
AcDbEntity
  8
0
  6
CONTINUOUS
 62
     7
100
AcDbEllipse
 10
72.924588
 20
201.606948
 30
0.0
 11
34.214282841309782
 21
0.0
 31
0.0
210
0.0
220
0.0
230
1.0
 40
0.997619
 41
-0.2910533052589359
 42
-0.1715083608762875
  0
SPLINE
  5
B8
102
{ACAD_REACTORS
330
B1
102
}
100
AcDbEntity
  8
0
  6
CONTINUOUS
 62
     7
100
AcDbSpline
210
0.0
220
0.0
230
1.0
 70
     8
 71
     2
 72
     6
 73
     3
 74
     0
 42
0.0000001
 43
0.0000001
 40
0.0
 40
0.0
 40
0.0
 40
0.87784532982538
 40
0.87784532982538
 40
0.87784532982538
 10
105.69989182419882
 20
191.81214404677971
 30
0.0
 10
86.752550840632779
 20
185.60498159544773
 30
0.0
 10
78.68608530367527
 20
197.13750569341212
 30
0.0
  0
SPLINE
  5
B9
102
{ACAD_REACTORS
330
B1
102
}
100
AcDbEntity
  8
0
  6
CONTINUOUS
 62
     7
100
AcDbSpline
210
0.0
220
0.0
230
1.0
 70
     8
 71
     2
 72
     6
 73
     3
 74
     0
 42
0.0000001
 43
0.0000001
 40
0.0
 40
0.0
 40
0.0
 40
0.080834387779717
 40
0.080834387779717
 40
0.080834387779717
 10
78.68608530367527
 20
197.13750569341212
 30
0.0
 10
79.513189705076215
 20
198.79557722372957
 30
0.0
 10
80.111542636551889
 20
200.45516148900538
 30
0.0
  0
SPLINE
  5
BA
102
{ACAD_REACTORS
330
B1
102
}
100
AcDbEntity
  8
0
  6
CONTINUOUS
 62
     7
100
AcDbSpline
210
0.0
220
0.0
230
1.0
 70
     8
 71
     2
 72
     6
 73
     3
 74
     0
 42
0.0000001
 43
0.0000001
 40
0.0
 40
0.0
 40
0.0
 40
1.0
 40
1.0
 40
1.0
 10
80.111542636551889
 20
200.45516148900538
 30
0.0
 10
87.487128336374823
 20
189.2242462966052
 30
0.0
 10
106.63689473840948
 20
195.78153988237912
 30
0.0
  0
SPLINE
  5
BB
102
{ACAD_REACTORS
330
B1
102
}
100
AcDbEntity
  8
0
  6
CONTINUOUS
 62
     7
100
AcDbSpline
210
0.0
220
0.0
230
1.0
 70
     8
 71
     2
 72
     6
 73
     3
 74
     0
 42
0.0000001
 43
0.0000001
 40
0.0
 40
0.0
 40
0.0
 40
0.54256328903179
 40
0.54256328903179
 40
0.54256328903179
 10
76.775393106420609
 20
217.71532600056497
 30
0.0
 10
79.875552618763322
 20
209.55344078551533
 30
0.0
 10
76.651834107302733
 20
200.69057528601172
 30
0.0
  0
SPLINE
  5
BC
102
{ACAD_REACTORS
330
B1
102
}
100
AcDbEntity
  8
0
  6
CONTINUOUS
 62
     7
100
AcDbSpline
210
0.0
220
0.0
230
1.0
 70
     8
 71
     2
 72
     6
 73
     3
 74
     0
 42
0.0000001
 43
0.0000001
 40
0.0
 40
0.0
 40
0.0
 40
1.0
 40
1.0
 40
1.0
 10
76.651834107302733
 20
200.69057528601172
 30
0.0
 10
72.719786874365113
 20
209.09589633900899
 30
0.0
 10
76.775393106420609
 20
217.71532600056497
 30
0.0
  0
SPLINE
  5
BD
102
{ACAD_REACTORS
330
B1
102
}
100
AcDbEntity
  8
0
  6
CONTINUOUS
 62
     7
100
AcDbSpline
210
0.0
220
0.0
230
1.0
 70
     8
 71
     2
 72
     6
 73
     3
 74
     0
 42
0.0000001
 43
0.0000001
 40
0.0
 40
0.0
 40
0.0
 40
0.55845471033353
 40
0.55845471033353
 40
0.55845471033353
 10
60.393191785686774
 20
183.81220169200495
 30
0.0
 10
52.873224894888565
 20
181.36691896049433
 30
0.0
 10
43.799378064308748
 20
184.02873409995934
 30
0.0
  0
ELLIPSE
  5
BE
102
{ACAD_REACTORS
330
B1
102
}
100
AcDbEntity
  8
0
  6
CONTINUOUS
 62
     7
100
AcDbEllipse
 10
73.125412
 20
201.610649
 30
0.0
 11
34.214282841284877
 21
-0.0000000000001236
 31
0.0
210
0.0
220
0.0
230
1.0
 40
0.997619
 41
-2.7223748677968462
 42
-2.6004650737845103
  0
SPLINE
  5
BF
102
{ACAD_REACTORS
330
B1
102
}
100
AcDbEntity
  8
0
  6
CONTINUOUS
 62
     7
100
AcDbSpline
210
0.0
220
0.0
230
1.0
 70
     8
 71
     2
 72
     6
 73
     3
 74
     0
 42
0.0000001
 43
0.0000001
 40
0.0
 40
0.0
 40
0.0
 40
0.8619706679805
 40
0.8619706679805
 40
0.8619706679805
 10
41.873825252070297
 20
187.71701491121459
 30
0.0
 10
59.469041031477694
 20
183.31660683470633
 30
0.0
 10
69.072454338384347
 20
194.10273357077065
 30
0.0
  0
SPLINE
  5
C0
102
{ACAD_REACTORS
330
B1
102
}
100
AcDbEntity
  8
0
  6
CONTINUOUS
 62
     7
100
AcDbSpline
210
0.0
220
0.0
230
1.0
 70
     8
 71
     2
 72
     6
 73
     3
 74
     0
 42
0.0000001
 43
0.0000001
 40
0.0
 40
0.0
 40
0.0
 40
0.078863598626939
 40
0.078863598626939
 40
0.078863598626939
 10
69.072454338384347
 20
194.10273357077065
 30
0.0
 10
70.083966394160555
 20
192.48643962605792
 30
0.0
 10
71.313211706191808
 20
190.87158555278478
 30
0.0
  0
SPLINE
  5
C1
102
{ACAD_REACTORS
330
B1
102
}
100
AcDbEntity
  8
0
  6
CONTINUOUS
 62
     7
100
AcDbSpline
210
0.0
220
0.0
230
1.0
 70
     8
 71
     2
 72
     6
 73
     3
 74
     0
 42
0.0000001
 43
0.0000001
 40
0.0
 40
0.0
 40
0.0
 40
0.44154528966647
 40
0.44154528966647
 40
0.44154528966647
 10
71.313211706191808
 20
190.87158555278478
 30
0.0
 10
66.338894987109825
 20
185.74557793903548
 30
0.0
 10
60.393191785686774
 20
183.81220169200495
 30
0.0
  0
SPLINE
  5
C2
102
{ACAD_REACTORS
330
B1
102
}
100
AcDbEntity
  8
0
  6
CONTINUOUS
 62
     7
100
AcDbSpline
210
0.0
220
0.0
230
1.0
 70
     8
 71
     2
 72
     6
 73
     3
 74
     0
 42
0.0000001
 43
0.0000001
 40
0.0
 40
0.0
 40
0.0
 40
0.87784532982538
 40
0.87784532982538
 40
0.87784532982538
 10
67.36391469632477
 20
197.14120720226327
 30
0.0
 10
59.297449159367211
 20
185.6086831042989
 30
0.0
 10
40.350108175801253
 20
191.81584555563083
 30
0.0
  0
ELLIPSE
  5
C3
102
{ACAD_REACTORS
330
B1
102
}
100
AcDbEntity
  8
0
  6
CONTINUOUS
 62
     7
100
AcDbEllipse
 10
73.125412
 20
201.610649
 30
0.0
 11
34.214282841300886
 21
-0.0000000000001236
 31
0.0
210
0.0
220
0.0
230
1.0
 40
0.997619
 41
-2.9700842927135174
 42
-2.8505393483308374
  0
SPLINE
  5
C4
102
{ACAD_REACTORS
330
B1
102
}
100
AcDbEntity
  8
0
  6
CONTINUOUS
 62
     7
100
AcDbSpline
210
0.0
220
0.0
230
1.0
 70
     8
 71
     2
 72
     6
 73
     3
 74
     0
 42
0.0000001
 43
0.0000001
 40
0.0
 40
0.0
 40
0.0
 40
1.0
 40
1.0
 40
1.0
 10
39.413105261590594
 20
195.78524139123022
 30
0.0
 10
58.562871663625167
 20
189.22794780545635
 30
0.0
 10
65.938457363448222
 20
200.4588629978565
 30
0.0
  0
SPLINE
  5
C5
102
{ACAD_REACTORS
330
B1
102
}
100
AcDbEntity
  8
0
  6
CONTINUOUS
 62
     7
100
AcDbSpline
210
0.0
220
0.0
230
1.0
 70
     8
 71
     2
 72
     6
 73
     3
 74
     0
 42
0.0000001
 43
0.0000001
 40
0.0
 40
0.0
 40
0.0
 40
0.080834387779717
 40
0.080834387779717
 40
0.080834387779717
 10
65.938457363448222
 20
200.4588629978565
 30
0.0
 10
66.536810294923768
 20
198.79927873258077
 30
0.0
 10
67.36391469632477
 20
197.14120720226327
 30
0.0
  0
SPLINE
  5
C6
102
{ACAD_REACTORS
330
B1
102
}
100
AcDbEntity
  8
0
  6
CONTINUOUS
 62
     7
100
AcDbSpline
210
0.0
220
0.0
230
1.0
 70
     8
 71
     2
 72
     6
 73
     3
 74
     0
 42
0.0000001
 43
0.0000001
 40
0.0
 40
0.0
 40
0.0
 40
1.0
 40
1.0
 40
1.0
 10
69.274606893579445
 20
217.71902750941609
 30
0.0
 10
73.330213125634884
 20
209.09959784786017
 30
0.0
 10
69.398165892697321
 20
200.69427679486293
 30
0.0
  0
SPLINE
  5
C7
102
{ACAD_REACTORS
330
B1
102
}
100
AcDbEntity
  8
0
  6
CONTINUOUS
 62
     7
100
AcDbSpline
210
0.0
220
0.0
230
1.0
 70
     8
 71
     2
 72
     6
 73
     3
 74
     0
 42
0.0000001
 43
0.0000001
 40
0.0
 40
0.0
 40
0.0
 40
0.54256328903179
 40
0.54256328903179
 40
0.54256328903179
 10
69.398165892697321
 20
200.69427679486293
 30
0.0
 10
66.174447381236661
 20
209.55714229436646
 30
0.0
 10
69.274606893579445
 20
217.71902750941609
 30
0.0
  0
ELLIPSE
  5
C8
102
{ACAD_REACTORS
330
B1
102
}
100
AcDbEntity
  8
0
  6
CONTINUOUS
 62
     7
100
AcDbEllipse
 10
72.924588
 20
201.606948
 30
0.0
 11
34.214282841292807
 21
0.0
 31
0.0
210
0.0
220
0.0
230
1.0
 40
0.997619
 41
-1.5669405256657827
 42
-0.7008814089029568
  0
LINE
  5
C9
102
{ACAD_REACTORS
330
B1
102
}
100
AcDbEntity
  8
0
  6
CONTINUOUS
 62
     7
100
AcDbLine
 10
73.056511
 20
167.474374
 30
0.0
 11
72.993517
 21
167.478075
 31
0.0
  0
ELLIPSE
  5
CA
102
{ACAD_REACTORS
330
B1
102
}
100
AcDbEntity
  8
0
  6
CONTINUOUS
 62
     7
100
AcDbEllipse
 10
73.125412
 20
201.610649
 30
0.0
 11
34.214282841292707
 21
0.0
 31
0.0
210
0.0
220
0.0
230
1.0
 40
0.997619
 41
-2.4407112446868382
 42
-1.5746512917423687
  0
SPLINE
  5
CB
102
{ACAD_REACTORS
330
B1
102
}
100
AcDbEntity
  8
0
  6
CONTINUOUS
 62
     7
100
AcDbSpline
210
0.0
220
0.0
230
1.0
 70
     8
 71
     2
 72
     6
 73
     3
 74
     0
 42
0.0000001
 43
0.0000001
 40
0.0
 40
0.0
 40
0.0
 40
0.38387237899468
 40
0.38387237899468
 40
0.38387237899468
 10
46.976322572660557
 20
179.59867616031539
 30
0.0
 10
54.291841425868704
 20
178.42665410668243
 30
0.0
 10
60.393191785686717
 20
180.21640520633127
 30
0.0
  0
SPLINE
  5
CC
102
{ACAD_REACTORS
330
B1
102
}
100
AcDbEntity
  8
0
  6
CONTINUOUS
 62
     7
100
AcDbSpline
210
0.0
220
0.0
230
1.0
 70
     8
 71
     2
 72
     6
 73
     3
 74
     0
 42
0.0000001
 43
0.0000001
 40
0.0
 40
0.0
 40
0.0
 40
0.44974907043216
 40
0.44974907043216
 40
0.44974907043216
 10
60.393191785686717
 20
180.21640520633127
 30
0.0
 10
67.541600483117563
 20
182.3132971355713
 30
0.0
 10
73.023353911931849
 20
188.47573256823611
 30
0.0
  0
SPLINE
  5
CD
102
{ACAD_REACTORS
330
B1
102
}
100
AcDbEntity
  8
0
  6
CONTINUOUS
 62
     7
100
AcDbSpline
210
0.0
220
0.0
230
1.0
 70
     8
 71
     2
 72
     6
 73
     3
 74
     0
 42
0.0000001
 43
0.0000001
 40
0.0
 40
0.0
 40
0.0
 40
0.449884129476
 40
0.449884129476
 40
0.449884129476
 10
73.023353911931849
 20
188.47573256823611
 30
0.0
 10
78.506252859318749
 20
182.31022532055948
 30
0.0
 10
85.65680821431333
 20
180.21270369748009
 30
0.0
  0
SPLINE
  5
CE
102
{ACAD_REACTORS
330
B1
102
}
100
AcDbEntity
  8
0
  6
CONTINUOUS
 62
     7
100
AcDbSpline
210
0.0
220
0.0
230
1.0
 70
     8
 71
     2
 72
     6
 73
     3
 74
     0
 42
0.0000001
 43
0.0000001
 40
0.0
 40
0.0
 40
0.0
 40
0.38387237899468
 40
0.38387237899468
 40
0.38387237899468
 10
85.65680821431333
 20
180.21270369748009
 30
0.0
 10
91.758158574131272
 20
178.42295259783126
 30
0.0
 10
99.073677427339476
 20
179.59497465146424
 30
0.0
  0
SPLINE
  5
CF
102
{ACAD_REACTORS
330
B1
102
}
100
AcDbEntity
  8
0
  6
CONTINUOUS
 62
     7
100
AcDbSpline
210
0.0
220
0.0
230
1.0
 70
     8
 71
     2
 72
     6
 73
     3
 74
     0
 42
0.0000001
 43
0.0000001
 40
0.0
 40
0.0
 40
0.0
 40
0.5420531972173001
 40
0.5420531972173001
 40
0.5420531972173001
 10
72.924588191924698
 20
229.54996806972909
 30
0.0
 10
63.545884188964926
 20
218.33269652195159
 30
0.0
 10
64.453390680867429
 20
207.18344775110097
 30
0.0
  0
SPLINE
  5
D0
102
{ACAD_REACTORS
330
B1
102
}
100
AcDbEntity
  8
0
  6
CONTINUOUS
 62
     7
100
AcDbSpline
210
0.0
220
0.0
230
1.0
 70
     8
 71
     2
 72
     6
 73
     3
 74
     0
 42
0.0000001
 43
0.0000001
 40
0.0
 40
0.0
 40
0.0
 40
0.98730558462473
 40
0.98730558462473
 40
0.98730558462473
 10
64.453390680867429
 20
207.18344775110097
 30
0.0
 10
63.868294382676147
 20
201.50916708234948
 30
0.0
 10
57.99717545043768
 20
198.05599573162226
 30
0.0
  0
SPLINE
  5
D1
102
{ACAD_REACTORS
330
B1
102
}
100
AcDbEntity
  8
0
  6
CONTINUOUS
 62
     7
100
AcDbSpline
210
0.0
220
0.0
230
1.0
 70
     8
 71
     2
 72
     6
 73
     3
 74
     0
 42
0.0000001
 43
0.0000001
 40
0.0
 40
0.0
 40
0.0
 40
0.012694415375272
 40
0.012694415375272
 40
0.012694415375272
 10
57.99717545043768
 20
198.05599573162226
 30
0.0
 10
57.921686742986076
 20
198.01159611293158
 30
0.0
 10
57.845324156657867
 20
197.96756368534983
 30
0.0
  0
SPLINE
  5
D2
102
{ACAD_REACTORS
330
B1
102
}
100
AcDbEntity
  8
0
  6
CONTINUOUS
 62
     7
100
AcDbSpline
210
0.0
220
0.0
230
1.0
 70
     8
 71
     2
 72
     6
 73
     3
 74
     0
 42
0.0000001
 43
0.0000001
 40
0.0
 40
0.0
 40
0.0
 40
0.98960998643212
 40
0.98960998643212
 40
0.98960998643212
 10
57.845324156657867
 20
197.96756368534983
 30
0.0
 10
50.162695032250348
 20
194.53242181143881
 30
0.0
 10
38.974768800590226
 20
199.52977411339972
 30
0.0
  0
ELLIPSE
  5
D3
102
{ACAD_REACTORS
330
B1
102
}
100
AcDbEntity
  8
0
  6
CONTINUOUS
 62
     7
100
AcDbEllipse
 10
73.125412
 20
201.610649
 30
0.0
 11
34.214282841279626
 21
0.0
 31
0.0
210
0.0
220
0.0
230
1.0
 40
0.997619
 41
3.1319775652900574
 42
3.2025945217843117
  0
ELLIPSE
  5
D4
102
{ACAD_REACTORS
330
B1
102
}
100
AcDbEntity
  8
0
  6
CONTINUOUS
 62
     7
100
AcDbEllipse
 10
73.125412
 20
201.610649
 30
0.0
 11
34.214282841292516
 21
0.0
 31
0.0
210
0.0
220
0.0
230
1.0
 40
0.997619
 41
1.5746517306206318
 42
3.1319775652900836
  0
ELLIPSE
  5
D5
102
{ACAD_REACTORS
330
B1
102
}
100
AcDbEntity
  8
0
  6
CONTINUOUS
 62
     7
100
AcDbEllipse
 10
73.010115
 20
235.489435
 30
0.0
 11
0.2549362001734378
 21
0.0
 31
0.0
210
0.0
220
0.0
230
1.0
 40
0.997619
 41
1.3878985497658118
 42
1.6360067947496202
  0
ELLIPSE
  5
D6
102
{ACAD_REACTORS
330
B1
102
}
100
AcDbEntity
  8
0
  6
CONTINUOUS
 62
     7
100
AcDbEllipse
 10
72.924588
 20
201.606948
 30
0.0
 11
34.214282841294676
 21
0.0
 31
0.0
210
0.0
220
0.0
230
1.0
 40
0.997619
 41
0.009615088299721
 42
1.5669413618473695
  0
ELLIPSE
  5
D7
102
{ACAD_REACTORS
330
B1
102
}
100
AcDbEntity
  8
0
  6
CONTINUOUS
 62
     7
100
AcDbEllipse
 10
72.924588
 20
201.606948
 30
0.0
 11
34.21428284126484
 21
0.0
 31
0.0
210
0.0
220
0.0
230
1.0
 40
0.997619
 41
-0.0610018681945045
 42
0.0096150882997512
  0
SPLINE
  5
D8
102
{ACAD_REACTORS
330
B1
102
}
100
AcDbEntity
  8
0
  6
CONTINUOUS
 62
     7
100
AcDbSpline
210
0.0
220
0.0
230
1.0
 70
     8
 71
     2
 72
     6
 73
     3
 74
     0
 42
0.0000001
 43
0.0000001
 40
0.0
 40
0.0
 40
0.0
 40
0.98960998643212
 40
0.98960998643212
 40
0.98960998643212
 10
107.0752311994098
 20
199.5260726045486
 30
0.0
 10
95.887304967749657
 20
194.52872030258763
 30
0.0
 10
88.204675843342173
 20
197.96386217649868
 30
0.0
  0
SPLINE
  5
D9
102
{ACAD_REACTORS
330
B1
102
}
100
AcDbEntity
  8
0
  6
CONTINUOUS
 62
     7
100
AcDbSpline
210
0.0
220
0.0
230
1.0
 70
     8
 71
     2
 72
     6
 73
     3
 74
     0
 42
0.0000001
 43
0.0000001
 40
0.0
 40
0.0
 40
0.0
 40
0.012694415375272
 40
0.012694415375272
 40
0.012694415375272
 10
88.204675843342173
 20
197.96386217649868
 30
0.0
 10
88.128313257014739
 20
198.00789460408043
 30
0.0
 10
88.052824549562359
 20
198.05229422277108
 30
0.0
  0
SPLINE
  5
DA
102
{ACAD_REACTORS
330
B1
102
}
100
AcDbEntity
  8
0
  6
CONTINUOUS
 62
     7
100
AcDbSpline
210
0.0
220
0.0
230
1.0
 70
     8
 71
     2
 72
     6
 73
     3
 74
     0
 42
0.0000001
 43
0.0000001
 40
0.0
 40
0.0
 40
0.0
 40
0.98730558462473
 40
0.98730558462473
 40
0.98730558462473
 10
88.052824549562359
 20
198.05229422277108
 30
0.0
 10
82.181705617323843
 20
201.5054655734983
 30
0.0
 10
81.596609319132597
 20
207.17974624224979
 30
0.0
  0
SPLINE
  5
DB
102
{ACAD_REACTORS
330
B1
102
}
100
AcDbEntity
  8
0
  6
CONTINUOUS
 62
     7
100
AcDbSpline
210
0.0
220
0.0
230
1.0
 70
     8
 71
     2
 72
     6
 73
     3
 74
     0
 42
0.0000001
 43
0.0000001
 40
0.0
 40
0.0
 40
0.0
 40
0.5420531972173001
 40
0.5420531972173001
 40
0.5420531972173001
 10
81.596609319132597
 20
207.17974624224979
 30
0.0
 10
82.504115811035064
 20
218.32899501310033
 30
0.0
 10
73.125411808075299
 20
229.54626656087791
 30
0.0
  0
SPLINE
  5
DC
102
{ACAD_REACTORS
330
B1
102
}
100
AcDbEntity
  8
0
  6
CONTINUOUS
 62
     7
100
AcDbSpline
210
0.0
220
0.0
230
1.0
 70
     8
 71
     2
 72
     6
 73
     3
 74
     0
 42
0.0000001
 43
0.0000001
 40
0.0
 40
0.0
 40
0.0
 40
0.0029379541676653
 40
0.0029379541676653
 40
0.0029379541676653
 10
73.125411808075299
 20
229.54626656087791
 30
0.0
 10
73.074578785312312
 20
229.60706470737486
 30
0.0
 10
73.023443585400514
 20
229.6678648521715
 30
0.0
  0
SPLINE
  5
DD
102
{ACAD_REACTORS
330
B1
102
}
100
AcDbEntity
  8
0
  6
CONTINUOUS
 62
     7
100
AcDbSpline
210
0.0
220
0.0
230
1.0
 70
     8
 71
     2
 72
     6
 73
     3
 74
     0
 42
0.0000001
 43
0.0000001
 40
0.0
 40
0.0
 40
0.0
 40
0.002848522893839
 40
0.002848522893839
 40
0.002848522893839
 10
73.023443585400514
 20
229.6678648521715
 30
0.0
 10
72.973873858357308
 20
229.6089155217027
 30
0.0
 10
72.924588191924727
 20
229.54996806972915
 30
0.0
  0
SPLINE
  5
DE
102
{ACAD_REACTORS
330
B1
102
}
100
AcDbEntity
  8
0
  6
CONTINUOUS
 62
     7
100
AcDbSpline
210
0.0
220
0.0
230
1.0
 70
     8
 71
     2
 72
     6
 73
     3
 74
     0
 42
0.0000001
 43
0.0000001
 40
0.0
 40
0.0
 40
0.0
 40
0.13843954121203
 40
0.13843954121203
 40
0.13843954121203
 10
74.926543687958713
 20
221.58662447572266
 30
0.0
 10
73.823749336724575
 20
219.75529654145262
 30
0.0
 10
73.025819773112389
 20
217.95419513283906
 30
0.0
  0
SPLINE
  5
DF
102
{ACAD_REACTORS
330
B1
102
}
100
AcDbEntity
  8
0
  6
CONTINUOUS
 62
     7
100
AcDbSpline
210
0.0
220
0.0
230
1.0
 70
     8
 71
     2
 72
     6
 73
     3
 74
     0
 42
0.0000001
 43
0.0000001
 40
0.0
 40
0.0
 40
0.0
 40
0.13858179850061
 40
0.13858179850061
 40
0.13858179850061
 10
73.025819773112389
 20
217.95419513283906
 30
0.0
 10
72.227383869387737
 20
219.75711621983774
 30
0.0
 10
71.123456312041327
 20
221.59032598457378
 30
0.0
  0
SPLINE
  5
E0
102
{ACAD_REACTORS
330
B1
102
}
100
AcDbEntity
  8
0
  6
CONTINUOUS
 62
     7
100
AcDbSpline
210
0.0
220
0.0
230
1.0
 70
     8
 71
     2
 72
     6
 73
     3
 74
     0
 42
0.0000001
 43
0.0000001
 40
0.0
 40
0.0
 40
0.0
 40
0.099248200495089
 40
0.099248200495089
 40
0.099248200495089
 10
71.123456312041327
 20
221.59032598457378
 30
0.0
 10
71.967745971012917
 20
223.05260997699159
 30
0.0
 10
73.023641619668368
 20
224.49143816803561
 30
0.0
  0
SPLINE
  5
E1
102
{ACAD_REACTORS
330
B1
102
}
100
AcDbEntity
  8
0
  6
CONTINUOUS
 62
     7
100
AcDbSpline
210
0.0
220
0.0
230
1.0
 70
     8
 71
     2
 72
     6
 73
     3
 74
     0
 42
0.0000001
 43
0.0000001
 40
0.0
 40
0.0
 40
0.0
 40
0.099375864085037
 40
0.099375864085037
 40
0.099375864085037
 10
73.023641619668368
 20
224.49143816803561
 30
0.0
 10
74.081168013842813
 20
223.05078941331701
 30
0.0
 10
74.926543687958713
 20
221.58662447572266
 30
0.0
  0
SPLINE
  5
E2
102
{ACAD_REACTORS
330
B1
102
}
100
AcDbEntity
  8
0
  6
CONTINUOUS
 62
     7
100
AcDbSpline
210
0.0
220
0.0
230
1.0
 70
     8
 71
     2
 72
     6
 73
     3
 74
     0
 42
0.0000001
 43
0.0000001
 40
0.0
 40
0.0
 40
0.0
 40
0.097801943347113
 40
0.097801943347113
 40
0.097801943347113
 10
74.917847398303195
 20
196.71822499866815
 30
0.0
 10
74.067412529099201
 20
195.08179596775318
 30
0.0
 10
73.026168732212895
 20
193.43276426709511
 30
0.0
  0
SPLINE
  5
E3
102
{ACAD_REACTORS
330
B1
102
}
100
AcDbEntity
  8
0
  6
CONTINUOUS
 62
     7
100
AcDbSpline
210
0.0
220
0.0
230
1.0
 70
     8
 71
     2
 72
     6
 73
     3
 74
     0
 42
0.0000001
 43
0.0000001
 40
0.0
 40
0.0
 40
0.0
 40
0.09791170873436
 40
0.09791170873436
 40
0.09791170873436
 10
73.026168732212895
 20
193.43276426709511
 30
0.0
 10
71.983541933660078
 20
195.08366087438412
 30
0.0
 10
71.132152601696845
 20
196.72192650751933
 30
0.0
  0
SPLINE
  5
E4
102
{ACAD_REACTORS
330
B1
102
}
100
AcDbEntity
  8
0
  6
CONTINUOUS
 62
     7
100
AcDbSpline
210
0.0
220
0.0
230
1.0
 70
     8
 71
     2
 72
     6
 73
     3
 74
     0
 42
0.0000001
 43
0.0000001
 40
0.0
 40
0.0
 40
0.0
 40
0.041053843097348
 40
0.041053843097348
 40
0.041053843097348
 10
71.132152601696845
 20
196.72192650751933
 30
0.0
 10
71.546720053011327
 20
197.31702167269299
 30
0.0
 10
71.943158773412605
 20
197.94656621320297
 30
0.0
  0
SPLINE
  5
E5
102
{ACAD_REACTORS
330
B1
102
}
100
AcDbEntity
  8
0
  6
CONTINUOUS
 62
     7
100
AcDbSpline
210
0.0
220
0.0
230
1.0
 70
     8
 71
     2
 72
     6
 73
     3
 74
     0
 42
0.0000001
 43
0.0000001
 40
0.0
 40
0.0
 40
0.0
 40
0.08402650582083
 40
0.08402650582083
 40
0.08402650582083
 10
71.943158773412605
 20
197.94656621320297
 30
0.0
 10
72.539785180056541
 20
198.93258121840859
 30
0.0
 10
73.024101290918367
 20
199.92973148808059
 30
0.0
  0
SPLINE
  5
E6
102
{ACAD_REACTORS
330
B1
102
}
100
AcDbEntity
  8
0
  6
CONTINUOUS
 62
     7
100
AcDbSpline
210
0.0
220
0.0
230
1.0
 70
     8
 71
     2
 72
     6
 73
     3
 74
     0
 42
0.0000001
 43
0.0000001
 40
0.0
 40
0.0
 40
0.0
 40
0.08418246106715
 40
0.08418246106715
 40
0.08418246106715
 10
73.024101290918367
 20
199.92973148808059
 30
0.0
 10
73.509107466765869
 20
198.93070977748025
 30
0.0
 10
74.106841226587406
 20
197.94286470435182
 30
0.0
  0
SPLINE
  5
E7
102
{ACAD_REACTORS
330
B1
102
}
100
AcDbEntity
  8
0
  6
CONTINUOUS
 62
     7
100
AcDbSpline
210
0.0
220
0.0
230
1.0
 70
     8
 71
     2
 72
     6
 73
     3
 74
     0
 42
0.0000001
 43
0.0000001
 40
0.0
 40
0.0
 40
0.0
 40
0.041053843097348
 40
0.041053843097348
 40
0.041053843097348
 10
74.106841226587406
 20
197.94286470435182
 30
0.0
 10
74.50327994698867
 20
197.31332016384181
 30
0.0
 10
74.917847398303195
 20
196.71822499866815
 30
0.0
  0
CIRCLE
  5
E8
102
{ACAD_REACTORS
330
AA
102
}
100
AcDbEntity
  8
0
  6
CONTINUOUS
 62
    10
100
AcDbCircle
 10
73.025
 20
201.6125
 30
0.0
 40
47.625
  0
LWPOLYLINE
  5
EA
102
{ACAD_REACTORS
330
EB
102
}
100
AcDbEntity
  8
0
  6
CONTINUOUS
 62
     7
100
AcDbPolyline
 90
        2
 70
     1
 10
123.825
 20
174.625
 42
1.0
 10
206.375
 20
174.625
 42
1.0
  0
HATCH
  5
EB
102
{ACAD_REACTORS
330
E9
102
}
100
AcDbEntity
  8
0
 62
     7
100
AcDbHatch
 10
0.0
 20
0.0
 30
0.0
210
0.0
220
0.0
230
1.0
  2
SOLID
 70
     1
 71
     1
 91
        2
 92
        3
 72
     1
 73
     1
 93
        2
 10
123.82499999999999
 20
174.62500000000114
 42
1.000000000000014
 10
206.375
 20
174.625
 42
0.9999999999999997
 97
        1
330
EA
 92
        3
 72
     1
 73
     1
 93
        2
 10
130.17500000000001
 20
174.625
 42
-0.9999999999999999
 10
200.02500000000001
 20
174.625
 42
-1.0000000000000142
 97
        1
330
EC
 75
     0
 76
     1
 98
        0
  0
LWPOLYLINE
  5
EC
102
{ACAD_REACTORS
330
EB
102
}
100
AcDbEntity
  8
0
  6
CONTINUOUS
 62
     7
100
AcDbPolyline
 90
        2
 70
     1
 10
130.175
 20
174.625
 42
-1.0
 10
200.025
 20
174.625
 42
-1.0
  0
LWPOLYLINE
  5
ED
102
{ACAD_REACTORS
330
EE
102
}
100
AcDbEntity
  8
0
  6
CONTINUOUS
 62
     7
100
AcDbPolyline
 90
        9
 70
     1
 10
139.7
 20
181.76875
 10
139.7
 20
164.901563
 10
146.893741
 20
164.901563
 42
5.653761
 10
146.821277
 20
167.282813
 10
142.08125
 20
167.282813
 10
142.08125
 20
181.76875
 10
154.78125
 20
181.76875
 10
154.78125
 20
184.15
 10
139.7
 20
184.15
  0
HATCH
  5
EE
102
{ACAD_REACTORS
330
E9
102
}
100
AcDbEntity
  8
0
 62
     7
100
AcDbHatch
 10
0.0
 20
0.0
 30
0.0
210
0.0
220
0.0
230
1.0
  2
SOLID
 70
     1
 71
     1
 91
        2
 92
        3
 72
     1
 73
     1
 93
        9
 10
139.69999999999999
 20
181.76875000000001
 42
0.0
 10
139.69999999999999
 20
164.90156250000001
 42
0.0
 10
146.89374100816011
 20
164.90156250000001
 42
5.6537608397604471
 10
146.82127740440441
 20
167.28281250000003
 42
0.0
 10
142.08124999999998
 20
167.28281250000001
 42
0.0
 10
142.08124999999998
 20
181.76875000000001
 42
0.0
 10
154.78125
 20
181.76875000000001
 42
0.0
 10
154.78125
 20
184.15000000000001
 42
0.0
 10
139.69999999999999
 20
184.15000000000001
 42
0.0
 97
        1
330
ED
 92
        1
 93
        1
 72
     2
 10
150.01875000000004
 20
166.19140625
 40
1.8851562500000028
 50
0.0
 51
360.0
 73
     0
 97
        1
330
EF
 75
     0
 76
     1
 98
        0
  0
CIRCLE
  5
EF
102
{ACAD_REACTORS
330
EE
102
}
100
AcDbEntity
  8
0
  6
CONTINUOUS
 62
     7
100
AcDbCircle
 10
150.01875
 20
166.191406
 30
0.0
 40
1.885156
  0
LWPOLYLINE
  5
F0
102
{ACAD_REACTORS
330
F1
102
}
100
AcDbEntity
  8
0
  6
CONTINUOUS
 62
     7
100
AcDbPolyline
 90
        9
 70
     1
 10
172.24375
 20
200.025
 10
155.376563
 20
200.025
 10
155.376563
 20
192.831259
 42
5.653761
 10
157.757813
 20
192.903723
 10
157.757813
 20
197.64375
 10
172.24375
 20
197.64375
 10
172.24375
 20
184.94375
 10
174.625
 20
184.94375
 10
174.625
 20
200.025
  0
HATCH
  5
F1
102
{ACAD_REACTORS
330
E9
102
}
100
AcDbEntity
  8
0
 62
     7
100
AcDbHatch
 10
0.0
 20
0.0
 30
0.0
210
0.0
220
0.0
230
1.0
  2
SOLID
 70
     1
 71
     1
 91
        2
 92
        3
 72
     1
 73
     1
 93
        9
 10
172.24375000000001
 20
200.02500000000001
 42
0.0
 10
155.37656250000001
 20
200.02500000000001
 42
0.0
 10
155.37656250000006
 20
192.83125899183992
 42
5.6537608397605714
 10
157.7578125
 20
192.90372259559558
 42
0.0
 10
157.7578125
 20
197.64375000000004
 42
0.0
 10
172.24375000000001
 20
197.64375000000001
 42
0.0
 10
172.24375000000001
 20
184.94374999999999
 42
0.0
 10
174.625
 20
184.94374999999999
 42
0.0
 10
174.625
 20
200.02499999999998
 42
0.0
 97
        1
330
F0
 92
        1
 93
        1
 72
     2
 10
156.66640625000002
 20
189.70624999999998
 40
1.8851562499999999
 50
0.0
 51
360.0
 73
     0
 97
        1
330
F2
 75
     0
 76
     1
 98
        0
  0
CIRCLE
  5
F2
102
{ACAD_REACTORS
330
F1
102
}
100
AcDbEntity
  8
0
  6
CONTINUOUS
 62
     7
100
AcDbCircle
 10
156.666406
 20
189.70625
 30
0.0
 40
1.885156
  0
ELLIPSE
  5
F3
102
{ACAD_REACTORS
330
FF
102
}
100
AcDbEntity
  8
0
  6
CONTINUOUS
 62
     7
100
AcDbEllipse
 10
165.1
 20
174.625
 30
0.0
 11
9.9674111316819314
 21
-5.7546875000003848
 31
0.0
210
0.0
220
0.0
230
1.0
 40
0.310345
 41
-4.219167713558023
 42
-2.7158536210295701
  0
ARC
  5
F4
102
{ACAD_REACTORS
330
FF
102
}
100
AcDbEntity
  8
0
  6
CONTINUOUS
 62
     7
100
AcDbCircle
 10
156.301843
 20
177.642395
 30
0.0
 40
1.389063
100
AcDbArc
 50
137.071801
 51
295.492169
  0
ELLIPSE
  5
F5
102
{ACAD_REACTORS
330
FF
102
}
100
AcDbEntity
  8
0
  6
CONTINUOUS
 62
     7
100
AcDbEllipse
 10
165.1
 20
174.625
 30
0.0
 11
9.9674111316865481
 21
-5.7546875000030546
 31
0.0
210
0.0
220
0.0
230
1.0
 40
0.310345
 41
-2.3373393549998234
 42
-2.0640175936215619
  0
ELLIPSE
  5
F6
102
{ACAD_REACTORS
330
FF
102
}
100
AcDbEntity
  8
0
  6
CONTINUOUS
 62
     7
100
AcDbEllipse
 10
165.1
 20
174.625
 30
0.0
 11
-9.9674111316817555
 21
-5.754687499999914
 31
0.0
210
0.0
220
0.0
230
1.0
 40
0.310345
 41
-1.0775750599681484
 42
1.0775750599681251
  0
ELLIPSE
  5
F7
102
{ACAD_REACTORS
330
FF
102
}
100
AcDbEntity
  8
0
  6
CONTINUOUS
 62
     7
100
AcDbEllipse
 10
165.1
 20
174.625
 30
0.0
 11
0.0
 21
-11.509375000000045
 31
0.0
210
0.0
220
0.0
230
1.0
 40
0.310345
 41
5.2056102472114301
 42
0.4257390325602362
  0
ARC
  5
F8
102
{ACAD_REACTORS
330
FF
102
}
100
AcDbEntity
  8
0
  6
CONTINUOUS
 62
     7
100
AcDbCircle
 10
166.885937
 20
165.496875
 30
0.0
 40
1.389062
100
AcDbArc
 50
257.071801
 51
55.492169
  0
ELLIPSE
  5
F9
102
{ACAD_REACTORS
330
FF
102
}
100
AcDbEntity
  8
0
  6
CONTINUOUS
 62
     7
100
AcDbEllipse
 10
165.1
 20
174.625
 30
0.0
 11
0.0
 21
-11.509374999999151
 31
0.0
210
0.0
220
0.0
230
1.0
 40
0.310345
 41
0.8042532985898588
 42
1.0775750599682372
  0
ELLIPSE
  5
FA
102
{ACAD_REACTORS
330
FF
102
}
100
AcDbEntity
  8
0
  6
CONTINUOUS
 62
     7
100
AcDbEllipse
 10
165.1
 20
174.625
 30
0.0
 11
9.9674111316815335
 21
-5.7546875000001547
 31
0.0
210
0.0
220
0.0
230
1.0
 40
0.310345
 41
-1.0775750599681404
 42
1.0775750599680913
  0
ELLIPSE
  5
FB
102
{ACAD_REACTORS
330
FF
102
}
100
AcDbEntity
  8
0
  6
CONTINUOUS
 62
     7
100
AcDbEllipse
 10
165.1
 20
174.625
 30
0.0
 11
-9.9674111316820504
 21
-5.7546875000000846
 31
0.0
210
0.0
220
0.0
230
1.0
 40
0.310345
 41
-4.2191677135579688
 42
-2.7158536210295665
  0
ARC
  5
FC
102
{ACAD_REACTORS
330
FF
102
}
100
AcDbEntity
  8
0
  6
CONTINUOUS
 62
     7
100
AcDbCircle
 10
172.112219
 20
180.73573
 30
0.0
 40
1.389063
100
AcDbArc
 50
17.071801
 51
175.492169
  0
ELLIPSE
  5
FD
102
{ACAD_REACTORS
330
FF
102
}
100
AcDbEntity
  8
0
  6
CONTINUOUS
 62
     7
100
AcDbEllipse
 10
165.1
 20
174.625
 30
0.0
 11
-9.9674111316837113
 21
-5.7546875000010438
 31
0.0
210
0.0
220
0.0
230
1.0
 40
0.310345
 41
-2.3373393549998425
 42
-2.0640175936215384
  0
ELLIPSE
  5
FE
102
{ACAD_REACTORS
330
FF
102
}
100
AcDbEntity
  8
0
  6
CONTINUOUS
 62
     7
100
AcDbEllipse
 10
165.1
 20
174.625
 30
0.0
 11
0.0
 21
-11.509374999999814
 31
0.0
210
0.0
220
0.0
230
1.0
 40
0.310345
 41
2.064017593621581
 42
4.2191677135579591
  0
HATCH
  5
FF
102
{ACAD_REACTORS
330
E9
102
}
100
AcDbEntity
  8
0
 62
     7
100
AcDbHatch
 10
0.0
 20
0.0
 30
0.0
210
0.0
220
0.0
230
1.0
  2
SOLID
 70
     1
 71
     1
 91
       14
 92
        1
 93
       12
 72
     3
 10
165.10000000000002
 20
174.62500000000003
 11
9.9674111316819314
 21
-5.7546875000003848
 40
0.310345
 50
118.259497
 51
204.39305
 73
     1
 72
     2
 10
156.30184311107976
 20
177.64239525542919
 40
1.3890625000000083
 50
137.071801
 51
295.492169
 73
     1
 72
     3
 10
165.10000000000315
 20
174.62500000000011
 11
9.9674111316865481
 21
-5.7546875000030546
 40
0.310345
 50
226.08032
 51
241.740503
 73
     1
 72
     3
 10
165.10000000000068
 20
174.625
 11
-9.9674111316817555
 21
-5.754687499999914
 40
0.310345
 50
298.259497
 51
61.740503
 73
     1
 72
     3
 10
165.09999999999994
 20
174.62500000000003
 11
3.5718750000000155
 21
0.0
 40
3.222222
 50
208.259497
 51
294.39305
 73
     1
 72
     2
 10
166.88593749999995
 20
165.49687499999999
 40
1.3890624999999999
 50
257.071801
 51
55.492169
 73
     1
 72
     3
 10
165.10000000000014
 20
174.62499999999946
 11
3.5718749999997375
 21
0.0
 40
3.222222
 50
316.08032
 51
331.740503
 73
     1
 72
     3
 10
165.09999999999962
 20
174.62500000000063
 11
9.9674111316815335
 21
-5.7546875000001547
 40
0.310345
 50
298.259497
 51
61.740503
 73
     1
 72
     3
 10
165.09999999999999
 20
174.62499999999991
 11
-9.9674111316820504
 21
-5.7546875000000846
 40
0.310345
 50
118.259497
 51
204.39305
 73
     1
 72
     2
 10
172.11221938892032
 20
180.73572974457133
 40
1.3890625000000165
 50
17.071801
 51
175.492169
 73
     1
 72
     3
 10
165.09999999999991
 20
174.62499999999901
 11
-9.9674111316837113
 21
-5.7546875000010438
 40
0.310345
 50
226.08032
 51
241.740503
 73
     1
 72
     3
 10
165.09999999999999
 20
174.62500000000023
 11
3.5718749999999435
 21
0.0
 40
3.222222
 50
28.259497
 51
151.740503
 73
     1
 97
       12
330
F3
330
F4
330
F5
330
F6
330
F7
330
F8
330
F9
330
FA
330
FB
330
FC
330
FD
330
FE
 92
        1
 93
        3
 72
     3
 10
165.10000000000079
 20
174.6249999999975
 11
9.9674111316872747
 21
-5.7546875000034738
 40
0.310345
 50
100.15833
 51
113.818767
 73
     1
 72
     3
 10
165.09999999999991
 20
174.42656249999985
 11
2.7781250000000108
 21
0.0
 40
3.785714
 50
210.591281
 51
329.408719
 73
     0
 72
     3
 10
165.1000000000009
 20
174.62499999999903
 11
-9.9674111316845462
 21
-5.7546875000015261
 40
0.310345
 50
246.181233
 51
259.84167
 73
     1
 97
        3
330
100
330
101
330
102
 92
        1
 93
        3
 72
     3
 10
165.10000000000019
 20
174.42656250000007
 11
2.7781249999997026
 21
0.0
 40
3.785714
 50
334.136716
 51
344.796362
 73
     0
 72
     3
 10
165.09999999999945
 20
174.62499999999858
 11
9.9674111316863598
 21
-5.7546875000029454
 40
0.310345
 50
84.806274
 51
95.354163
 73
     1
 72
     3
 10
165.27185191606571
 20
174.72421875000219
 11
-9.1081515513604163
 21
-5.2585937499976438
 40
0.264151
 50
102.880199
 51
113.307071
 73
     0
 97
        3
330
103
330
104
330
105
 92
        1
 93
        5
 72
     3
 10
165.10000000000161
 20
174.62500000000026
 11
9.9674111316790963
 21
-5.7546874999987478
 40
0.310345
 50
65.856418
 51
79.84167
 73
     1
 72
     3
 10
165.10000000000448
 20
174.62500000000529
 11
3.5718749999952024
 21
0.0
 40
3.222222
 50
10.15833
 51
24.143582
 73
     1
 72
     3
 10
165.2718519160635
 20
174.72421874999932
 11
-9.1081515513657738
 21
-5.2585937500007365
 40
0.264151
 50
118.250742
 51
135.86805
 73
     0
 72
     2
 10
172.11221938892035
 20
180.73572974457144
 40
1.3890625000001466
 50
203.862664
 51
349.111797
 73
     1
 72
     3
 10
165.27185191606361
 20
174.72421874999995
 11
-9.1081515513647062
 21
-5.258593750000121
 40
0.264151
 50
161.605101
 51
241.749258
 73
     0
 97
        5
330
106
330
107
330
108
330
109
330
10A
 92
        1
 93
        3
 72
     3
 10
165.10000000000068
 20
174.62500000000085
 11
-9.9674111316798868
 21
-5.7546874999988358
 40
0.310345
 50
264.645837
 51
275.193726
 73
     1
 72
     3
 10
165.09999999999755
 20
174.42656250000334
 11
2.7781249999974951
 21
0.0
 40
3.785714
 50
195.203638
 51
205.863284
 73
     0
 72
     3
 10
164.92814808394232
 20
174.72421874998753
 11
9.1081515513926536
 21
-5.2585937500166011
 40
0.264151
 50
246.692929
 51
257.119801
 73
     0
 97
        3
330
10B
330
10C
330
10D
 92
        1
 93
        6
 72
     3
 10
164.9281480839357
 20
174.72421874999839
 11
9.1081515513709856
 21
-5.2585937500040894
 40
0.264151
 50
262.39753
 51
279.739986
 73
     0
 72
     3
 10
165.09999999999999
 20
174.4265624999999
 11
2.778124999999898
 21
0.0
 40
3.785714
 50
350.260014
 51
7.60247
 73
     0
 72
     3
 10
165.27185191606316
 20
174.7242187500002
 11
-9.1081515513663032
 21
-5.258593750001042
 40
0.264151
 50
262.39753
 51
279.739986
 73
     0
 72
     3
 10
164.92814808393447
 20
174.72421874999895
 11
9.1081515513567499
 21
-5.2585937499958737
 40
0.264151
 50
80.260014
 51
97.60247
 73
     0
 72
     3
 10
165.10000000000201
 20
174.42656249999916
 11
2.7781250000021513
 21
0.0
 40
3.785714
 50
172.39753
 51
189.739986
 73
     0
 72
     3
 10
165.27185191606429
 20
174.72421875000134
 11
-9.1081515513608284
 21
-5.258593749997881
 40
0.264151
 50
80.260014
 51
97.60247
 73
     0
 97
        6
330
10E
330
10F
330
110
330
111
330
112
330
113
 92
        1
 93
        5
 72
     3
 10
165.10000000000346
 20
174.62499999999955
 11
-9.9674111316870402
 21
-5.7546875000029667
 40
0.310345
 50
280.15833
 51
294.143582
 73
     1
 72
     3
 10
164.92814808393035
 20
174.72421875000194
 11
9.1081515513570892
 21
-5.2585937499960647
 40
0.264151
 50
118.250742
 51
135.86805
 73
     0
 72
     2
 10
156.30184311107965
 20
177.64239525542908
 40
1.3890625000001575
 50
323.862664
 51
109.111797
 73
     1
 72
     3
 10
164.92814808393655
 20
174.72421875000012
 11
9.1081515513646831
 21
-5.258593750000454
 40
0.264151
 50
161.605101
 51
241.749258
 73
     0
 72
     3
 10
165.1000000000038
 20
174.62499999999582
 11
3.5718750000040811
 21
0.0
 40
3.222222
 50
155.856418
 51
169.84167
 73
     1
 97
        5
330
114
330
115
330
116
330
117
330
118
 92
        1
 93
        3
 72
     3
 10
165.10000000000062
 20
174.62500000000023
 11
3.5718750000006878
 21
0.0
 40
3.222222
 50
174.806274
 51
185.354163
 73
     1
 72
     3
 10
164.92814808393419
 20
174.72421875000106
 11
9.1081515513620577
 21
-5.2585937499989361
 40
0.264151
 50
102.880199
 51
113.307071
 73
     0
 72
     3
 10
165.27185191606353
 20
174.72421875000049
 11
-9.1081515513617344
 21
-5.258593749998405
 40
0.264151
 50
64.136716
 51
74.796362
 73
     0
 97
        3
330
119
330
11A
330
11B
 92
        1
 93
        3
 72
     3
 10
165.10000000000667
 20
174.62500000000287
 11
9.9674111316977054
 21
-5.7546875000094948
 40
0.310345
 50
246.181233
 51
259.84167
 73
     1
 72
     3
 10
165.09999999999948
 20
174.62499999999972
 11
3.5718749999995576
 21
0.0
 40
3.222222
 50
190.15833
 51
203.818767
 73
     1
 72
     3
 10
165.27185191606392
 20
174.72421874999981
 11
-9.108151551363969
 21
-5.2585937499996955
 40
0.264151
 50
300.591281
 51
59.408719
 73
     0
 97
        3
330
11C
330
11D
330
11E
 92
        1
 93
        5
 72
     3
 10
165.09999999999911
 20
174.62499999999599
 11
-9.9674111316736145
 21
-5.7546874999952147
 40
0.310345
 50
65.856418
 51
79.84167
 73
     1
 72
     3
 10
165.09999999999971
 20
174.62499999999761
 11
9.9674111316743375
 21
-5.7546874999960007
 40
0.310345
 50
280.15833
 51
294.143582
 73
     1
 72
     3
 10
165.10000000000079
 20
174.42656249999712
 11
2.7781249999988877
 21
0.0
 40
3.785714
 50
28.250742
 51
45.86805
 73
     0
 72
     2
 10
166.88593750000004
 20
165.49687499999993
 40
1.3890625000001235
 50
83.862664
 51
229.111797
 73
     1
 72
     3
 10
165.09999999999991
 20
174.42656249999985
 11
2.7781250000000139
 21
0.0
 40
3.785714
 50
71.605101
 51
151.749258
 73
     0
 97
        5
330
11F
330
120
330
121
330
122
330
123
 92
        1
 93
        3
 72
     3
 10
165.10000000000167
 20
174.42656250000201
 11
2.778125000001852
 21
0.0
 40
3.785714
 50
156.692929
 51
167.119801
 73
     0
 72
     3
 10
165.10000000000429
 20
174.62500000000722
 11
9.9674111317041945
 21
-5.7546875000132411
 40
0.310345
 50
264.645837
 51
275.193726
 73
     1
 72
     3
 10
165.27185191606625
 20
174.72421875000384
 11
-9.1081515513725897
 21
-5.258593750004672
 40
0.264151
 50
285.203638
 51
295.863284
 73
     0
 97
        3
330
124
330
125
330
126
 92
        1
 93
        3
 72
     3
 10
165.09999999999317
 20
174.62500000000898
 11
-9.9674111317135239
 21
-5.7546875000182558
 40
0.310345
 50
84.806274
 51
95.354163
 73
     1
 72
     3
 10
165.09999999998752
 20
174.42656250001372
 11
2.7781250000128903
 21
0.0
 40
3.785714
 50
12.880199
 51
23.307071
 73
     0
 72
     3
 10
164.92814808392956
 20
174.72421875001641
 11
9.1081515513999474
 21
-5.2585937500208093
 40
0.264151
 50
64.136716
 51
74.796362
 73
     0
 97
        3
330
127
330
128
330
129
 92
        1
 93
        3
 72
     3
 10
165.10000000000068
 20
174.62499999999989
 11
-9.9674111316809331
 21
-5.7546874999994397
 40
0.310345
 50
100.15833
 51
113.818767
 73
     1
 72
     3
 10
164.92814808393615
 20
174.72421875000072
 11
9.1081515513640827
 21
-5.2585937500001023
 40
0.264151
 50
300.591281
 51
59.408719
 73
     0
 72
     3
 10
165.09999999999906
 20
174.62500000000071
 11
3.5718750000009347
 21
0.0
 40
3.222222
 50
336.181233
 51
349.84167
 73
     1
 97
        3
330
12A
330
12B
330
12C
 92
        1
 93
        3
 72
     3
 10
165.10000000000025
 20
174.62500000000006
 11
3.5718749999996939
 21
0.0
 40
3.222222
 50
354.645837
 51
5.193726
 73
     1
 72
     3
 10
164.92814808394138
 20
174.7242187500002
 11
9.1081515513558298
 21
-5.2585937499953426
 40
0.264151
 50
285.203638
 51
295.863284
 73
     0
 72
     3
 10
165.27185191606208
 20
174.72421874999949
 11
-9.1081515513663849
 21
-5.25859375000109
 40
0.264151
 50
246.692929
 51
257.119801
 73
     0
 97
        3
330
12D
330
12E
330
12F
 75
     0
 76
     1
 98
        0
  0
ELLIPSE
  5
100
102
{ACAD_REACTORS
330
FF
102
}
100
AcDbEntity
  8
0
  6
CONTINUOUS
 62
     7
100
AcDbEllipse
 10
165.1
 20
174.625
 30
0.0
 11
9.9674111316872747
 21
-5.7546875000034738
 31
0.0
210
0.0
220
0.0
230
1.0
 40
0.310345
 41
1.7480926280682632
 42
1.986512229288691
  0
ELLIPSE
  5
101
102
{ACAD_REACTORS
330
FF
102
}
100
AcDbEntity
  8
0
  6
CONTINUOUS
 62
     7
100
AcDbEllipse
 10
165.1
 20
174.426562
 30
0.0
 11
0.0
 21
-10.517187500000039
 31
0.0
210
0.0
220
0.0
230
1.0
 40
0.264151
 41
2.1047148973509811
 42
4.1784704098285461
  0
ELLIPSE
  5
102
102
{ACAD_REACTORS
330
FF
102
}
100
AcDbEntity
  8
0
  6
CONTINUOUS
 62
     7
100
AcDbEllipse
 10
165.1
 20
174.625
 30
0.0
 11
-9.9674111316845462
 21
-5.7546875000015261
 31
0.0
210
0.0
220
0.0
230
1.0
 40
0.310345
 41
-1.9865122292885624
 42
-1.7480926280681921
  0
ELLIPSE
  5
103
102
{ACAD_REACTORS
330
FF
102
}
100
AcDbEntity
  8
0
  6
CONTINUOUS
 62
     7
100
AcDbEllipse
 10
165.1
 20
174.426563
 30
0.0
 11
0.0
 21
-10.517187499998874
 31
0.0
210
0.0
220
0.0
230
1.0
 40
0.264151
 41
1.8361498650603258
 42
2.022195786959581
  0
ELLIPSE
  5
104
102
{ACAD_REACTORS
330
FF
102
}
100
AcDbEntity
  8
0
  6
CONTINUOUS
 62
     7
100
AcDbEllipse
 10
165.1
 20
174.625
 30
0.0
 11
9.9674111316863598
 21
-5.7546875000029454
 31
0.0
210
0.0
220
0.0
230
1.0
 40
0.310345
 41
1.48014871124333
 42
1.6642440944008356
  0
ELLIPSE
  5
105
102
{ACAD_REACTORS
330
FF
102
}
100
AcDbEntity
  8
0
  6
CONTINUOUS
 62
     7
100
AcDbEllipse
 10
165.271852
 20
174.724219
 30
0.0
 11
-9.1081515513604163
 21
-5.2585937499976438
 31
0.0
210
0.0
220
0.0
230
1.0
 40
0.264151
 41
-1.9775814566674181
 42
-1.7955982008660096
  0
ELLIPSE
  5
106
102
{ACAD_REACTORS
330
FF
102
}
100
AcDbEntity
  8
0
  6
CONTINUOUS
 62
     7
100
AcDbEllipse
 10
165.1
 20
174.625
 30
0.0
 11
9.9674111316790963
 21
-5.7546874999987478
 31
0.0
210
0.0
220
0.0
230
1.0
 40
0.310345
 41
1.1494113340417496
 42
1.3935000255216599
  0
ELLIPSE
  5
107
102
{ACAD_REACTORS
330
FF
102
}
100
AcDbEntity
  8
0
  6
CONTINUOUS
 62
     7
100
AcDbEllipse
 10
165.1
 20
174.625
 30
0.0
 11
0.0
 21
-11.509374999984535
 31
0.0
210
0.0
220
0.0
230
1.0
 40
0.310345
 41
1.7480926280680356
 42
1.9921813195480962
  0
ELLIPSE
  5
108
102
{ACAD_REACTORS
330
FF
102
}
100
AcDbEntity
  8
0
  6
CONTINUOUS
 62
     7
100
AcDbEllipse
 10
165.271852
 20
174.724219
 30
0.0
 11
-9.1081515513657738
 21
-5.2585937500007365
 31
0.0
210
0.0
220
0.0
230
1.0
 40
0.264151
 41
-2.3713448233426604
 42
-2.0638647824446159
  0
ARC
  5
109
102
{ACAD_REACTORS
330
FF
102
}
100
AcDbEntity
  8
0
  6
CONTINUOUS
 62
     7
100
AcDbCircle
 10
172.112219
 20
180.73573
 30
0.0
 40
1.389063
100
AcDbArc
 50
203.862664
 51
349.111797
  0
ELLIPSE
  5
10A
102
{ACAD_REACTORS
330
FF
102
}
100
AcDbEntity
  8
0
  6
CONTINUOUS
 62
     7
100
AcDbEllipse
 10
165.271852
 20
174.724219
 30
0.0
 11
-9.1081515513647062
 21
-5.258593750000121
 31
0.0
210
0.0
220
0.0
230
1.0
 40
0.264151
 41
2.0638647824446941
 42
3.4626442058090423
  0
ELLIPSE
  5
10B
102
{ACAD_REACTORS
330
FF
102
}
100
AcDbEntity
  8
0
  6
CONTINUOUS
 62
     7
100
AcDbEllipse
 10
165.1
 20
174.625
 30
0.0
 11
-9.9674111316798868
 21
-5.7546874999988358
 31
0.0
210
0.0
220
0.0
230
1.0
 40
0.310345
 41
-1.664244094400873
 42
-1.4801487112430989
  0
ELLIPSE
  5
10C
102
{ACAD_REACTORS
330
FF
102
}
100
AcDbEntity
  8
0
  6
CONTINUOUS
 62
     7
100
AcDbEllipse
 10
165.1
 20
174.426563
 30
0.0
 11
0.0
 21
-10.517187499990516
 31
0.0
210
0.0
220
0.0
230
1.0
 40
0.264151
 41
4.2609895202198924
 42
4.4470354421194394
  0
ELLIPSE
  5
10D
102
{ACAD_REACTORS
330
FF
102
}
100
AcDbEntity
  8
0
  6
CONTINUOUS
 62
     7
100
AcDbEllipse
 10
164.928148
 20
174.724219
 30
0.0
 11
9.1081515513926536
 21
-5.2585937500166011
 31
0.0
210
0.0
220
0.0
230
1.0
 40
0.264151
 41
1.7955982008665046
 42
1.9775814566674059
  0
ELLIPSE
  5
10E
102
{ACAD_REACTORS
330
FF
102
}
100
AcDbEntity
  8
0
  6
CONTINUOUS
 62
     7
100
AcDbEllipse
 10
164.928148
 20
174.724219
 30
0.0
 11
9.1081515513709856
 21
-5.2585937500040894
 31
0.0
210
0.0
220
0.0
230
1.0
 40
0.264151
 41
1.4008015069395212
 42
1.7034844654874131
  0
ELLIPSE
  5
10F
102
{ACAD_REACTORS
330
FF
102
}
100
AcDbEntity
  8
0
  6
CONTINUOUS
 62
     7
100
AcDbEllipse
 10
165.1
 20
174.426562
 30
0.0
 11
0.0
 21
-10.517187499999618
 31
0.0
210
0.0
220
0.0
230
1.0
 40
0.264151
 41
1.4381081881021989
 42
1.7407911466505068
  0
ELLIPSE
  5
110
102
{ACAD_REACTORS
330
FF
102
}
100
AcDbEntity
  8
0
  6
CONTINUOUS
 62
     7
100
AcDbEllipse
 10
165.271852
 20
174.724219
 30
0.0
 11
-9.1081515513663032
 21
-5.258593750001042
 31
0.0
210
0.0
220
0.0
230
1.0
 40
0.264151
 41
1.400801506939469
 42
1.7034844654875119
  0
ELLIPSE
  5
111
102
{ACAD_REACTORS
330
FF
102
}
100
AcDbEntity
  8
0
  6
CONTINUOUS
 62
     7
100
AcDbEllipse
 10
164.928148
 20
174.724219
 30
0.0
 11
9.1081515513567499
 21
-5.2585937499958737
 31
0.0
210
0.0
220
0.0
230
1.0
 40
0.264151
 41
-1.7034844654875747
 42
-1.4008015069390245
  0
ELLIPSE
  5
112
102
{ACAD_REACTORS
330
FF
102
}
100
AcDbEntity
  8
0
  6
CONTINUOUS
 62
     7
100
AcDbEllipse
 10
165.1
 20
174.426562
 30
0.0
 11
0.0
 21
-10.517187500008143
 31
0.0
210
0.0
220
0.0
230
1.0
 40
0.264151
 41
4.5423941605292377
 42
4.845077119077132
  0
ELLIPSE
  5
113
102
{ACAD_REACTORS
330
FF
102
}
100
AcDbEntity
  8
0
  6
CONTINUOUS
 62
     7
100
AcDbEllipse
 10
165.271852
 20
174.724219
 30
0.0
 11
-9.1081515513608284
 21
-5.258593749997881
 31
0.0
210
0.0
220
0.0
230
1.0
 40
0.264151
 41
-1.7034844654875352
 42
-1.4008015069391089
  0
ELLIPSE
  5
114
102
{ACAD_REACTORS
330
FF
102
}
100
AcDbEntity
  8
0
  6
CONTINUOUS
 62
     7
100
AcDbEllipse
 10
165.1
 20
174.625
 30
0.0
 11
-9.9674111316870402
 21
-5.7546875000029667
 31
0.0
210
0.0
220
0.0
230
1.0
 40
0.310345
 41
-1.3935000255213865
 42
-1.1494113340417789
  0
ELLIPSE
  5
115
102
{ACAD_REACTORS
330
FF
102
}
100
AcDbEntity
  8
0
  6
CONTINUOUS
 62
     7
100
AcDbEllipse
 10
164.928148
 20
174.724219
 30
0.0
 11
9.1081515513570892
 21
-5.2585937499960647
 31
0.0
210
0.0
220
0.0
230
1.0
 40
0.264151
 41
-2.3713448233427314
 42
-2.0638647824443748
  0
ARC
  5
116
102
{ACAD_REACTORS
330
FF
102
}
100
AcDbEntity
  8
0
  6
CONTINUOUS
 62
     7
100
AcDbCircle
 10
156.301843
 20
177.642395
 30
0.0
 40
1.389063
100
AcDbArc
 50
323.862664
 51
109.111797
  0
ELLIPSE
  5
117
102
{ACAD_REACTORS
330
FF
102
}
100
AcDbEntity
  8
0
  6
CONTINUOUS
 62
     7
100
AcDbEllipse
 10
164.928148
 20
174.724219
 30
0.0
 11
9.1081515513646831
 21
-5.258593750000454
 31
0.0
210
0.0
220
0.0
230
1.0
 40
0.264151
 41
2.063864782444675
 42
3.4626442058090423
  0
ELLIPSE
  5
118
102
{ACAD_REACTORS
330
FF
102
}
100
AcDbEntity
  8
0
  6
CONTINUOUS
 62
     7
100
AcDbEllipse
 10
165.1
 20
174.625
 30
0.0
 11
0.0
 21
-11.509375000013145
 31
0.0
210
0.0
220
0.0
230
1.0
 40
0.310345
 41
4.291003987631643
 42
4.5350926791112212
  0
ELLIPSE
  5
119
102
{ACAD_REACTORS
330
FF
102
}
100
AcDbEntity
  8
0
  6
CONTINUOUS
 62
     7
100
AcDbEllipse
 10
165.1
 20
174.625
 30
0.0
 11
0.0
 21
-11.509375000002212
 31
0.0
210
0.0
220
0.0
230
1.0
 40
0.310345
 41
4.6217413648330634
 42
4.8058367479906652
  0
ELLIPSE
  5
11A
102
{ACAD_REACTORS
330
FF
102
}
100
AcDbEntity
  8
0
  6
CONTINUOUS
 62
     7
100
AcDbEllipse
 10
164.928148
 20
174.724219
 30
0.0
 11
9.1081515513620577
 21
-5.2585937499989361
 31
0.0
210
0.0
220
0.0
230
1.0
 40
0.264151
 41
-1.9775814566673422
 42
-1.7955982008659888
  0
ELLIPSE
  5
11B
102
{ACAD_REACTORS
330
FF
102
}
100
AcDbEntity
  8
0
  6
CONTINUOUS
 62
     7
100
AcDbEllipse
 10
165.271852
 20
174.724219
 30
0.0
 11
-9.1081515513617344
 21
-5.258593749998405
 31
0.0
210
0.0
220
0.0
230
1.0
 40
0.264151
 41
-1.3054427885293887
 42
-1.1193968666300955
  0
ELLIPSE
  5
11C
102
{ACAD_REACTORS
330
FF
102
}
100
AcDbEntity
  8
0
  6
CONTINUOUS
 62
     7
100
AcDbEllipse
 10
165.1
 20
174.625
 30
0.0
 11
9.9674111316977054
 21
-5.7546875000094948
 31
0.0
210
0.0
220
0.0
230
1.0
 40
0.310345
 41
-1.9865122292883879
 42
-1.7480926280683355
  0
ELLIPSE
  5
11D
102
{ACAD_REACTORS
330
FF
102
}
100
AcDbEntity
  8
0
  6
CONTINUOUS
 62
     7
100
AcDbEllipse
 10
165.1
 20
174.625
 30
0.0
 11
0.0
 21
-11.50937499999857
 31
0.0
210
0.0
220
0.0
230
1.0
 40
0.310345
 41
4.8896852816580001
 42
5.1281048828785796
  0
ELLIPSE
  5
11E
102
{ACAD_REACTORS
330
FF
102
}
100
AcDbEntity
  8
0
  6
CONTINUOUS
 62
     7
100
AcDbEllipse
 10
165.271852
 20
174.724219
 30
0.0
 11
-9.108151551363969
 21
-5.2585937499996955
 31
0.0
210
0.0
220
0.0
230
1.0
 40
0.264151
 41
-1.0368777562387852
 42
1.036877756238749
  0
ELLIPSE
  5
11F
102
{ACAD_REACTORS
330
FF
102
}
100
AcDbEntity
  8
0
  6
CONTINUOUS
 62
     7
100
AcDbEllipse
 10
165.1
 20
174.625
 30
0.0
 11
-9.9674111316736145
 21
-5.7546874999952147
 31
0.0
210
0.0
220
0.0
230
1.0
 40
0.310345
 41
1.1494113340416658
 42
1.3935000255217143
  0
ELLIPSE
  5
120
102
{ACAD_REACTORS
330
FF
102
}
100
AcDbEntity
  8
0
  6
CONTINUOUS
 62
     7
100
AcDbEllipse
 10
165.1
 20
174.625
 30
0.0
 11
9.9674111316743375
 21
-5.7546874999960007
 31
0.0
210
0.0
220
0.0
230
1.0
 40
0.310345
 41
-1.3935000255214709
 42
-1.1494113340415655
  0
ELLIPSE
  5
121
102
{ACAD_REACTORS
330
FF
102
}
100
AcDbEntity
  8
0
  6
CONTINUOUS
 62
     7
100
AcDbEllipse
 10
165.1
 20
174.426562
 30
0.0
 11
0.0
 21
-10.517187499995789
 31
0.0
210
0.0
220
0.0
230
1.0
 40
0.264151
 41
0.7702478302470381
 42
1.0777278711452458
  0
ARC
  5
122
102
{ACAD_REACTORS
330
FF
102
}
100
AcDbEntity
  8
0
  6
CONTINUOUS
 62
     7
100
AcDbCircle
 10
166.885938
 20
165.496875
 30
0.0
 40
1.389063
100
AcDbArc
 50
83.862664
 51
229.111797
  0
ELLIPSE
  5
123
102
{ACAD_REACTORS
330
FF
102
}
100
AcDbEntity
  8
0
  6
CONTINUOUS
 62
     7
100
AcDbEllipse
 10
165.1
 20
174.426562
 30
0.0
 11
0.0
 21
-10.517187500000048
 31
0.0
210
0.0
220
0.0
230
1.0
 40
0.264151
 41
5.2054574360344885
 42
0.3210515522192456
  0
ELLIPSE
  5
124
102
{ACAD_REACTORS
330
FF
102
}
100
AcDbEntity
  8
0
  6
CONTINUOUS
 62
     7
100
AcDbEllipse
 10
165.1
 20
174.426563
 30
0.0
 11
0.0
 21
-10.517187500007012
 31
0.0
210
0.0
220
0.0
230
1.0
 40
0.264151
 41
4.9371908544559666
 42
5.1191741102573092
  0
ELLIPSE
  5
125
102
{ACAD_REACTORS
330
FF
102
}
100
AcDbEntity
  8
0
  6
CONTINUOUS
 62
     7
100
AcDbEllipse
 10
165.1
 20
174.625
 30
0.0
 11
9.9674111317041945
 21
-5.7546875000132411
 31
0.0
210
0.0
220
0.0
230
1.0
 40
0.310345
 41
-1.6642440944007206
 42
-1.4801487112433986
  0
ELLIPSE
  5
126
102
{ACAD_REACTORS
330
FF
102
}
100
AcDbEntity
  8
0
  6
CONTINUOUS
 62
     7
100
AcDbEllipse
 10
165.271852
 20
174.724219
 30
0.0
 11
-9.1081515513725897
 21
-5.258593750004672
 31
0.0
210
0.0
220
0.0
230
1.0
 40
0.264151
 41
1.1193968666301892
 42
1.3054427885293982
  0
ELLIPSE
  5
127
102
{ACAD_REACTORS
330
FF
102
}
100
AcDbEntity
  8
0
  6
CONTINUOUS
 62
     7
100
AcDbEllipse
 10
165.1
 20
174.625
 30
0.0
 11
-9.9674111317135239
 21
-5.7546875000182558
 31
0.0
210
0.0
220
0.0
230
1.0
 40
0.310345
 41
1.4801487112437024
 42
1.664244094400704
  0
ELLIPSE
  5
128
102
{ACAD_REACTORS
330
FF
102
}
100
AcDbEntity
  8
0
  6
CONTINUOUS
 62
     7
100
AcDbEllipse
 10
165.1
 20
174.426563
 30
0.0
 11
0.0
 21
-10.517187500048795
 31
0.0
210
0.0
220
0.0
230
1.0
 40
0.264151
 41
1.1640111969228464
 42
1.3459944527233134
  0
ELLIPSE
  5
129
102
{ACAD_REACTORS
330
FF
102
}
100
AcDbEntity
  8
0
  6
CONTINUOUS
 62
     7
100
AcDbEllipse
 10
164.928148
 20
174.724219
 30
0.0
 11
9.1081515513999474
 21
-5.2585937500208093
 31
0.0
210
0.0
220
0.0
230
1.0
 40
0.264151
 41
-1.3054427885291369
 42
-1.1193968666306431
  0
ELLIPSE
  5
12A
102
{ACAD_REACTORS
330
FF
102
}
100
AcDbEntity
  8
0
  6
CONTINUOUS
 62
     7
100
AcDbEllipse
 10
165.1
 20
174.625
 30
0.0
 11
-9.9674111316809331
 21
-5.7546874999994397
 31
0.0
210
0.0
220
0.0
230
1.0
 40
0.310345
 41
1.7480926280681777
 42
1.9865122292887611
  0
ELLIPSE
  5
12B
102
{ACAD_REACTORS
330
FF
102
}
100
AcDbEntity
  8
0
  6
CONTINUOUS
 62
     7
100
AcDbEllipse
 10
164.928148
 20
174.724219
 30
0.0
 11
9.1081515513640827
 21
-5.2585937500001023
 31
0.0
210
0.0
220
0.0
230
1.0
 40
0.264151
 41
-1.0368777562387521
 42
1.0368777562386886
  0
ELLIPSE
  5
12C
102
{ACAD_REACTORS
330
FF
102
}
100
AcDbEntity
  8
0
  6
CONTINUOUS
 62
     7
100
AcDbEllipse
 10
165.1
 20
174.625
 30
0.0
 11
0.0
 21
-11.509375000003008
 31
0.0
210
0.0
220
0.0
230
1.0
 40
0.310345
 41
1.155080424301145
 42
1.3935000255215106
  0
ELLIPSE
  5
12D
102
{ACAD_REACTORS
330
FF
102
}
100
AcDbEntity
  8
0
  6
CONTINUOUS
 62
     7
100
AcDbEllipse
 10
165.1
 20
174.625
 30
0.0
 11
0.0
 21
-11.509374999999009
 31
0.0
210
0.0
220
0.0
230
1.0
 40
0.310345
 41
1.4773485591888367
 42
1.661443942346593
  0
ELLIPSE
  5
12E
102
{ACAD_REACTORS
330
FF
102
}
100
AcDbEntity
  8
0
  6
CONTINUOUS
 62
     7
100
AcDbEllipse
 10
164.928148
 20
174.724219
 30
0.0
 11
9.1081515513558298
 21
-5.2585937499953426
 31
0.0
210
0.0
220
0.0
230
1.0
 40
0.264151
 41
1.1193968666301726
 42
1.3054427885297117
  0
ELLIPSE
  5
12F
102
{ACAD_REACTORS
330
FF
102
}
100
AcDbEntity
  8
0
  6
CONTINUOUS
 62
     7
100
AcDbEllipse
 10
165.271852
 20
174.724219
 30
0.0
 11
-9.1081515513663849
 21
-5.25859375000109
 31
0.0
210
0.0
220
0.0
230
1.0
 40
0.264151
 41
1.7955982008662306
 42
1.9775814566676628
  0
LWPOLYLINE
  5
130
102
{ACAD_REACTORS
330
131
102
}
100
AcDbEntity
  8
0
  6
CONTINUOUS
 62
     7
100
AcDbPolyline
 90
        9
 70
     1
 10
157.95625
 20
150.01875
 10
174.823437
 20
150.01875
 10
174.823437
 20
157.212491
 42
5.653761
 10
172.442187
 20
157.140027
 10
172.442187
 20
152.4
 10
157.95625
 20
152.4
 10
157.95625
 20
165.1
 10
155.575
 20
165.1
 10
155.575
 20
150.01875
  0
HATCH
  5
131
102
{ACAD_REACTORS
330
E9
102
}
100
AcDbEntity
  8
0
 62
     7
100
AcDbHatch
 10
0.0
 20
0.0
 30
0.0
210
0.0
220
0.0
230
1.0
  2
SOLID
 70
     1
 71
     1
 91
        2
 92
        3
 72
     1
 73
     1
 93
        9
 10
157.95624999999995
 20
150.01874999999998
 42
0.0
 10
174.82343749999995
 20
150.01874999999998
 42
0.0
 10
174.82343749999995
 20
157.2124910081601
 42
5.6537608397605865
 10
172.44218749999993
 20
157.14002740440441
 42
0.0
 10
172.44218749999993
 20
152.39999999999998
 42
0.0
 10
157.95624999999995
 20
152.39999999999998
 42
0.0
 10
157.95624999999995
 20
165.10000000000002
 42
0.0
 10
155.57499999999996
 20
165.10000000000002
 42
0.0
 10
155.57499999999996
 20
150.01874999999998
 42
0.0
 97
        1
330
130
 92
        1
 93
        1
 72
     2
 10
173.53359374999994
 20
160.33750000000003
 40
1.8851562499999999
 50
0.0
 51
360.0
 73
     0
 97
        1
330
132
 75
     0
 76
     1
 98
        0
  0
CIRCLE
  5
132
102
{ACAD_REACTORS
330
131
102
}
100
AcDbEntity
  8
0
  6
CONTINUOUS
 62
     7
100
AcDbCircle
 10
173.533594
 20
160.3375
 30
0.0
 40
1.885156
  0
LWPOLYLINE
  5
133
102
{ACAD_REACTORS
330
134
102
}
100
AcDbEntity
  8
0
  6
CONTINUOUS
 62
     7
100
AcDbPolyline
 90
        2
 70
     1
 10
163.5125
 20
174.625
 42
1.0
 10
166.6875
 20
174.625
 42
1.0
  0
HATCH
  5
134
102
{ACAD_REACTORS
330
E9
102
}
100
AcDbEntity
  8
0
 62
     7
100
AcDbHatch
 10
0.0
 20
0.0
 30
0.0
210
0.0
220
0.0
230
1.0
  2
SOLID
 70
     1
 71
     1
 91
        1
 92
        3
 72
     1
 73
     1
 93
        2
 10
163.51249999999999
 20
174.625
 42
0.9999999999997796
 10
166.6875
 20
174.625
 42
1.0000000000000071
 97
        1
330
133
 75
     0
 76
     1
 98
        0
  0
LWPOLYLINE
  5
135
102
{ACAD_REACTORS
330
136
102
}
100
AcDbEntity
  8
0
  6
CONTINUOUS
 62
     7
100
AcDbPolyline
 90
        9
 70
     1
 10
190.5
 20
167.48125
 10
190.5
 20
184.348437
 10
183.306259
 20
184.348437
 42
5.653761
 10
183.378723
 20
181.967187
 10
188.11875
 20
181.967187
 10
188.11875
 20
167.48125
 10
175.41875
 20
167.48125
 10
175.41875
 20
165.1
 10
190.5
 20
165.1
  0
HATCH
  5
136
102
{ACAD_REACTORS
330
E9
102
}
100
AcDbEntity
  8
0
 62
     7
100
AcDbHatch
 10
0.0
 20
0.0
 30
0.0
210
0.0
220
0.0
230
1.0
  2
SOLID
 70
     1
 71
     1
 91
        2
 92
        3
 72
     1
 73
     1
 93
        9
 10
190.5
 20
167.48124999999996
 42
0.0
 10
190.5
 20
184.34843749999996
 42
0.0
 10
183.30625899183994
 20
184.34843749999993
 42
5.6537608397605936
 10
183.3787225955956
 20
181.96718749999997
 42
0.0
 10
188.11875000000003
 20
181.96718749999997
 42
0.0
 10
188.11875000000001
 20
167.48124999999996
 42
0.0
 10
175.41874999999999
 20
167.48124999999996
 42
0.0
 10
175.41874999999999
 20
165.09999999999997
 42
0.0
 10
190.5
 20
165.09999999999997
 42
0.0
 97
        1
330
135
 92
        1
 93
        1
 72
     2
 10
180.18124999999998
 20
183.05859374999997
 40
1.8851562499999999
 50
0.0
 51
360.0
 73
     0
 97
        1
330
137
 75
     0
 76
     1
 98
        0
  0
CIRCLE
  5
137
102
{ACAD_REACTORS
330
136
102
}
100
AcDbEntity
  8
0
  6
CONTINUOUS
 62
     7
100
AcDbCircle
 10
180.18125
 20
183.058594
 30
0.0
 40
1.885156
  0
CIRCLE
  5
138
102
{ACAD_REACTORS
330
E9
102
}
100
AcDbEntity
  8
0
  6
CONTINUOUS
 62
    10
100
AcDbCircle
 10
165.1
 20
174.625
 30
0.0
 40
47.625
  0
ENDSEC
  0
SECTION
  2
OBJECTS
  0
DICTIONARY
  5
C
100
AcDbDictionary
  3
ACAD_GROUP
350
D
  3
ACAD_MLINESTYLE
350
1B
  0
DICTIONARY
  5
D
102
{ACAD_REACTORS
330
C
102
}
100
AcDbDictionary
  3
VISIOGROUP_0
350
33
  3
VISIOGROUP_1
350
6E
  3
VISIOGROUP_2
350
AA
  3
VISIOGROUP_3
350
E9
  0
DICTIONARY
  5
1B
102
{ACAD_REACTORS
330
C
102
}
100
AcDbDictionary
  3
STANDARD
350
1C
  0
MLINESTYLE
  5
1C
102
{ACAD_REACTORS
330
1B
102
}
100
AcDbMlineStyle
  2
STANDARD
 70
     0
  3

 62
   256
 51
90.0
 52
90.0
 71
     2
 49
0.5
 62
   256
  6
BYLAYER
 49
-0.5
 62
   256
  6
BYLAYER
  0
GROUP
  5
33
102
{ACAD_REACTORS
330
D
102
}
100
AcDbGroup
300
Group created by Visio.
 70
     0
 71
     1
340
34
340
35
340
36
340
37
340
38
340
39
340
3A
340
3B
340
3C
340
3D
340
3E
340
3F
340
40
340
41
340
42
340
43
340
44
340
45
340
46
340
47
340
48
340
49
340
4A
340
4B
340
4C
340
4D
340
4E
340
4F
340
50
340
51
340
52
340
53
340
54
340
55
340
56
340
57
340
58
340
59
340
5A
340
5C
340
5D
340
5E
340
5F
340
60
340
61
340
62
340
63
340
64
340
65
340
66
340
67
340
68
340
69
340
6A
340
6B
340
6C
340
5B
340
6D
  0
GROUP
  5
6E
102
{ACAD_REACTORS
330
D
102
}
100
AcDbGroup
300
Group created by Visio.
 70
     0
 71
     1
340
6F
340
71
340
70
340
72
340
73
340
74
340
75
340
76
340
77
340
78
340
79
340
7A
340
7B
340
7C
340
7D
340
7E
340
7F
340
80
340
81
340
82
340
83
340
84
340
85
340
86
340
87
340
88
340
89
340
8A
340
8B
340
8C
340
8D
340
8E
340
8F
340
90
340
91
340
93
340
94
340
95
340
96
340
97
340
98
340
99
340
9A
340
9B
340
9C
340
9D
340
9E
340
9F
340
A0
340
A1
340
A2
340
A3
340
A4
340
A5
340
A6
340
A7
340
A8
340
92
340
A9
  0
GROUP
  5
AA
102
{ACAD_REACTORS
330
D
102
}
100
AcDbGroup
300
Group created by Visio.
 70
     0
 71
     1
340
AB
340
AC
340
AD
340
AE
340
AF
340
B0
340
B2
340
B3
340
B4
340
B5
340
B6
340
B7
340
B8
340
B9
340
BA
340
BB
340
BC
340
BD
340
BE
340
BF
340
C0
340
C1
340
C2
340
C3
340
C4
340
C5
340
C6
340
C7
340
C8
340
C9
340
CA
340
CB
340
CC
340
CD
340
CE
340
CF
340
D0
340
D1
340
D2
340
D3
340
D4
340
D5
340
D6
340
D7
340
D8
340
D9
340
DA
340
DB
340
DC
340
DD
340
DE
340
DF
340
E0
340
E1
340
E2
340
E3
340
E4
340
E5
340
E6
340
E7
340
B1
340
E8
  0
GROUP
  5
E9
102
{ACAD_REACTORS
330
D
102
}
100
AcDbGroup
300
Group created by Visio.
 70
     0
 71
     1
340
EA
340
EC
340
EB
340
ED
340
EF
340
EE
340
F0
340
F2
340
F1
340
F3
340
F4
340
F5
340
F6
340
F7
340
F8
340
F9
340
FA
340
FB
340
FC
340
FD
340
FE
340
100
340
101
340
102
340
103
340
104
340
105
340
106
340
107
340
108
340
109
340
10A
340
10B
340
10C
340
10D
340
10E
340
10F
340
110
340
111
340
112
340
113
340
114
340
115
340
116
340
117
340
118
340
119
340
11A
340
11B
340
11C
340
11D
340
11E
340
11F
340
120
340
121
340
122
340
123
340
124
340
125
340
126
340
127
340
128
340
129
340
12A
340
12B
340
12C
340
12D
340
12E
340
12F
340
FF
340
130
340
132
340
131
340
133
340
134
340
135
340
137
340
136
340
138
  0
ENDSEC
  0
EOF
