ISO-10303-21;
HEADER;
/* Generated by software containing ST-Developer
 * from STEP Tools, Inc. (www.steptools.com) 
 */

FILE_DESCRIPTION(
/* description */ (''),
/* implementation_level */ '2;1');

FILE_NAME(
/* name */ 
'C:\\Users\\Mark\\Desktop\\Inventor Projects\\Burr_Puzzle\\Part2.stp',
/* time_stamp */ '2018-12-15T12:18:53-05:00',
/* author */ ('Mark'),
/* organization */ (''),
/* preprocessor_version */ 'ST-DEVELOPER v16.1',
/* originating_system */ 'Autodesk Inventor 2016',
/* authorisation */ '');

FILE_SCHEMA (('AUTOMOTIVE_DESIGN { 1 0 10303 214 3 1 1 }'));
ENDSEC;

DATA;
#10=MECHANICAL_DESIGN_GEOMETRIC_PRESENTATION_REPRESENTATION('',(#13),#553);
#11=SHAPE_REPRESENTATION_RELATIONSHIP('SRR','None',#565,#12);
#12=ADVANCED_BREP_SHAPE_REPRESENTATION('',(#14),#552);
#13=STYLED_ITEM('',(#574),#14);
#14=MANIFOLD_SOLID_BREP('Solid1',#331);
#15=FACE_BOUND('',#68,.T.);
#16=FACE_BOUND('',#72,.T.);
#17=FACE_BOUND('',#74,.T.);
#18=CIRCLE('',#356,0.1825);
#19=CIRCLE('',#357,0.1825);
#20=PLANE('',#341);
#21=PLANE('',#342);
#22=PLANE('',#343);
#23=PLANE('',#352);
#24=PLANE('',#353);
#25=PLANE('',#354);
#26=PLANE('',#358);
#27=PLANE('',#359);
#28=PLANE('',#360);
#29=PLANE('',#361);
#30=PLANE('',#362);
#31=PLANE('',#363);
#32=FACE_OUTER_BOUND('',#53,.T.);
#33=FACE_OUTER_BOUND('',#54,.T.);
#34=FACE_OUTER_BOUND('',#55,.T.);
#35=FACE_OUTER_BOUND('',#56,.T.);
#36=FACE_OUTER_BOUND('',#57,.T.);
#37=FACE_OUTER_BOUND('',#58,.T.);
#38=FACE_OUTER_BOUND('',#59,.T.);
#39=FACE_OUTER_BOUND('',#60,.T.);
#40=FACE_OUTER_BOUND('',#61,.T.);
#41=FACE_OUTER_BOUND('',#62,.T.);
#42=FACE_OUTER_BOUND('',#63,.T.);
#43=FACE_OUTER_BOUND('',#64,.T.);
#44=FACE_OUTER_BOUND('',#65,.T.);
#45=FACE_OUTER_BOUND('',#66,.T.);
#46=FACE_OUTER_BOUND('',#67,.T.);
#47=FACE_OUTER_BOUND('',#69,.T.);
#48=FACE_OUTER_BOUND('',#70,.T.);
#49=FACE_OUTER_BOUND('',#71,.T.);
#50=FACE_OUTER_BOUND('',#73,.T.);
#51=FACE_OUTER_BOUND('',#75,.T.);
#52=FACE_OUTER_BOUND('',#76,.T.);
#53=EDGE_LOOP('',(#217,#218,#219,#220));
#54=EDGE_LOOP('',(#221,#222,#223,#224));
#55=EDGE_LOOP('',(#225,#226,#227,#228));
#56=EDGE_LOOP('',(#229,#230,#231,#232));
#57=EDGE_LOOP('',(#233,#234,#235,#236));
#58=EDGE_LOOP('',(#237,#238,#239,#240));
#59=EDGE_LOOP('',(#241,#242,#243,#244));
#60=EDGE_LOOP('',(#245,#246,#247,#248));
#61=EDGE_LOOP('',(#249,#250,#251,#252));
#62=EDGE_LOOP('',(#253,#254,#255,#256));
#63=EDGE_LOOP('',(#257,#258,#259,#260));
#64=EDGE_LOOP('',(#261,#262,#263,#264));
#65=EDGE_LOOP('',(#265,#266,#267,#268));
#66=EDGE_LOOP('',(#269,#270,#271,#272));
#67=EDGE_LOOP('',(#273));
#68=EDGE_LOOP('',(#274));
#69=EDGE_LOOP('',(#275,#276,#277,#278));
#70=EDGE_LOOP('',(#279,#280,#281,#282));
#71=EDGE_LOOP('',(#283,#284,#285,#286));
#72=EDGE_LOOP('',(#287));
#73=EDGE_LOOP('',(#288,#289,#290,#291));
#74=EDGE_LOOP('',(#292));
#75=EDGE_LOOP('',(#293,#294,#295,#296));
#76=EDGE_LOOP('',(#297,#298,#299,#300));
#77=ELLIPSE('',#334,0.265165042944955,0.1875);
#78=ELLIPSE('',#335,0.265165042944955,0.1875);
#79=ELLIPSE('',#337,0.265165042944955,0.1875);
#80=ELLIPSE('',#339,0.265165042944955,0.1875);
#81=ELLIPSE('',#345,0.265165042944955,0.1875);
#82=ELLIPSE('',#346,0.265165042944955,0.1875);
#83=ELLIPSE('',#348,0.265165042944955,0.1875);
#84=ELLIPSE('',#350,0.265165042944955,0.1875);
#85=LINE('',#464,#117);
#86=LINE('',#468,#118);
#87=LINE('',#472,#119);
#88=LINE('',#475,#120);
#89=LINE('',#478,#121);
#90=LINE('',#481,#122);
#91=LINE('',#483,#123);
#92=LINE('',#484,#124);
#93=LINE('',#487,#125);
#94=LINE('',#489,#126);
#95=LINE('',#490,#127);
#96=LINE('',#493,#128);
#97=LINE('',#494,#129);
#98=LINE('',#499,#130);
#99=LINE('',#503,#131);
#100=LINE('',#507,#132);
#101=LINE('',#509,#133);
#102=LINE('',#513,#134);
#103=LINE('',#515,#135);
#104=LINE('',#518,#136);
#105=LINE('',#519,#137);
#106=LINE('',#522,#138);
#107=LINE('',#524,#139);
#108=LINE('',#525,#140);
#109=LINE('',#528,#141);
#110=LINE('',#529,#142);
#111=LINE('',#538,#143);
#112=LINE('',#539,#144);
#113=LINE('',#541,#145);
#114=LINE('',#545,#146);
#115=LINE('',#546,#147);
#116=LINE('',#548,#148);
#117=VECTOR('',#368,0.375);
#118=VECTOR('',#371,0.75);
#119=VECTOR('',#376,0.375);
#120=VECTOR('',#379,0.75);
#121=VECTOR('',#382,0.375);
#122=VECTOR('',#385,0.75);
#123=VECTOR('',#388,0.75);
#124=VECTOR('',#389,0.375);
#125=VECTOR('',#392,0.5575);
#126=VECTOR('',#393,0.75);
#127=VECTOR('',#394,0.5575);
#128=VECTOR('',#397,0.5575);
#129=VECTOR('',#398,0.75);
#130=VECTOR('',#403,0.75);
#131=VECTOR('',#406,0.375);
#132=VECTOR('',#411,0.375);
#133=VECTOR('',#412,0.75);
#134=VECTOR('',#417,0.75);
#135=VECTOR('',#418,0.375);
#136=VECTOR('',#423,0.75);
#137=VECTOR('',#424,0.375);
#138=VECTOR('',#427,0.5575);
#139=VECTOR('',#428,0.75);
#140=VECTOR('',#429,0.5575);
#141=VECTOR('',#432,0.5575);
#142=VECTOR('',#433,0.75);
#143=VECTOR('',#444,0.5575);
#144=VECTOR('',#445,0.75);
#145=VECTOR('',#448,0.75);
#146=VECTOR('',#453,0.75);
#147=VECTOR('',#454,0.75);
#148=VECTOR('',#457,0.5575);
#149=VERTEX_POINT('',#462);
#150=VERTEX_POINT('',#463);
#151=VERTEX_POINT('',#465);
#152=VERTEX_POINT('',#467);
#153=VERTEX_POINT('',#471);
#154=VERTEX_POINT('',#473);
#155=VERTEX_POINT('',#477);
#156=VERTEX_POINT('',#479);
#157=VERTEX_POINT('',#486);
#158=VERTEX_POINT('',#488);
#159=VERTEX_POINT('',#492);
#160=VERTEX_POINT('',#497);
#161=VERTEX_POINT('',#498);
#162=VERTEX_POINT('',#500);
#163=VERTEX_POINT('',#502);
#164=VERTEX_POINT('',#506);
#165=VERTEX_POINT('',#508);
#166=VERTEX_POINT('',#512);
#167=VERTEX_POINT('',#514);
#168=VERTEX_POINT('',#521);
#169=VERTEX_POINT('',#523);
#170=VERTEX_POINT('',#527);
#171=VERTEX_POINT('',#532);
#172=VERTEX_POINT('',#534);
#173=VERTEX_POINT('',#537);
#174=VERTEX_POINT('',#544);
#175=EDGE_CURVE('',#149,#150,#85,.T.);
#176=EDGE_CURVE('',#150,#151,#77,.T.);
#177=EDGE_CURVE('',#151,#152,#86,.T.);
#178=EDGE_CURVE('',#149,#152,#78,.T.);
#179=EDGE_CURVE('',#150,#153,#87,.T.);
#180=EDGE_CURVE('',#153,#154,#79,.T.);
#181=EDGE_CURVE('',#154,#151,#88,.T.);
#182=EDGE_CURVE('',#153,#155,#89,.T.);
#183=EDGE_CURVE('',#155,#156,#80,.T.);
#184=EDGE_CURVE('',#156,#154,#90,.T.);
#185=EDGE_CURVE('',#152,#156,#91,.T.);
#186=EDGE_CURVE('',#155,#149,#92,.T.);
#187=EDGE_CURVE('',#157,#152,#93,.T.);
#188=EDGE_CURVE('',#157,#158,#94,.T.);
#189=EDGE_CURVE('',#158,#156,#95,.T.);
#190=EDGE_CURVE('',#159,#151,#96,.T.);
#191=EDGE_CURVE('',#159,#157,#97,.T.);
#192=EDGE_CURVE('',#160,#161,#98,.T.);
#193=EDGE_CURVE('',#161,#162,#81,.T.);
#194=EDGE_CURVE('',#162,#163,#99,.T.);
#195=EDGE_CURVE('',#163,#160,#82,.T.);
#196=EDGE_CURVE('',#164,#162,#100,.T.);
#197=EDGE_CURVE('',#161,#165,#101,.T.);
#198=EDGE_CURVE('',#164,#165,#83,.T.);
#199=EDGE_CURVE('',#166,#160,#102,.T.);
#200=EDGE_CURVE('',#163,#167,#103,.T.);
#201=EDGE_CURVE('',#167,#166,#84,.T.);
#202=EDGE_CURVE('',#165,#166,#104,.T.);
#203=EDGE_CURVE('',#167,#164,#105,.T.);
#204=EDGE_CURVE('',#161,#168,#106,.T.);
#205=EDGE_CURVE('',#168,#169,#107,.T.);
#206=EDGE_CURVE('',#165,#169,#108,.T.);
#207=EDGE_CURVE('',#160,#170,#109,.T.);
#208=EDGE_CURVE('',#170,#168,#110,.T.);
#209=EDGE_CURVE('',#171,#171,#18,.T.);
#210=EDGE_CURVE('',#172,#172,#19,.T.);
#211=EDGE_CURVE('',#166,#173,#111,.T.);
#212=EDGE_CURVE('',#173,#170,#112,.T.);
#213=EDGE_CURVE('',#169,#173,#113,.T.);
#214=EDGE_CURVE('',#174,#159,#114,.T.);
#215=EDGE_CURVE('',#158,#174,#115,.T.);
#216=EDGE_CURVE('',#174,#154,#116,.T.);
#217=ORIENTED_EDGE('',*,*,#175,.T.);
#218=ORIENTED_EDGE('',*,*,#176,.T.);
#219=ORIENTED_EDGE('',*,*,#177,.T.);
#220=ORIENTED_EDGE('',*,*,#178,.F.);
#221=ORIENTED_EDGE('',*,*,#179,.T.);
#222=ORIENTED_EDGE('',*,*,#180,.T.);
#223=ORIENTED_EDGE('',*,*,#181,.T.);
#224=ORIENTED_EDGE('',*,*,#176,.F.);
#225=ORIENTED_EDGE('',*,*,#182,.T.);
#226=ORIENTED_EDGE('',*,*,#183,.T.);
#227=ORIENTED_EDGE('',*,*,#184,.T.);
#228=ORIENTED_EDGE('',*,*,#180,.F.);
#229=ORIENTED_EDGE('',*,*,#185,.T.);
#230=ORIENTED_EDGE('',*,*,#183,.F.);
#231=ORIENTED_EDGE('',*,*,#186,.T.);
#232=ORIENTED_EDGE('',*,*,#178,.T.);
#233=ORIENTED_EDGE('',*,*,#185,.F.);
#234=ORIENTED_EDGE('',*,*,#187,.F.);
#235=ORIENTED_EDGE('',*,*,#188,.T.);
#236=ORIENTED_EDGE('',*,*,#189,.T.);
#237=ORIENTED_EDGE('',*,*,#177,.F.);
#238=ORIENTED_EDGE('',*,*,#190,.F.);
#239=ORIENTED_EDGE('',*,*,#191,.T.);
#240=ORIENTED_EDGE('',*,*,#187,.T.);
#241=ORIENTED_EDGE('',*,*,#175,.F.);
#242=ORIENTED_EDGE('',*,*,#186,.F.);
#243=ORIENTED_EDGE('',*,*,#182,.F.);
#244=ORIENTED_EDGE('',*,*,#179,.F.);
#245=ORIENTED_EDGE('',*,*,#192,.T.);
#246=ORIENTED_EDGE('',*,*,#193,.T.);
#247=ORIENTED_EDGE('',*,*,#194,.T.);
#248=ORIENTED_EDGE('',*,*,#195,.T.);
#249=ORIENTED_EDGE('',*,*,#196,.T.);
#250=ORIENTED_EDGE('',*,*,#193,.F.);
#251=ORIENTED_EDGE('',*,*,#197,.T.);
#252=ORIENTED_EDGE('',*,*,#198,.F.);
#253=ORIENTED_EDGE('',*,*,#199,.T.);
#254=ORIENTED_EDGE('',*,*,#195,.F.);
#255=ORIENTED_EDGE('',*,*,#200,.T.);
#256=ORIENTED_EDGE('',*,*,#201,.T.);
#257=ORIENTED_EDGE('',*,*,#202,.T.);
#258=ORIENTED_EDGE('',*,*,#201,.F.);
#259=ORIENTED_EDGE('',*,*,#203,.T.);
#260=ORIENTED_EDGE('',*,*,#198,.T.);
#261=ORIENTED_EDGE('',*,*,#197,.F.);
#262=ORIENTED_EDGE('',*,*,#204,.T.);
#263=ORIENTED_EDGE('',*,*,#205,.T.);
#264=ORIENTED_EDGE('',*,*,#206,.F.);
#265=ORIENTED_EDGE('',*,*,#192,.F.);
#266=ORIENTED_EDGE('',*,*,#207,.T.);
#267=ORIENTED_EDGE('',*,*,#208,.T.);
#268=ORIENTED_EDGE('',*,*,#204,.F.);
#269=ORIENTED_EDGE('',*,*,#194,.F.);
#270=ORIENTED_EDGE('',*,*,#196,.F.);
#271=ORIENTED_EDGE('',*,*,#203,.F.);
#272=ORIENTED_EDGE('',*,*,#200,.F.);
#273=ORIENTED_EDGE('',*,*,#209,.F.);
#274=ORIENTED_EDGE('',*,*,#210,.F.);
#275=ORIENTED_EDGE('',*,*,#199,.F.);
#276=ORIENTED_EDGE('',*,*,#211,.T.);
#277=ORIENTED_EDGE('',*,*,#212,.T.);
#278=ORIENTED_EDGE('',*,*,#207,.F.);
#279=ORIENTED_EDGE('',*,*,#202,.F.);
#280=ORIENTED_EDGE('',*,*,#206,.T.);
#281=ORIENTED_EDGE('',*,*,#213,.T.);
#282=ORIENTED_EDGE('',*,*,#211,.F.);
#283=ORIENTED_EDGE('',*,*,#205,.F.);
#284=ORIENTED_EDGE('',*,*,#208,.F.);
#285=ORIENTED_EDGE('',*,*,#212,.F.);
#286=ORIENTED_EDGE('',*,*,#213,.F.);
#287=ORIENTED_EDGE('',*,*,#209,.T.);
#288=ORIENTED_EDGE('',*,*,#191,.F.);
#289=ORIENTED_EDGE('',*,*,#214,.F.);
#290=ORIENTED_EDGE('',*,*,#215,.F.);
#291=ORIENTED_EDGE('',*,*,#188,.F.);
#292=ORIENTED_EDGE('',*,*,#210,.T.);
#293=ORIENTED_EDGE('',*,*,#184,.F.);
#294=ORIENTED_EDGE('',*,*,#189,.F.);
#295=ORIENTED_EDGE('',*,*,#215,.T.);
#296=ORIENTED_EDGE('',*,*,#216,.T.);
#297=ORIENTED_EDGE('',*,*,#181,.F.);
#298=ORIENTED_EDGE('',*,*,#216,.F.);
#299=ORIENTED_EDGE('',*,*,#214,.T.);
#300=ORIENTED_EDGE('',*,*,#190,.T.);
#301=CYLINDRICAL_SURFACE('',#333,0.1875);
#302=CYLINDRICAL_SURFACE('',#336,0.1875);
#303=CYLINDRICAL_SURFACE('',#338,0.1875);
#304=CYLINDRICAL_SURFACE('',#340,0.1875);
#305=CYLINDRICAL_SURFACE('',#344,0.1875);
#306=CYLINDRICAL_SURFACE('',#347,0.1875);
#307=CYLINDRICAL_SURFACE('',#349,0.1875);
#308=CYLINDRICAL_SURFACE('',#351,0.1875);
#309=CYLINDRICAL_SURFACE('',#355,0.1825);
#310=ADVANCED_FACE('',(#32),#301,.T.);
#311=ADVANCED_FACE('',(#33),#302,.T.);
#312=ADVANCED_FACE('',(#34),#303,.T.);
#313=ADVANCED_FACE('',(#35),#304,.T.);
#314=ADVANCED_FACE('',(#36),#20,.T.);
#315=ADVANCED_FACE('',(#37),#21,.T.);
#316=ADVANCED_FACE('',(#38),#22,.T.);
#317=ADVANCED_FACE('',(#39),#305,.T.);
#318=ADVANCED_FACE('',(#40),#306,.T.);
#319=ADVANCED_FACE('',(#41),#307,.T.);
#320=ADVANCED_FACE('',(#42),#308,.T.);
#321=ADVANCED_FACE('',(#43),#23,.T.);
#322=ADVANCED_FACE('',(#44),#24,.T.);
#323=ADVANCED_FACE('',(#45),#25,.F.);
#324=ADVANCED_FACE('',(#46,#15),#309,.T.);
#325=ADVANCED_FACE('',(#47),#26,.T.);
#326=ADVANCED_FACE('',(#48),#27,.T.);
#327=ADVANCED_FACE('',(#49,#16),#28,.F.);
#328=ADVANCED_FACE('',(#50,#17),#29,.F.);
#329=ADVANCED_FACE('',(#51),#30,.T.);
#330=ADVANCED_FACE('',(#52),#31,.T.);
#331=CLOSED_SHELL('',(#310,#311,#312,#313,#314,#315,#316,#317,#318,#319,
#320,#321,#322,#323,#324,#325,#326,#327,#328,#329,#330));
#332=AXIS2_PLACEMENT_3D('placement',#460,#364,#365);
#333=AXIS2_PLACEMENT_3D('',#461,#366,#367);
#334=AXIS2_PLACEMENT_3D('',#466,#369,#370);
#335=AXIS2_PLACEMENT_3D('',#469,#372,#373);
#336=AXIS2_PLACEMENT_3D('',#470,#374,#375);
#337=AXIS2_PLACEMENT_3D('',#474,#377,#378);
#338=AXIS2_PLACEMENT_3D('',#476,#380,#381);
#339=AXIS2_PLACEMENT_3D('',#480,#383,#384);
#340=AXIS2_PLACEMENT_3D('',#482,#386,#387);
#341=AXIS2_PLACEMENT_3D('',#485,#390,#391);
#342=AXIS2_PLACEMENT_3D('',#491,#395,#396);
#343=AXIS2_PLACEMENT_3D('',#495,#399,#400);
#344=AXIS2_PLACEMENT_3D('',#496,#401,#402);
#345=AXIS2_PLACEMENT_3D('',#501,#404,#405);
#346=AXIS2_PLACEMENT_3D('',#504,#407,#408);
#347=AXIS2_PLACEMENT_3D('',#505,#409,#410);
#348=AXIS2_PLACEMENT_3D('',#510,#413,#414);
#349=AXIS2_PLACEMENT_3D('',#511,#415,#416);
#350=AXIS2_PLACEMENT_3D('',#516,#419,#420);
#351=AXIS2_PLACEMENT_3D('',#517,#421,#422);
#352=AXIS2_PLACEMENT_3D('',#520,#425,#426);
#353=AXIS2_PLACEMENT_3D('',#526,#430,#431);
#354=AXIS2_PLACEMENT_3D('',#530,#434,#435);
#355=AXIS2_PLACEMENT_3D('',#531,#436,#437);
#356=AXIS2_PLACEMENT_3D('',#533,#438,#439);
#357=AXIS2_PLACEMENT_3D('',#535,#440,#441);
#358=AXIS2_PLACEMENT_3D('',#536,#442,#443);
#359=AXIS2_PLACEMENT_3D('',#540,#446,#447);
#360=AXIS2_PLACEMENT_3D('',#542,#449,#450);
#361=AXIS2_PLACEMENT_3D('',#543,#451,#452);
#362=AXIS2_PLACEMENT_3D('',#547,#455,#456);
#363=AXIS2_PLACEMENT_3D('',#549,#458,#459);
#364=DIRECTION('axis',(0.,0.,1.));
#365=DIRECTION('refdir',(1.,0.,0.));
#366=DIRECTION('center_axis',(0.,-1.,0.));
#367=DIRECTION('ref_axis',(-0.707106781186547,0.,0.707106781186548));
#368=DIRECTION('',(0.,1.,0.));
#369=DIRECTION('center_axis',(-0.707106781186548,-0.707106781186547,8.24195516369435E-17));
#370=DIRECTION('ref_axis',(-0.707106781186548,0.707106781186548,8.24195516369435E-17));
#371=DIRECTION('',(0.,-1.,0.));
#372=DIRECTION('center_axis',(0.707106781186548,-0.707106781186548,8.24195516369435E-17));
#373=DIRECTION('ref_axis',(-0.707106781186548,-0.707106781186548,8.24195516369435E-17));
#374=DIRECTION('center_axis',(-1.,0.,0.));
#375=DIRECTION('ref_axis',(0.,0.707106781186547,0.707106781186548));
#376=DIRECTION('',(1.,0.,0.));
#377=DIRECTION('center_axis',(-0.707106781186548,0.707106781186548,0.));
#378=DIRECTION('ref_axis',(0.707106781186547,0.707106781186547,0.));
#379=DIRECTION('',(-1.,0.,0.));
#380=DIRECTION('center_axis',(0.,1.,0.));
#381=DIRECTION('ref_axis',(0.707106781186547,0.,0.707106781186548));
#382=DIRECTION('',(0.,-1.,0.));
#383=DIRECTION('center_axis',(0.707106781186547,0.707106781186548,0.));
#384=DIRECTION('ref_axis',(0.707106781186548,-0.707106781186547,0.));
#385=DIRECTION('',(0.,1.,0.));
#386=DIRECTION('center_axis',(1.,0.,0.));
#387=DIRECTION('ref_axis',(0.,-0.707106781186547,0.707106781186548));
#388=DIRECTION('',(1.,0.,0.));
#389=DIRECTION('',(-1.,0.,0.));
#390=DIRECTION('center_axis',(0.,-1.,0.));
#391=DIRECTION('ref_axis',(1.,0.,0.));
#392=DIRECTION('',(0.,0.,1.));
#393=DIRECTION('',(1.,0.,0.));
#394=DIRECTION('',(0.,0.,1.));
#395=DIRECTION('center_axis',(-1.,0.,0.));
#396=DIRECTION('ref_axis',(0.,-1.,0.));
#397=DIRECTION('',(0.,0.,1.));
#398=DIRECTION('',(0.,-1.,-2.3311769545935E-16));
#399=DIRECTION('center_axis',(0.,0.,1.));
#400=DIRECTION('ref_axis',(1.,0.,0.));
#401=DIRECTION('center_axis',(1.,0.,0.));
#402=DIRECTION('ref_axis',(0.,-0.707106781186548,-0.707106781186547));
#403=DIRECTION('',(-1.,0.,0.));
#404=DIRECTION('center_axis',(0.707106781186548,-0.707106781186548,0.));
#405=DIRECTION('ref_axis',(-0.707106781186548,-0.707106781186548,0.));
#406=DIRECTION('',(1.,0.,0.));
#407=DIRECTION('center_axis',(-0.707106781186548,-0.707106781186548,0.));
#408=DIRECTION('ref_axis',(-0.707106781186548,0.707106781186548,0.));
#409=DIRECTION('center_axis',(0.,-1.,0.));
#410=DIRECTION('ref_axis',(-0.707106781186548,0.,-0.707106781186547));
#411=DIRECTION('',(0.,-1.,0.));
#412=DIRECTION('',(0.,1.,0.));
#413=DIRECTION('center_axis',(0.707106781186548,0.707106781186548,0.));
#414=DIRECTION('ref_axis',(0.707106781186547,-0.707106781186547,0.));
#415=DIRECTION('center_axis',(0.,1.,0.));
#416=DIRECTION('ref_axis',(0.707106781186547,0.,-0.707106781186548));
#417=DIRECTION('',(0.,-1.,0.));
#418=DIRECTION('',(0.,1.,0.));
#419=DIRECTION('center_axis',(0.707106781186548,-0.707106781186548,0.));
#420=DIRECTION('ref_axis',(-0.707106781186547,-0.707106781186547,0.));
#421=DIRECTION('center_axis',(-1.,0.,0.));
#422=DIRECTION('ref_axis',(0.,0.707106781186547,-0.707106781186548));
#423=DIRECTION('',(1.,0.,0.));
#424=DIRECTION('',(-1.,0.,0.));
#425=DIRECTION('center_axis',(-1.,0.,0.));
#426=DIRECTION('ref_axis',(0.,-1.,0.));
#427=DIRECTION('',(0.,0.,1.));
#428=DIRECTION('',(0.,1.,0.));
#429=DIRECTION('',(0.,0.,1.));
#430=DIRECTION('center_axis',(0.,-1.,0.));
#431=DIRECTION('ref_axis',(1.,0.,0.));
#432=DIRECTION('',(0.,0.,1.));
#433=DIRECTION('',(-1.,0.,0.));
#434=DIRECTION('center_axis',(0.,0.,1.));
#435=DIRECTION('ref_axis',(1.,0.,0.));
#436=DIRECTION('center_axis',(0.,2.30050357361201E-16,-1.));
#437=DIRECTION('ref_axis',(1.,0.,0.));
#438=DIRECTION('center_axis',(0.,0.,-1.));
#439=DIRECTION('ref_axis',(1.,0.,0.));
#440=DIRECTION('center_axis',(0.,-2.3311769545935E-16,1.));
#441=DIRECTION('ref_axis',(1.,0.,0.));
#442=DIRECTION('center_axis',(1.,0.,0.));
#443=DIRECTION('ref_axis',(0.,1.,0.));
#444=DIRECTION('',(0.,0.,1.));
#445=DIRECTION('',(0.,-1.,0.));
#446=DIRECTION('center_axis',(0.,1.,0.));
#447=DIRECTION('ref_axis',(-1.,0.,0.));
#448=DIRECTION('',(1.,0.,0.));
#449=DIRECTION('center_axis',(0.,0.,-1.));
#450=DIRECTION('ref_axis',(0.,-1.,0.));
#451=DIRECTION('center_axis',(0.,-2.3311769545935E-16,1.));
#452=DIRECTION('ref_axis',(0.,1.,0.));
#453=DIRECTION('',(-1.,0.,0.));
#454=DIRECTION('',(0.,1.,2.3311769545935E-16));
#455=DIRECTION('center_axis',(1.,0.,0.));
#456=DIRECTION('ref_axis',(0.,1.,0.));
#457=DIRECTION('',(0.,0.,1.));
#458=DIRECTION('center_axis',(0.,1.,0.));
#459=DIRECTION('ref_axis',(-1.,0.,0.));
#460=CARTESIAN_POINT('',(0.,0.,0.));
#461=CARTESIAN_POINT('Origin',(0.1875,0.5625,2.0625));
#462=CARTESIAN_POINT('',(0.1875,0.1875,2.25));
#463=CARTESIAN_POINT('',(0.1875,0.5625,2.25));
#464=CARTESIAN_POINT('',(0.1875,0.5625,2.25));
#465=CARTESIAN_POINT('',(0.,0.75,2.0625));
#466=CARTESIAN_POINT('Origin',(0.1875,0.5625,2.0625));
#467=CARTESIAN_POINT('',(0.,0.,2.0625));
#468=CARTESIAN_POINT('',(0.,0.5625,2.0625));
#469=CARTESIAN_POINT('Origin',(0.1875,0.1875,2.0625));
#470=CARTESIAN_POINT('Origin',(0.5625,0.5625,2.0625));
#471=CARTESIAN_POINT('',(0.5625,0.5625,2.25));
#472=CARTESIAN_POINT('',(0.5625,0.5625,2.25));
#473=CARTESIAN_POINT('',(0.75,0.75,2.0625));
#474=CARTESIAN_POINT('Origin',(0.5625,0.5625,2.0625));
#475=CARTESIAN_POINT('',(0.5625,0.75,2.0625));
#476=CARTESIAN_POINT('Origin',(0.5625,0.1875,2.0625));
#477=CARTESIAN_POINT('',(0.5625,0.1875,2.25));
#478=CARTESIAN_POINT('',(0.5625,0.1875,2.25));
#479=CARTESIAN_POINT('',(0.75,0.,2.0625));
#480=CARTESIAN_POINT('Origin',(0.5625,0.1875,2.0625));
#481=CARTESIAN_POINT('',(0.75,0.1875,2.0625));
#482=CARTESIAN_POINT('Origin',(0.1875,0.1875,2.0625));
#483=CARTESIAN_POINT('',(0.1875,0.,2.0625));
#484=CARTESIAN_POINT('',(0.1875,0.1875,2.25));
#485=CARTESIAN_POINT('Origin',(0.,0.,0.));
#486=CARTESIAN_POINT('',(0.,-1.80492292532455E-16,1.505));
#487=CARTESIAN_POINT('',(0.,0.,0.));
#488=CARTESIAN_POINT('',(0.75,-1.80492292532455E-16,1.505));
#489=CARTESIAN_POINT('',(0.375,0.,1.505));
#490=CARTESIAN_POINT('',(0.75,0.,0.));
#491=CARTESIAN_POINT('Origin',(0.,0.75,0.));
#492=CARTESIAN_POINT('',(0.,0.75,1.505));
#493=CARTESIAN_POINT('',(0.,0.75,0.));
#494=CARTESIAN_POINT('',(0.,0.375,1.505));
#495=CARTESIAN_POINT('Origin',(0.375,0.375,2.25));
#496=CARTESIAN_POINT('Origin',(0.1875,0.1875,0.1875));
#497=CARTESIAN_POINT('',(0.75,0.,0.1875));
#498=CARTESIAN_POINT('',(0.,0.,0.1875));
#499=CARTESIAN_POINT('',(0.1875,0.,0.1875));
#500=CARTESIAN_POINT('',(0.1875,0.1875,0.));
#501=CARTESIAN_POINT('Origin',(0.1875,0.1875,0.1875));
#502=CARTESIAN_POINT('',(0.5625,0.1875,0.));
#503=CARTESIAN_POINT('',(0.1875,0.1875,0.));
#504=CARTESIAN_POINT('Origin',(0.5625,0.1875,0.1875));
#505=CARTESIAN_POINT('Origin',(0.1875,0.5625,0.1875));
#506=CARTESIAN_POINT('',(0.1875,0.5625,0.));
#507=CARTESIAN_POINT('',(0.1875,0.5625,0.));
#508=CARTESIAN_POINT('',(0.,0.75,0.1875));
#509=CARTESIAN_POINT('',(0.,0.5625,0.1875));
#510=CARTESIAN_POINT('Origin',(0.1875,0.5625,0.1875));
#511=CARTESIAN_POINT('Origin',(0.5625,0.1875,0.1875));
#512=CARTESIAN_POINT('',(0.75,0.75,0.1875));
#513=CARTESIAN_POINT('',(0.75,0.1875,0.1875));
#514=CARTESIAN_POINT('',(0.5625,0.5625,0.));
#515=CARTESIAN_POINT('',(0.5625,0.1875,0.));
#516=CARTESIAN_POINT('Origin',(0.5625,0.5625,0.1875));
#517=CARTESIAN_POINT('Origin',(0.5625,0.5625,0.1875));
#518=CARTESIAN_POINT('',(0.5625,0.75,0.1875));
#519=CARTESIAN_POINT('',(0.5625,0.5625,0.));
#520=CARTESIAN_POINT('Origin',(0.,0.75,0.));
#521=CARTESIAN_POINT('',(0.,-8.74191357972564E-17,0.745));
#522=CARTESIAN_POINT('',(0.,0.,0.));
#523=CARTESIAN_POINT('',(0.,0.75,0.745));
#524=CARTESIAN_POINT('',(0.,0.75,0.745));
#525=CARTESIAN_POINT('',(0.,0.75,0.));
#526=CARTESIAN_POINT('Origin',(0.,0.,0.));
#527=CARTESIAN_POINT('',(0.75,-8.74191357972564E-17,0.745));
#528=CARTESIAN_POINT('',(0.75,0.,0.));
#529=CARTESIAN_POINT('',(0.375,0.,0.745));
#530=CARTESIAN_POINT('Origin',(0.375,0.375,0.));
#531=CARTESIAN_POINT('Origin',(0.5625,0.1875,1.505));
#532=CARTESIAN_POINT('',(0.38,0.1875,0.745));
#533=CARTESIAN_POINT('Origin',(0.5625,0.1875,0.745));
#534=CARTESIAN_POINT('',(0.38,0.1875,1.505));
#535=CARTESIAN_POINT('Origin',(0.5625,0.1875,1.505));
#536=CARTESIAN_POINT('Origin',(0.75,0.,0.));
#537=CARTESIAN_POINT('',(0.75,0.75,0.745));
#538=CARTESIAN_POINT('',(0.75,0.75,0.));
#539=CARTESIAN_POINT('',(0.75,0.375,0.745));
#540=CARTESIAN_POINT('Origin',(0.75,0.75,0.));
#541=CARTESIAN_POINT('',(0.75,0.75,0.745));
#542=CARTESIAN_POINT('Origin',(0.75,0.75,0.745));
#543=CARTESIAN_POINT('Origin',(0.75,-1.80492292532455E-16,1.505));
#544=CARTESIAN_POINT('',(0.75,0.75,1.505));
#545=CARTESIAN_POINT('',(0.75,0.75,1.505));
#546=CARTESIAN_POINT('',(0.75,-2.65667212099389E-16,1.505));
#547=CARTESIAN_POINT('Origin',(0.75,0.,0.));
#548=CARTESIAN_POINT('',(0.75,0.75,0.));
#549=CARTESIAN_POINT('Origin',(0.75,0.75,0.));
#550=UNCERTAINTY_MEASURE_WITH_UNIT(LENGTH_MEASURE(0.000393700787401575),
#554,'DISTANCE_ACCURACY_VALUE',
'Maximum model space distance between geometric entities at asserted c
onnectivities');
#551=UNCERTAINTY_MEASURE_WITH_UNIT(LENGTH_MEASURE(1.E-6),#555,
'DISTANCE_ACCURACY_VALUE',
'Maximum model space distance between geometric entities at asserted c
onnectivities');
#552=(
GEOMETRIC_REPRESENTATION_CONTEXT(3)
GLOBAL_UNCERTAINTY_ASSIGNED_CONTEXT((#550))
GLOBAL_UNIT_ASSIGNED_CONTEXT((#554,#560,#557))
REPRESENTATION_CONTEXT('','3D')
);
#553=(
GEOMETRIC_REPRESENTATION_CONTEXT(3)
GLOBAL_UNCERTAINTY_ASSIGNED_CONTEXT((#551))
GLOBAL_UNIT_ASSIGNED_CONTEXT((#555,#560,#557))
REPRESENTATION_CONTEXT('','3D')
);
#554=(
CONVERSION_BASED_UNIT('__CONSTANT UNIT inch',#556)
LENGTH_UNIT()
NAMED_UNIT(#559)
);
#555=(
LENGTH_UNIT()
NAMED_UNIT(*)
SI_UNIT(.MILLI.,.METRE.)
);
#556=LENGTH_MEASURE_WITH_UNIT(LENGTH_MEASURE(25.4),#555);
#557=(
NAMED_UNIT(*)
SI_UNIT($,.STERADIAN.)
SOLID_ANGLE_UNIT()
);
#558=DIMENSIONAL_EXPONENTS(0.,0.,0.,0.,0.,0.,0.);
#559=DIMENSIONAL_EXPONENTS(1.,0.,0.,0.,0.,0.,0.);
#560=(
CONVERSION_BASED_UNIT('degree',#562)
NAMED_UNIT(#558)
PLANE_ANGLE_UNIT()
);
#561=(
NAMED_UNIT(*)
PLANE_ANGLE_UNIT()
SI_UNIT($,.RADIAN.)
);
#562=PLANE_ANGLE_MEASURE_WITH_UNIT(PLANE_ANGLE_MEASURE(0.01745329252),#561);
#563=SHAPE_DEFINITION_REPRESENTATION(#564,#565);
#564=PRODUCT_DEFINITION_SHAPE('',$,#567);
#565=SHAPE_REPRESENTATION('',(#332),#552);
#566=PRODUCT_DEFINITION_CONTEXT('part definition',#571,'design');
#567=PRODUCT_DEFINITION('Part2','Part2',#568,#566);
#568=PRODUCT_DEFINITION_FORMATION('',$,#573);
#569=PRODUCT_RELATED_PRODUCT_CATEGORY('Part2','Part2',(#573));
#570=APPLICATION_PROTOCOL_DEFINITION('international standard',
'automotive_design',2009,#571);
#571=APPLICATION_CONTEXT(
'Core Data for Automotive Mechanical Design Process');
#572=PRODUCT_CONTEXT('part definition',#571,'mechanical');
#573=PRODUCT('Part2','Part2',$,(#572));
#574=PRESENTATION_STYLE_ASSIGNMENT((#575));
#575=SURFACE_STYLE_USAGE(.BOTH.,#576);
#576=SURFACE_SIDE_STYLE('',(#577));
#577=SURFACE_STYLE_FILL_AREA(#578);
#578=FILL_AREA_STYLE('',(#579));
#579=FILL_AREA_STYLE_COLOUR('',#580);
#580=COLOUR_RGB('',0.745098039215686,0.,0.);
ENDSEC;
END-ISO-10303-21;
