  0
SECTION
  2
BLOCKS
  0
ENDSEC
  0
SECTION
  2
ENTITIES
  0
LINE
  8
0
 10
7.43022
 20
9
 11
7.53668
 21
10.692
  0
LINE
  8
0
 10
7.53668
 20
10.692
 11
7.85435
 21
12.3573
  0
LINE
  8
0
 10
7.85435
 20
12.3573
 11
8.37825
 21
13.9697
  0
LINE
  8
0
 10
8.37825
 20
13.9697
 11
9.10008
 21
15.5037
  0
LINE
  8
0
 10
9.10008
 20
15.5037
 11
10.0085
 21
16.9351
  0
LINE
  8
0
 10
10.0085
 20
16.9351
 11
11.0892
 21
18.2414
  0
LINE
  8
0
 10
11.0892
 20
18.2414
 11
12.325
 21
19.4019
  0
LINE
  8
0
 10
12.325
 20
19.4019
 11
13.6966
 21
20.3984
  0
LINE
  8
0
 10
13.6966
 20
20.3984
 11
15.1822
 21
21.2152
  0
LINE
  8
0
 10
15.1822
 20
21.2152
 11
16.7585
 21
21.8392
  0
LINE
  8
0
 10
16.7585
 20
21.8392
 11
18.4006
 21
22.2609
  0
LINE
  8
0
 10
18.4006
 20
22.2609
 11
20.0826
 21
22.4734
  0
LINE
  8
0
 10
20.0826
 20
22.4734
 11
21.7779
 21
22.4734
  0
LINE
  8
0
 10
21.7779
 20
22.4734
 11
23.4599
 21
22.2609
  0
LINE
  8
0
 10
23.4599
 20
22.2609
 11
25.1019
 21
21.8392
  0
LINE
  8
0
 10
25.1019
 20
21.8392
 11
26.6782
 21
21.2152
  0
LINE
  8
0
 10
26.6782
 20
21.2152
 11
28.1639
 21
20.3984
  0
LINE
  8
0
 10
28.1639
 20
20.3984
 11
29.5354
 21
19.4019
  0
LINE
  8
0
 10
29.5354
 20
19.4019
 11
30.7713
 21
18.2414
  0
LINE
  8
0
 10
30.7713
 20
18.2414
 11
31.8519
 21
16.9351
  0
LINE
  8
0
 10
31.8519
 20
16.9351
 11
32.7604
 21
15.5037
  0
LINE
  8
0
 10
32.7604
 20
15.5037
 11
33.4822
 21
13.9697
  0
LINE
  8
0
 10
33.4822
 20
13.9697
 11
34.0061
 21
12.3573
  0
LINE
  8
0
 10
34.0061
 20
12.3573
 11
34.3238
 21
10.692
  0
LINE
  8
0
 10
34.3238
 20
10.692
 11
34.4302
 21
9
  0
LINE
  8
0
 10
34.4302
 20
9
 11
34.4302
 21
0
  0
LINE
  8
0
 10
34.4302
 20
0
 11
42.9412
 21
0
  0
LINE
  8
0
 10
42.9412
 20
0
 11
42.9412
 21
6.66666
  0
LINE
  8
0
 10
42.9412
 20
6.66666
 11
43.02
 21
7.92
  0
LINE
  8
0
 10
43.02
 20
7.92
 11
43.2553
 21
9.15356
  0
LINE
  8
0
 10
43.2553
 20
9.15356
 11
43.6434
 21
10.3479
  0
LINE
  8
0
 10
43.6434
 20
10.3479
 11
44.1781
 21
11.4842
  0
LINE
  8
0
 10
44.1781
 20
11.4842
 11
44.851
 21
12.5445
  0
LINE
  8
0
 10
44.851
 20
12.5445
 11
45.6515
 21
13.5121
  0
LINE
  8
0
 10
45.6515
 20
13.5121
 11
46.5669
 21
14.3718
  0
LINE
  8
0
 10
46.5669
 20
14.3718
 11
47.5829
 21
15.1099
  0
LINE
  8
0
 10
47.5829
 20
15.1099
 11
48.6834
 21
15.7149
  0
LINE
  8
0
 10
48.6834
 20
15.7149
 11
49.851
 21
16.1772
  0
LINE
  8
0
 10
49.851
 20
16.1772
 11
51.0674
 21
16.4895
  0
LINE
  8
0
 10
51.0674
 20
16.4895
 11
52.3133
 21
16.6469
  0
LINE
  8
0
 10
52.3133
 20
16.6469
 11
53.5691
 21
16.6469
  0
LINE
  8
0
 10
53.5691
 20
16.6469
 11
54.815
 21
16.4895
  0
LINE
  8
0
 10
54.815
 20
16.4895
 11
56.0313
 21
16.1772
  0
LINE
  8
0
 10
56.0313
 20
16.1772
 11
57.1989
 21
15.7149
  0
LINE
  8
0
 10
57.1989
 20
15.7149
 11
58.2994
 21
15.1099
  0
LINE
  8
0
 10
58.2994
 20
15.1099
 11
59.3154
 21
14.3718
  0
LINE
  8
0
 10
59.3154
 20
14.3718
 11
60.2308
 21
13.5121
  0
LINE
  8
0
 10
60.2308
 20
13.5121
 11
61.0313
 21
12.5445
  0
LINE
  8
0
 10
61.0313
 20
12.5445
 11
61.7042
 21
11.4842
  0
LINE
  8
0
 10
61.7042
 20
11.4842
 11
62.2389
 21
10.3479
  0
LINE
  8
0
 10
62.2389
 20
10.3479
 11
62.627
 21
9.15356
  0
LINE
  8
0
 10
62.627
 20
9.15356
 11
62.8623
 21
7.92
  0
LINE
  8
0
 10
62.8623
 20
7.92
 11
62.9412
 21
6.66666
  0
LINE
  8
0
 10
62.9412
 20
6.66666
 11
62.9412
 21
0
  0
LINE
  8
0
 10
62.9412
 20
0
 11
90
 21
0
  0
LINE
  8
0
 10
90
 20
0
 11
90
 21
45
  0
LINE
  8
0
 10
90
 20
45
 11
81.3506
 21
44.001
  0
LINE
  8
0
 10
81.3506
 20
44.001
 11
73.8057
 21
43.2061
  0
LINE
  8
0
 10
73.8057
 20
43.2061
 11
70.4092
 21
42.8779
  0
LINE
  8
0
 10
70.4092
 20
42.8779
 11
67.2441
 21
42.5938
  0
LINE
  8
0
 10
67.2441
 20
42.5938
 11
64.2949
 21
42.3486
  0
LINE
  8
0
 10
64.2949
 20
42.3486
 11
61.5479
 21
42.1416
  0
LINE
  8
0
 10
61.5479
 20
42.1416
 11
58.9854
 21
41.9688
  0
LINE
  8
0
 10
58.9854
 20
41.9688
 11
56.5947
 21
41.8281
  0
LINE
  8
0
 10
56.5947
 20
41.8281
 11
52.2656
 21
41.6309
  0
LINE
  8
0
 10
52.2656
 20
41.6309
 11
48.4404
 21
41.5293
  0
LINE
  8
0
 10
48.4404
 20
41.5293
 11
45
 21
41.5
  0
LINE
  8
0
 10
45
 20
41.5
 11
41.5586
 21
41.5293
  0
LINE
  8
0
 10
41.5586
 20
41.5293
 11
37.7344
 21
41.6309
  0
LINE
  8
0
 10
37.7344
 20
41.6309
 11
33.4053
 21
41.8281
  0
LINE
  8
0
 10
33.4053
 20
41.8281
 11
31.0146
 21
41.9688
  0
LINE
  8
0
 10
31.0146
 20
41.9688
 11
28.4521
 21
42.1416
  0
LINE
  8
0
 10
28.4521
 20
42.1416
 11
25.7041
 21
42.3486
  0
LINE
  8
0
 10
25.7041
 20
42.3486
 11
22.7559
 21
42.5938
  0
LINE
  8
0
 10
22.7559
 20
42.5938
 11
19.5908
 21
42.8779
  0
LINE
  8
0
 10
19.5908
 20
42.8779
 11
16.1943
 21
43.2061
  0
LINE
  8
0
 10
16.1943
 20
43.2061
 11
8.64941
 21
44.001
  0
LINE
  8
0
 10
8.64941
 20
44.001
 11
0
 21
45
  0
LINE
  8
0
 10
0
 20
45
 11
0
 21
0
  0
LINE
  8
0
 10
0
 20
0
 11
7.43022
 21
0
  0
LINE
  8
0
 10
7.43022
 20
0
 11
7.43022
 21
9
  0
LINE
  8
0
 10
75.7375
 20
5.51677
 11
74.6784
 21
5.65054
  0
LINE
  8
0
 10
74.6784
 20
5.65054
 11
73.6445
 21
5.91602
  0
LINE
  8
0
 10
73.6445
 20
5.91602
 11
72.6521
 21
6.30896
  0
LINE
  8
0
 10
72.6521
 20
6.30896
 11
71.7166
 21
6.82321
  0
LINE
  8
0
 10
71.7166
 20
6.82321
 11
70.8531
 21
7.45062
  0
LINE
  8
0
 10
70.8531
 20
7.45062
 11
70.075
 21
8.18134
  0
LINE
  8
0
 10
70.075
 20
8.18134
 11
69.3945
 21
9.00381
  0
LINE
  8
0
 10
69.3945
 20
9.00381
 11
68.8226
 21
9.90509
  0
LINE
  8
0
 10
68.8226
 20
9.90509
 11
68.3681
 21
10.8709
  0
LINE
  8
0
 10
68.3681
 20
10.8709
 11
68.0382
 21
11.8861
  0
LINE
  8
0
 10
68.0382
 20
11.8861
 11
67.8382
 21
12.9347
  0
LINE
  8
0
 10
67.8382
 20
12.9347
 11
67.7712
 21
14
  0
LINE
  8
0
 10
67.7712
 20
14
 11
67.8382
 21
15.0653
  0
LINE
  8
0
 10
67.8382
 20
15.0653
 11
68.0382
 21
16.1139
  0
LINE
  8
0
 10
68.0382
 20
16.1139
 11
68.3681
 21
17.129
  0
LINE
  8
0
 10
68.3681
 20
17.129
 11
68.8226
 21
18.0949
  0
LINE
  8
0
 10
68.8226
 20
18.0949
 11
69.3945
 21
18.9962
  0
LINE
  8
0
 10
69.3945
 20
18.9962
 11
70.075
 21
19.8186
  0
LINE
  8
0
 10
70.075
 20
19.8186
 11
70.8531
 21
20.5494
  0
LINE
  8
0
 10
70.8531
 20
20.5494
 11
71.7166
 21
21.1768
  0
LINE
  8
0
 10
71.7166
 20
21.1768
 11
72.6521
 21
21.691
  0
LINE
  8
0
 10
72.6521
 20
21.691
 11
73.6445
 21
22.084
  0
LINE
  8
0
 10
73.6445
 20
22.084
 11
74.6784
 21
22.3494
  0
LINE
  8
0
 10
74.6784
 20
22.3494
 11
75.7375
 21
22.4832
  0
LINE
  8
0
 10
75.7375
 20
22.4832
 11
76.8049
 21
22.4832
  0
LINE
  8
0
 10
76.8049
 20
22.4832
 11
77.8639
 21
22.3494
  0
LINE
  8
0
 10
77.8639
 20
22.3494
 11
78.8978
 21
22.084
  0
LINE
  8
0
 10
78.8978
 20
22.084
 11
79.8903
 21
21.691
  0
LINE
  8
0
 10
79.8903
 20
21.691
 11
80.8257
 21
21.1768
  0
LINE
  8
0
 10
80.8257
 20
21.1768
 11
81.6893
 21
20.5494
  0
LINE
  8
0
 10
81.6893
 20
20.5494
 11
82.4674
 21
19.8186
  0
LINE
  8
0
 10
82.4674
 20
19.8186
 11
83.1478
 21
18.9962
  0
LINE
  8
0
 10
83.1478
 20
18.9962
 11
83.7198
 21
18.0949
  0
LINE
  8
0
 10
83.7198
 20
18.0949
 11
84.1743
 21
17.129
  0
LINE
  8
0
 10
84.1743
 20
17.129
 11
84.5041
 21
16.1139
  0
LINE
  8
0
 10
84.5041
 20
16.1139
 11
84.7041
 21
15.0653
  0
LINE
  8
0
 10
84.7041
 20
15.0653
 11
84.7712
 21
14
  0
LINE
  8
0
 10
84.7712
 20
14
 11
84.7041
 21
12.9347
  0
LINE
  8
0
 10
84.7041
 20
12.9347
 11
84.5041
 21
11.8861
  0
LINE
  8
0
 10
84.5041
 20
11.8861
 11
84.1743
 21
10.8709
  0
LINE
  8
0
 10
84.1743
 20
10.8709
 11
83.7198
 21
9.90509
  0
LINE
  8
0
 10
83.7198
 20
9.90509
 11
83.1478
 21
9.00381
  0
LINE
  8
0
 10
83.1478
 20
9.00381
 11
82.4674
 21
8.18134
  0
LINE
  8
0
 10
82.4674
 20
8.18134
 11
81.6893
 21
7.45062
  0
LINE
  8
0
 10
81.6893
 20
7.45062
 11
80.8257
 21
6.82321
  0
LINE
  8
0
 10
80.8257
 20
6.82321
 11
79.8903
 21
6.30896
  0
LINE
  8
0
 10
79.8903
 20
6.30896
 11
78.8978
 21
5.91602
  0
LINE
  8
0
 10
78.8978
 20
5.91602
 11
77.8639
 21
5.65054
  0
LINE
  8
0
 10
77.8639
 20
5.65054
 11
76.8049
 21
5.51677
  0
LINE
  8
0
 10
76.8049
 20
5.51677
 11
75.7375
 21
5.51677
  0
ENDSEC
  0
SECTION
  2
OBJECTS
  0
DICTIONARY
  0
ENDSEC
  0
EOF
