  0
SECTION
  2
HEADER
  9
$ACADVER
  1
AC1018
  9
$ACADMAINTVER
 70
     0
  9
$DWGCODEPAGE
  3
ANSI_1252
  9
$INSBASE
 10
0.0
 20
0.0
 30
0.0
  9
$EXTMIN
 10
-145.3445
 20
-77.7877
 30
0.0
  9
$EXTMAX
 10
145.3444
 20
77.9599
 30
0.0
  9
$LIMMIN
 10
0.0
 20
0.0
  9
$LIMMAX
 10
12.0
 20
9.0
  9
$ORTHOMODE
 70
     0
  9
$REGENMODE
 70
     1
  9
$FILLMODE
 70
     1
  9
$QTEXTMODE
 70
     0
  9
$MIRRTEXT
 70
     1
  9
$LTSCALE
 40
1.0
  9
$ATTMODE
 70
     1
  9
$TEXTSIZE
 40
0.2
  9
$TRACEWID
 40
0.05
  9
$TEXTSTYLE
  7
Standard
  9
$CLAYER
  8
0
  9
$CELTYPE
  6
ByLayer
  9
$CECOLOR
 62
   256
  9
$CELTSCALE
 40
1.0
  9
$DISPSILH
 70
     0
  9
$DIMSCALE
 40
1.0
  9
$DIMASZ
 40
0.18
  9
$DIMEXO
 40
0.0625
  9
$DIMDLI
 40
0.38
  9
$DIMRND
 40
0.0
  9
$DIMDLE
 40
0.0
  9
$DIMEXE
 40
0.18
  9
$DIMTP
 40
0.0
  9
$DIMTM
 40
0.0
  9
$DIMTXT
 40
0.18
  9
$DIMCEN
 40
0.09
  9
$DIMTSZ
 40
0.0
  9
$DIMTOL
 70
     0
  9
$DIMLIM
 70
     0
  9
$DIMTIH
 70
     1
  9
$DIMTOH
 70
     1
  9
$DIMSE1
 70
     0
  9
$DIMSE2
 70
     0
  9
$DIMTAD
 70
     0
  9
$DIMZIN
 70
     0
  9
$DIMBLK
  1

  9
$DIMASO
 70
     1
  9
$DIMSHO
 70
     1
  9
$DIMPOST
  1

  9
$DIMAPOST
  1

  9
$DIMALT
 70
     0
  9
$DIMALTD
 70
     2
  9
$DIMALTF
 40
25.4
  9
$DIMLFAC
 40
1.0
  9
$DIMTOFL
 70
     0
  9
$DIMTVP
 40
0.0
  9
$DIMTIX
 70
     0
  9
$DIMSOXD
 70
     0
  9
$DIMSAH
 70
     0
  9
$DIMBLK1
  1

  9
$DIMBLK2
  1

  9
$DIMSTYLE
  2
Standard
  9
$DIMCLRD
 70
     0
  9
$DIMCLRE
 70
     0
  9
$DIMCLRT
 70
     0
  9
$DIMTFAC
 40
1.0
  9
$DIMGAP
 40
0.09
  9
$DIMJUST
 70
     0
  9
$DIMSD1
 70
     0
  9
$DIMSD2
 70
     0
  9
$DIMTOLJ
 70
     1
  9
$DIMTZIN
 70
     0
  9
$DIMALTZ
 70
     0
  9
$DIMALTTZ
 70
     0
  9
$DIMUPT
 70
     0
  9
$DIMDEC
 70
     4
  9
$DIMTDEC
 70
     4
  9
$DIMALTU
 70
     2
  9
$DIMALTTD
 70
     2
  9
$DIMTXSTY
  7
Standard
  9
$DIMAUNIT
 70
     0
  9
$DIMADEC
 70
     0
  9
$DIMALTRND
 40
0.0
  9
$DIMAZIN
 70
     0
  9
$DIMDSEP
 70
    46
  9
$DIMATFIT
 70
     3
  9
$DIMFRAC
 70
     0
  9
$DIMLDRBLK
  1

  9
$DIMLUNIT
 70
     2
  9
$DIMLWD
 70
    -2
  9
$DIMLWE
 70
    -2
  9
$DIMTMOVE
 70
     0
  9
$LUNITS
 70
     2
  9
$LUPREC
 70
     4
  9
$SKETCHINC
 40
0.1
  9
$FILLETRAD
 40
0.5
  9
$AUNITS
 70
     0
  9
$AUPREC
 70
     0
  9
$MENU
  1
.
  9
$ELEVATION
 40
0.0
  9
$PELEVATION
 40
0.0
  9
$THICKNESS
 40
0.0
  9
$LIMCHECK
 70
     0
  9
$CHAMFERA
 40
0.5
  9
$CHAMFERB
 40
0.5
  9
$CHAMFERC
 40
1.0
  9
$CHAMFERD
 40
0.0
  9
$SKPOLY
 70
     0
  9
$TDCREATE
 40
2456095.618122106
  9
$TDUCREATE
 40
2456095.909788773
  9
$TDUPDATE
 40
2456095.618122118
  9
$TDUUPDATE
 40
2456095.909788785
  9
$TDINDWG
 40
0.0000000116
  9
$TDUSRTIMER
 40
0.0000000116
  9
$USRTIMER
 70
     1
  9
$ANGBASE
 50
0.0
  9
$ANGDIR
 70
     0
  9
$PDMODE
 70
     0
  9
$PDSIZE
 40
0.0
  9
$PLINEWID
 40
0.0
  9
$SPLFRAME
 70
     0
  9
$SPLINETYPE
 70
     6
  9
$SPLINESEGS
 70
     8
  9
$HANDSEED
  5
14F
  9
$SURFTAB1
 70
     6
  9
$SURFTAB2
 70
     6
  9
$SURFTYPE
 70
     6
  9
$SURFU
 70
     6
  9
$SURFV
 70
     6
  9
$UCSBASE
  2

  9
$UCSNAME
  2

  9
$UCSORG
 10
0.0
 20
0.0
 30
0.0
  9
$UCSXDIR
 10
1.0
 20
0.0
 30
0.0
  9
$UCSYDIR
 10
0.0
 20
1.0
 30
0.0
  9
$UCSORTHOREF
  2

  9
$UCSORTHOVIEW
 70
     0
  9
$UCSORGTOP
 10
0.0
 20
0.0
 30
0.0
  9
$UCSORGBOTTOM
 10
0.0
 20
0.0
 30
0.0
  9
$UCSORGLEFT
 10
0.0
 20
0.0
 30
0.0
  9
$UCSORGRIGHT
 10
0.0
 20
0.0
 30
0.0
  9
$UCSORGFRONT
 10
0.0
 20
0.0
 30
0.0
  9
$UCSORGBACK
 10
0.0
 20
0.0
 30
0.0
  9
$PUCSBASE
  2

  9
$PUCSNAME
  2

  9
$PUCSORG
 10
0.0
 20
0.0
 30
0.0
  9
$PUCSXDIR
 10
1.0
 20
0.0
 30
0.0
  9
$PUCSYDIR
 10
0.0
 20
1.0
 30
0.0
  9
$PUCSORTHOREF
  2

  9
$PUCSORTHOVIEW
 70
     0
  9
$PUCSORGTOP
 10
0.0
 20
0.0
 30
0.0
  9
$PUCSORGBOTTOM
 10
0.0
 20
0.0
 30
0.0
  9
$PUCSORGLEFT
 10
0.0
 20
0.0
 30
0.0
  9
$PUCSORGRIGHT
 10
0.0
 20
0.0
 30
0.0
  9
$PUCSORGFRONT
 10
0.0
 20
0.0
 30
0.0
  9
$PUCSORGBACK
 10
0.0
 20
0.0
 30
0.0
  9
$USERI1
 70
     0
  9
$USERI2
 70
     0
  9
$USERI3
 70
     0
  9
$USERI4
 70
     0
  9
$USERI5
 70
     0
  9
$USERR1
 40
0.0
  9
$USERR2
 40
0.0
  9
$USERR3
 40
0.0
  9
$USERR4
 40
0.0
  9
$USERR5
 40
0.0
  9
$WORLDVIEW
 70
     1
  9
$SHADEDGE
 70
     3
  9
$SHADEDIF
 70
    70
  9
$TILEMODE
 70
     1
  9
$MAXACTVP
 70
    64
  9
$PINSBASE
 10
0.0
 20
0.0
 30
0.0
  9
$PLIMCHECK
 70
     0
  9
$PEXTMIN
 10
1.000000000000000E+20
 20
1.000000000000000E+20
 30
1.000000000000000E+20
  9
$PEXTMAX
 10
-1.000000000000000E+20
 20
-1.000000000000000E+20
 30
-1.000000000000000E+20
  9
$PLIMMIN
 10
0.0
 20
0.0
  9
$PLIMMAX
 10
12.0
 20
9.0
  9
$UNITMODE
 70
     0
  9
$VISRETAIN
 70
     1
  9
$PLINEGEN
 70
     0
  9
$PSLTSCALE
 70
     1
  9
$TREEDEPTH
 70
  3020
  9
$CMLSTYLE
  2
Standard
  9
$CMLJUST
 70
     0
  9
$CMLSCALE
 40
1.0
  9
$PROXYGRAPHICS
 70
     1
  9
$MEASUREMENT
 70
     0
  9
$CELWEIGHT
370
    -1
  9
$ENDCAPS
280
     0
  9
$JOINSTYLE
280
     0
  9
$LWDISPLAY
290
     0
  9
$INSUNITS
 70
     4
  9
$HYPERLINKBASE
  1

  9
$STYLESHEET
  1

  9
$XEDIT
290
     1
  9
$CEPSNTYPE
380
     0
  9
$PSTYLEMODE
290
     1
  9
$FINGERPRINTGUID
  2
{EA7F6D7A-0682-4874-9A00-D556126815EF}
  9
$VERSIONGUID
  2
{FAEB1C32-E019-11D5-929B-00C0DF256EC4}
  9
$EXTNAMES
290
     1
  9
$PSVPSCALE
 40
0.0
  9
$OLESTARTUP
290
     0
  9
$SORTENTS
280
   127
  9
$INDEXCTL
280
     0
  9
$HIDETEXT
280
     1
  9
$XCLIPFRAME
290
     0
  9
$HALOGAP
280
     0
  9
$OBSCOLOR
 70
   257
  9
$OBSLTYPE
280
     0
  9
$INTERSECTIONDISPLAY
280
     0
  9
$INTERSECTIONCOLOR
 70
   257
  9
$DIMASSOC
280
     2
  9
$PROJECTNAME
  1

  0
ENDSEC
  0
SECTION
  2
CLASSES
  0
CLASS
  1
ACDBDICTIONARYWDFLT
  2
AcDbDictionaryWithDefault
  3
ObjectDBX Classes
 90
        0
 91
        4
280
     0
281
     0
  0
CLASS
  1
VISUALSTYLE
  2
AcDbVisualStyle
  3
ObjectDBX Classes
 90
     4095
 91
        4
280
     0
281
     0
  0
CLASS
  1
MATERIAL
  2
AcDbMaterial
  3
ObjectDBX Classes
 90
     1153
 91
        4
280
     0
281
     0
  0
ENDSEC
  0
SECTION
  2
TABLES
  0
TABLE
  2
VPORT
  5
8
330
0
100
AcDbSymbolTable
 70
     1
  0
VPORT
  5
29
330
8
100
AcDbSymbolTableRecord
100
AcDbViewportTableRecord
  2
*Active
 70
     0
 10
0.0
 20
0.0
 11
1.0
 21
1.0
 12
10.42990654205607
 22
4.5
 13
0.0
 23
0.0
 14
0.5
 24
0.5
 15
0.5
 25
0.5
 16
0.0
 26
0.0
 36
1.0
 17
0.0
 27
0.0
 37
0.0
 40
9.0
 41
1.972972972850329
 42
50.0
 43
0.0
 44
0.0
 50
0.0
 51
0.0
 71
     0
 72
   100
 73
     1
 74
     3
 75
     0
 76
     0
 77
     0
 78
     0
281
     0
 65
     1
110
0.0
120
0.0
130
0.0
111
1.0
121
0.0
131
0.0
112
0.0
122
1.0
132
0.0
 79
     0
146
0.0
  0
ENDTAB
  0
TABLE
  2
LTYPE
  5
5
330
0
100
AcDbSymbolTable
 70
     1
  0
LTYPE
  5
14
330
5
100
AcDbSymbolTableRecord
100
AcDbLinetypeTableRecord
  2
ByBlock
 70
     0
  3

 72
    65
 73
     0
 40
0.0
  0
LTYPE
  5
15
330
5
100
AcDbSymbolTableRecord
100
AcDbLinetypeTableRecord
  2
ByLayer
 70
     0
  3

 72
    65
 73
     0
 40
0.0
  0
LTYPE
  5
16
330
5
100
AcDbSymbolTableRecord
100
AcDbLinetypeTableRecord
  2
Continuous
 70
     0
  3
Solid line
 72
    65
 73
     0
 40
0.0
  0
ENDTAB
  0
TABLE
  2
LAYER
  5
2
330
0
100
AcDbSymbolTable
 70
     2
  0
LAYER
  5
10
330
2
100
AcDbSymbolTableRecord
100
AcDbLayerTableRecord
  2
0
 70
     0
 62
     7
  6
Continuous
370
    -3
390
F
  0
LAYER
  5
40
330
2
100
AcDbSymbolTableRecord
100
AcDbLayerTableRecord
  2
Layer 1
 70
     0
 62
     7
  6
Continuous
370
    -3
390
F
  0
ENDTAB
  0
TABLE
  2
STYLE
  5
3
330
0
100
AcDbSymbolTable
 70
     1
  0
STYLE
  5
11
330
3
100
AcDbSymbolTableRecord
100
AcDbTextStyleTableRecord
  2
Standard
 70
     0
 40
0.0
 41
1.0
 50
0.0
 71
     0
 42
0.2
  3
txt
  4

  0
ENDTAB
  0
TABLE
  2
VIEW
  5
6
330
0
100
AcDbSymbolTable
 70
     0
  0
ENDTAB
  0
TABLE
  2
UCS
  5
7
330
0
100
AcDbSymbolTable
 70
     0
  0
ENDTAB
  0
TABLE
  2
APPID
  5
9
330
0
100
AcDbSymbolTable
 70
     2
  0
APPID
  5
12
330
9
100
AcDbSymbolTableRecord
100
AcDbRegAppTableRecord
  2
ACAD
 70
     0
  0
APPID
  5
3F
330
9
100
AcDbSymbolTableRecord
100
AcDbRegAppTableRecord
  2
ODA
 70
     0
  0
ENDTAB
  0
TABLE
  2
DIMSTYLE
  5
A
330
0
100
AcDbSymbolTable
 70
     1
100
AcDbDimStyleTable
  0
DIMSTYLE
105
27
330
A
100
AcDbSymbolTableRecord
100
AcDbDimStyleTableRecord
  2
Standard
 70
     0
178
     0
340
11
  0
ENDTAB
  0
TABLE
  2
BLOCK_RECORD
  5
1
330
0
100
AcDbSymbolTable
 70
     1
  0
BLOCK_RECORD
  5
1F
330
1
100
AcDbSymbolTableRecord
100
AcDbBlockTableRecord
  2
*Model_Space
340
22
  0
BLOCK_RECORD
  5
1B
330
1
100
AcDbSymbolTableRecord
100
AcDbBlockTableRecord
  2
*Paper_Space
340
1E
  0
BLOCK_RECORD
  5
23
330
1
100
AcDbSymbolTableRecord
100
AcDbBlockTableRecord
  2
*Paper_Space0
340
26
  0
ENDTAB
  0
ENDSEC
  0
SECTION
  2
BLOCKS
  0
BLOCK
  5
20
330
1F
100
AcDbEntity
  8
0
100
AcDbBlockBegin
  2
*Model_Space
 70
     0
 10
0.0
 20
0.0
 30
0.0
  3
*Model_Space
  1

  0
ENDBLK
  5
21
330
1F
100
AcDbEntity
  8
0
100
AcDbBlockEnd
  0
BLOCK
  5
1C
330
1B
100
AcDbEntity
 67
     1
  8
0
100
AcDbBlockBegin
  2
*Paper_Space
 70
     0
 10
0.0
 20
0.0
 30
0.0
  3
*Paper_Space
  1

  0
ENDBLK
  5
1D
330
1B
100
AcDbEntity
 67
     1
  8
0
100
AcDbBlockEnd
  0
BLOCK
  5
24
330
23
100
AcDbEntity
  8
0
100
AcDbBlockBegin
  2
*Paper_Space0
 70
     0
 10
0.0
 20
0.0
 30
0.0
  3
*Paper_Space0
  1

  0
ENDBLK
  5
25
330
23
100
AcDbEntity
  8
0
100
AcDbBlockEnd
  0
ENDSEC
  0
SECTION
  2
ENTITIES
  0
SPLINE
  5
41
330
1F
100
AcDbEntity
  8
Layer 1
100
AcDbSpline
210
0.0
220
0.0
230
1.0
 70
    11
 71
     3
 72
    20
 73
    16
 74
     0
 42
0.0000000001
 43
0.0000000001
 40
0.0
 40
0.0
 40
0.0
 40
0.0
 40
0.2
 40
0.2
 40
0.2
 40
0.2
 40
0.4
 40
0.4
 40
0.4
 40
0.4
 40
0.6
 40
0.6
 40
0.6
 40
0.6
 40
1.0
 40
1.0
 40
1.0
 40
1.0
 10
-22.0126
 20
-77.4883
 30
0.0
 10
-22.0126
 20
-77.3423
 30
0.0
 10
-21.2439
 20
-76.2674
 30
0.0
 10
-20.3055
 20
-75.0986
 30
0.0
 10
-20.3055
 20
-75.0986
 30
0.0
 10
-17.6925
 20
-71.852
 30
0.0
 10
-12.4411
 20
-67.1943
 30
0.0
 10
-11.9475
 20
-67.6878
 30
0.0
 10
-11.9475
 20
-67.6878
 30
0.0
 10
-11.4543
 20
-68.181
 30
0.0
 10
-16.1107
 20
-73.4328
 30
0.0
 10
-19.3587
 20
-76.0455
 30
0.0
 10
-19.3587
 20
-76.0455
 30
0.0
 10
-21.4313
 20
-77.7131
 30
0.0
 10
-22.0126
 20
-78.0284
 30
0.0
 10
-22.0126
 20
-77.4883
 30
0.0
  0
SPLINE
  5
42
330
1F
100
AcDbEntity
  8
Layer 1
100
AcDbSpline
210
0.0
220
0.0
230
1.0
 70
    11
 71
     3
 72
    16
 73
    12
 74
     0
 42
0.0000000001
 43
0.0000000001
 40
0.0
 40
0.0
 40
0.0
 40
0.0
 40
0.25
 40
0.25
 40
0.25
 40
0.25
 40
0.5
 40
0.5
 40
0.5
 40
0.5
 40
1.0
 40
1.0
 40
1.0
 40
1.0
 10
18.2301
 20
-76.0455
 30
0.0
 10
14.9821
 20
-73.4328
 30
0.0
 10
10.3258
 20
-68.181
 30
0.0
 10
10.819
 20
-67.6878
 30
0.0
 10
10.819
 20
-67.6878
 30
0.0
 10
11.3122
 20
-67.1943
 30
0.0
 10
16.564
 20
-71.852
 30
0.0
 10
19.1752
 20
-75.0986
 30
0.0
 10
19.1752
 20
-75.0986
 30
0.0
 10
21.7784
 20
-78.3357
 30
0.0
 10
21.4658
 20
-78.6486
 30
0.0
 10
18.2301
 20
-76.0455
 30
0.0
  0
SPLINE
  5
43
330
1F
100
AcDbEntity
  8
Layer 1
100
AcDbSpline
210
0.0
220
0.0
230
1.0
 70
    11
 71
     3
 72
    20
 73
    16
 74
     0
 42
0.0000000001
 43
0.0000000001
 40
0.0
 40
0.0
 40
0.0
 40
0.0
 40
0.2
 40
0.2
 40
0.2
 40
0.2
 40
0.4
 40
0.4
 40
0.4
 40
0.4
 40
0.6
 40
0.6
 40
0.6
 40
0.6
 40
1.0
 40
1.0
 40
1.0
 40
1.0
 10
-55.5985
 20
-72.9724
 30
0.0
 10
-55.5985
 20
-72.8264
 30
0.0
 10
-54.8294
 20
-71.7515
 30
0.0
 10
-53.8896
 20
-70.5831
 30
0.0
 10
-53.8896
 20
-70.5831
 30
0.0
 10
-51.277
 20
-67.3365
 30
0.0
 10
-46.0252
 20
-62.6784
 30
0.0
 10
-45.5316
 20
-63.1719
 30
0.0
 10
-45.5316
 20
-63.1719
 30
0.0
 10
-45.0384
 20
-63.6651
 30
0.0
 10
-49.6948
 20
-68.9169
 30
0.0
 10
-52.9428
 20
-71.5296
 30
0.0
 10
-52.9428
 20
-71.5296
 30
0.0
 10
-55.0153
 20
-73.1972
 30
0.0
 10
-55.5985
 20
-73.514
 30
0.0
 10
-55.5985
 20
-72.9724
 30
0.0
  0
SPLINE
  5
44
330
1F
100
AcDbEntity
  8
Layer 1
100
AcDbSpline
210
0.0
220
0.0
230
1.0
 70
    11
 71
     3
 72
    16
 73
    12
 74
     0
 42
0.0000000001
 43
0.0000000001
 40
0.0
 40
0.0
 40
0.0
 40
0.0
 40
0.25
 40
0.25
 40
0.25
 40
0.25
 40
0.5
 40
0.5
 40
0.5
 40
0.5
 40
1.0
 40
1.0
 40
1.0
 40
1.0
 10
51.8142
 20
-71.5296
 30
0.0
 10
48.5662
 20
-68.9169
 30
0.0
 10
43.9099
 20
-63.6651
 30
0.0
 10
44.4031
 20
-63.1719
 30
0.0
 10
44.4031
 20
-63.1719
 30
0.0
 10
44.8966
 20
-62.6784
 30
0.0
 10
50.1481
 20
-67.3365
 30
0.0
 10
52.7611
 20
-70.5831
 30
0.0
 10
52.7611
 20
-70.5831
 30
0.0
 10
55.3642
 20
-73.8198
 30
0.0
 10
55.0499
 20
-74.1327
 30
0.0
 10
51.8142
 20
-71.5296
 30
0.0
  0
SPLINE
  5
45
330
1F
100
AcDbEntity
  8
Layer 1
100
AcDbSpline
210
0.0
220
0.0
230
1.0
 70
    11
 71
     3
 72
    20
 73
    16
 74
     0
 42
0.0000000001
 43
0.0000000001
 40
0.0
 40
0.0
 40
0.0
 40
0.0
 40
0.2
 40
0.2
 40
0.2
 40
0.2
 40
0.4
 40
0.4
 40
0.4
 40
0.4
 40
0.6
 40
0.6
 40
0.6
 40
0.6
 40
1.0
 40
1.0
 40
1.0
 40
1.0
 10
-35.2778
 20
-67.6106
 30
0.0
 10
-35.2778
 20
-67.4645
 30
0.0
 10
-34.5087
 20
-66.3896
 30
0.0
 10
-33.5689
 20
-65.2209
 30
0.0
 10
-33.5689
 20
-65.2209
 30
0.0
 10
-30.9563
 20
-61.9742
 30
0.0
 10
-25.7045
 20
-57.3165
 30
0.0
 10
-25.2113
 20
-57.81
 30
0.0
 10
-25.2113
 20
-57.81
 30
0.0
 10
-24.7177
 20
-58.3032
 30
0.0
 10
-29.3758
 20
-63.555
 30
0.0
 10
-32.6224
 20
-66.1677
 30
0.0
 10
-32.6224
 20
-66.1677
 30
0.0
 10
-34.695
 20
-67.8353
 30
0.0
 10
-35.2778
 20
-68.1507
 30
0.0
 10
-35.2778
 20
-67.6106
 30
0.0
  0
SPLINE
  5
46
330
1F
100
AcDbEntity
  8
Layer 1
100
AcDbSpline
210
0.0
220
0.0
230
1.0
 70
    11
 71
     3
 72
    16
 73
    12
 74
     0
 42
0.0000000001
 43
0.0000000001
 40
0.0
 40
0.0
 40
0.0
 40
0.0
 40
0.25
 40
0.25
 40
0.25
 40
0.25
 40
0.5
 40
0.5
 40
0.5
 40
0.5
 40
1.0
 40
1.0
 40
1.0
 40
1.0
 10
31.4935
 20
-66.1677
 30
0.0
 10
28.2469
 20
-63.555
 30
0.0
 10
23.5892
 20
-58.3032
 30
0.0
 10
24.0827
 20
-57.81
 30
0.0
 10
24.0827
 20
-57.81
 30
0.0
 10
24.5759
 20
-57.3165
 30
0.0
 10
29.8277
 20
-61.9742
 30
0.0
 10
32.4404
 20
-65.2209
 30
0.0
 10
32.4404
 20
-65.2209
 30
0.0
 10
35.0435
 20
-68.4579
 30
0.0
 10
34.7306
 20
-68.7709
 30
0.0
 10
31.4935
 20
-66.1677
 30
0.0
  0
SPLINE
  5
47
330
1F
100
AcDbEntity
  8
Layer 1
100
AcDbSpline
210
0.0
220
0.0
230
1.0
 70
    11
 71
     3
 72
    28
 73
    24
 74
     0
 42
0.0000000001
 43
0.0000000001
 40
0.0
 40
0.0
 40
0.0
 40
0.0
 40
0.1428571428571428
 40
0.1428571428571428
 40
0.1428571428571428
 40
0.1428571428571428
 40
0.2857142857142857
 40
0.2857142857142857
 40
0.2857142857142857
 40
0.2857142857142857
 40
0.4285714285714285
 40
0.4285714285714285
 40
0.4285714285714285
 40
0.4285714285714285
 40
0.5714285714285714
 40
0.5714285714285714
 40
0.5714285714285714
 40
0.5714285714285714
 40
0.7142857142857143
 40
0.7142857142857143
 40
0.7142857142857143
 40
0.7142857142857143
 40
1.0
 40
1.0
 40
1.0
 40
1.0
 10
-10.0912
 20
-64.208
 30
0.0
 10
-11.3785
 20
-63.4242
 30
0.0
 10
-12.1338
 20
-62.0667
 30
0.0
 10
-12.1338
 20
-60.5384
 30
0.0
 10
-12.1338
 20
-60.5384
 30
0.0
 10
-12.1338
 20
-59.0102
 30
0.0
 10
-11.3785
 20
-57.6527
 30
0.0
 10
-10.0912
 20
-56.8674
 30
0.0
 10
-10.0912
 20
-56.8674
 30
0.0
 10
-8.1661
 20
-55.6934
 30
0.0
 10
-5.4282
 20
-56.3852
 30
0.0
 10
-4.2319
 20
-58.3487
 30
0.0
 10
-4.2319
 20
-58.3487
 30
0.0
 10
-3.0579
 20
-60.2738
 30
0.0
 10
-3.7497
 20
-63.0121
 30
0.0
 10
-5.7118
 20
-64.208
 30
0.0
 10
-5.7118
 20
-64.208
 30
0.0
 10
-6.2699
 20
-64.5485
 30
0.0
 10
-7.1314
 20
-64.7689
 30
0.0
 10
-7.9015
 20
-64.7689
 30
0.0
 10
-7.9015
 20
-64.7689
 30
0.0
 10
-8.6734
 20
-64.7689
 30
0.0
 10
-9.5345
 20
-64.5485
 30
0.0
 10
-10.0912
 20
-64.208
 30
0.0
  0
SPLINE
  5
48
330
1F
100
AcDbEntity
  8
Layer 1
100
AcDbSpline
210
0.0
220
0.0
230
1.0
 70
    11
 71
     3
 72
    28
 73
    24
 74
     0
 42
0.0000000001
 43
0.0000000001
 40
0.0
 40
0.0
 40
0.0
 40
0.0
 40
0.1428571428571428
 40
0.1428571428571428
 40
0.1428571428571428
 40
0.1428571428571428
 40
0.2857142857142857
 40
0.2857142857142857
 40
0.2857142857142857
 40
0.2857142857142857
 40
0.4285714285714285
 40
0.4285714285714285
 40
0.4285714285714285
 40
0.4285714285714285
 40
0.5714285714285714
 40
0.5714285714285714
 40
0.5714285714285714
 40
0.5714285714285714
 40
0.7142857142857143
 40
0.7142857142857143
 40
0.7142857142857143
 40
0.7142857142857143
 40
1.0
 40
1.0
 40
1.0
 40
1.0
 10
4.5833
 20
-64.208
 30
0.0
 10
3.2978
 20
-63.4242
 30
0.0
 10
2.5425
 20
-62.0667
 30
0.0
 10
2.5425
 20
-60.5384
 30
0.0
 10
2.5425
 20
-60.5384
 30
0.0
 10
2.5425
 20
-59.0102
 30
0.0
 10
3.2978
 20
-57.6527
 30
0.0
 10
4.5833
 20
-56.8674
 30
0.0
 10
4.5833
 20
-56.8674
 30
0.0
 10
6.5098
 20
-55.6934
 30
0.0
 10
9.2467
 20
-56.3852
 30
0.0
 10
10.444
 20
-58.3487
 30
0.0
 10
10.444
 20
-58.3487
 30
0.0
 10
11.6184
 20
-60.2738
 30
0.0
 10
10.9266
 20
-63.0121
 30
0.0
 10
8.9627
 20
-64.208
 30
0.0
 10
8.9627
 20
-64.208
 30
0.0
 10
8.4046
 20
-64.5485
 30
0.0
 10
7.5434
 20
-64.7689
 30
0.0
 10
6.773
 20
-64.7689
 30
0.0
 10
6.773
 20
-64.7689
 30
0.0
 10
6.0029
 20
-64.7689
 30
0.0
 10
5.1414
 20
-64.5485
 30
0.0
 10
4.5833
 20
-64.208
 30
0.0
  0
SPLINE
  5
49
330
1F
100
AcDbEntity
  8
Layer 1
100
AcDbSpline
210
0.0
220
0.0
230
1.0
 70
    11
 71
     3
 72
    20
 73
    16
 74
     0
 42
0.0000000001
 43
0.0000000001
 40
0.0
 40
0.0
 40
0.0
 40
0.0
 40
0.2
 40
0.2
 40
0.2
 40
0.2
 40
0.4
 40
0.4
 40
0.4
 40
0.4
 40
0.6
 40
0.6
 40
0.6
 40
0.6
 40
1.0
 40
1.0
 40
1.0
 40
1.0
 10
-53.3397
 20
-58.5802
 30
0.0
 10
-53.3397
 20
-58.4341
 30
0.0
 10
-52.5709
 20
-57.3578
 30
0.0
 10
-51.6308
 20
-56.1908
 30
0.0
 10
-51.6308
 20
-56.1908
 30
0.0
 10
-49.0195
 20
-52.9428
 30
0.0
 10
-43.7677
 20
-48.2865
 30
0.0
 10
-43.2746
 20
-48.7796
 30
0.0
 10
-43.2746
 20
-48.7796
 30
0.0
 10
-42.7814
 20
-49.2728
 30
0.0
 10
-47.4377
 20
-54.5246
 30
0.0
 10
-50.6857
 20
-57.1359
 30
0.0
 10
-50.6857
 20
-57.1359
 30
0.0
 10
-52.7569
 20
-58.8035
 30
0.0
 10
-53.3397
 20
-59.1203
 30
0.0
 10
-53.3397
 20
-58.5802
 30
0.0
  0
SPLINE
  5
4A
330
1F
100
AcDbEntity
  8
Layer 1
100
AcDbSpline
210
0.0
220
0.0
230
1.0
 70
    11
 71
     3
 72
    16
 73
    12
 74
     0
 42
0.0000000001
 43
0.0000000001
 40
0.0
 40
0.0
 40
0.0
 40
0.0
 40
0.25
 40
0.25
 40
0.25
 40
0.25
 40
0.5
 40
0.5
 40
0.5
 40
0.5
 40
1.0
 40
1.0
 40
1.0
 40
1.0
 10
49.5557
 20
-57.1359
 30
0.0
 10
46.3091
 20
-54.5246
 30
0.0
 10
41.6511
 20
-49.2728
 30
0.0
 10
42.1446
 20
-48.7796
 30
0.0
 10
42.1446
 20
-48.7796
 30
0.0
 10
42.6378
 20
-48.2865
 30
0.0
 10
47.8896
 20
-52.9428
 30
0.0
 10
50.5022
 20
-56.1908
 30
0.0
 10
50.5022
 20
-56.1908
 30
0.0
 10
53.1054
 20
-59.4265
 30
0.0
 10
52.7925
 20
-59.739
 30
0.0
 10
49.5557
 20
-57.1359
 30
0.0
  0
SPLINE
  5
4B
330
1F
100
AcDbEntity
  8
Layer 1
100
AcDbSpline
210
0.0
220
0.0
230
1.0
 70
    11
 71
     3
 72
    20
 73
    16
 74
     0
 42
0.0000000001
 43
0.0000000001
 40
0.0
 40
0.0
 40
0.0
 40
0.0
 40
0.2
 40
0.2
 40
0.2
 40
0.2
 40
0.4
 40
0.4
 40
0.4
 40
0.4
 40
0.6
 40
0.6
 40
0.6
 40
0.6
 40
1.0
 40
1.0
 40
1.0
 40
1.0
 10
-75.354
 20
-55.4754
 30
0.0
 10
-75.354
 20
-55.3293
 30
0.0
 10
-74.585
 20
-54.2548
 30
0.0
 10
-73.6452
 20
-53.086
 30
0.0
 10
-73.6452
 20
-53.086
 30
0.0
 10
-71.0325
 20
-49.838
 30
0.0
 10
-65.7807
 20
-45.1817
 30
0.0
 10
-65.2872
 20
-45.6748
 30
0.0
 10
-65.2872
 20
-45.6748
 30
0.0
 10
-64.794
 20
-46.1684
 30
0.0
 10
-69.4503
 20
-51.4198
 30
0.0
 10
-72.6983
 20
-54.0329
 30
0.0
 10
-72.6983
 20
-54.0329
 30
0.0
 10
-74.7709
 20
-55.6987
 30
0.0
 10
-75.354
 20
-56.0158
 30
0.0
 10
-75.354
 20
-55.4754
 30
0.0
  0
SPLINE
  5
4C
330
1F
100
AcDbEntity
  8
Layer 1
100
AcDbSpline
210
0.0
220
0.0
230
1.0
 70
    11
 71
     3
 72
    28
 73
    24
 74
     0
 42
0.0000000001
 43
0.0000000001
 40
0.0
 40
0.0
 40
0.0
 40
0.0
 40
0.1428571428571428
 40
0.1428571428571428
 40
0.1428571428571428
 40
0.1428571428571428
 40
0.2857142857142857
 40
0.2857142857142857
 40
0.2857142857142857
 40
0.2857142857142857
 40
0.4285714285714285
 40
0.4285714285714285
 40
0.4285714285714285
 40
0.4285714285714285
 40
0.5714285714285714
 40
0.5714285714285714
 40
0.5714285714285714
 40
0.5714285714285714
 40
0.7142857142857143
 40
0.7142857142857143
 40
0.7142857142857143
 40
0.7142857142857143
 40
1.0
 40
1.0
 40
1.0
 40
1.0
 10
-35.2104
 20
-55.178
 30
0.0
 10
-36.4959
 20
-54.3937
 30
0.0
 10
-37.2512
 20
-53.0348
 30
0.0
 10
-37.2512
 20
-51.5066
 30
0.0
 10
-37.2512
 20
-51.5066
 30
0.0
 10
-37.2512
 20
-49.9784
 30
0.0
 10
-36.4959
 20
-48.6212
 30
0.0
 10
-35.2104
 20
-47.837
 30
0.0
 10
-35.2104
 20
-47.837
 30
0.0
 10
-33.2839
 20
-46.663
 30
0.0
 10
-30.547
 20
-47.3548
 30
0.0
 10
-29.3494
 20
-49.3169
 30
0.0
 10
-29.3494
 20
-49.3169
 30
0.0
 10
-28.1753
 20
-51.2434
 30
0.0
 10
-28.8671
 20
-53.9803
 30
0.0
 10
-30.831
 20
-55.178
 30
0.0
 10
-30.831
 20
-55.178
 30
0.0
 10
-31.3877
 20
-55.5184
 30
0.0
 10
-32.2488
 20
-55.7389
 30
0.0
 10
-33.0207
 20
-55.7389
 30
0.0
 10
-33.0207
 20
-55.7389
 30
0.0
 10
-33.7908
 20
-55.7389
 30
0.0
 10
-34.6523
 20
-55.5184
 30
0.0
 10
-35.2104
 20
-55.178
 30
0.0
  0
SPLINE
  5
4D
330
1F
100
AcDbEntity
  8
Layer 1
100
AcDbSpline
210
0.0
220
0.0
230
1.0
 70
    11
 71
     3
 72
    28
 73
    24
 74
     0
 42
0.0000000001
 43
0.0000000001
 40
0.0
 40
0.0
 40
0.0
 40
0.0
 40
0.1428571428571428
 40
0.1428571428571428
 40
0.1428571428571428
 40
0.1428571428571428
 40
0.2857142857142857
 40
0.2857142857142857
 40
0.2857142857142857
 40
0.2857142857142857
 40
0.4285714285714285
 40
0.4285714285714285
 40
0.4285714285714285
 40
0.4285714285714285
 40
0.5714285714285714
 40
0.5714285714285714
 40
0.5714285714285714
 40
0.5714285714285714
 40
0.7142857142857143
 40
0.7142857142857143
 40
0.7142857142857143
 40
0.7142857142857143
 40
1.0
 40
1.0
 40
1.0
 40
1.0
 10
29.7007
 20
-55.178
 30
0.0
 10
28.4152
 20
-54.3937
 30
0.0
 10
27.6599
 20
-53.0348
 30
0.0
 10
27.6599
 20
-51.5066
 30
0.0
 10
27.6599
 20
-51.5066
 30
0.0
 10
27.6599
 20
-49.9784
 30
0.0
 10
28.4152
 20
-48.6212
 30
0.0
 10
29.7007
 20
-47.837
 30
0.0
 10
29.7007
 20
-47.837
 30
0.0
 10
31.6272
 20
-46.663
 30
0.0
 10
34.3641
 20
-47.3548
 30
0.0
 10
35.5618
 20
-49.3169
 30
0.0
 10
35.5618
 20
-49.3169
 30
0.0
 10
36.7358
 20
-51.2434
 30
0.0
 10
36.044
 20
-53.9803
 30
0.0
 10
34.0801
 20
-55.178
 30
0.0
 10
34.0801
 20
-55.178
 30
0.0
 10
33.5234
 20
-55.5184
 30
0.0
 10
32.6623
 20
-55.7389
 30
0.0
 10
31.8904
 20
-55.7389
 30
0.0
 10
31.8904
 20
-55.7389
 30
0.0
 10
31.1203
 20
-55.7389
 30
0.0
 10
30.2588
 20
-55.5184
 30
0.0
 10
29.7007
 20
-55.178
 30
0.0
  0
SPLINE
  5
4E
330
1F
100
AcDbEntity
  8
Layer 1
100
AcDbSpline
210
0.0
220
0.0
230
1.0
 70
    11
 71
     3
 72
    16
 73
    12
 74
     0
 42
0.0000000001
 43
0.0000000001
 40
0.0
 40
0.0
 40
0.0
 40
0.0
 40
0.25
 40
0.25
 40
0.25
 40
0.25
 40
0.5
 40
0.5
 40
0.5
 40
0.5
 40
1.0
 40
1.0
 40
1.0
 40
1.0
 10
71.5698
 20
-54.0329
 30
0.0
 10
68.3218
 20
-51.4198
 30
0.0
 10
63.6654
 20
-46.1684
 30
0.0
 10
64.1586
 20
-45.6748
 30
0.0
 10
64.1586
 20
-45.6748
 30
0.0
 10
64.6522
 20
-45.1817
 30
0.0
 10
69.9036
 20
-49.838
 30
0.0
 10
72.5166
 20
-53.086
 30
0.0
 10
72.5166
 20
-53.086
 30
0.0
 10
75.1198
 20
-56.3217
 30
0.0
 10
74.8055
 20
-56.636
 30
0.0
 10
71.5698
 20
-54.0329
 30
0.0
  0
SPLINE
  5
4F
330
1F
100
AcDbEntity
  8
Layer 1
100
AcDbSpline
210
0.0
220
0.0
230
1.0
 70
    11
 71
     3
 72
    28
 73
    24
 74
     0
 42
0.0000000001
 43
0.0000000001
 40
0.0
 40
0.0
 40
0.0
 40
0.0
 40
0.1428571428571428
 40
0.1428571428571428
 40
0.1428571428571428
 40
0.1428571428571428
 40
0.2857142857142857
 40
0.2857142857142857
 40
0.2857142857142857
 40
0.2857142857142857
 40
0.4285714285714285
 40
0.4285714285714285
 40
0.4285714285714285
 40
0.4285714285714285
 40
0.5714285714285714
 40
0.5714285714285714
 40
0.5714285714285714
 40
0.5714285714285714
 40
0.7142857142857143
 40
0.7142857142857143
 40
0.7142857142857143
 40
0.7142857142857143
 40
1.0
 40
1.0
 40
1.0
 40
1.0
 10
-17.4241
 20
-52.6299
 30
0.0
 10
-18.5127
 20
-52.0058
 30
0.0
 10
-19.1244
 20
-51.3923
 30
0.0
 10
-19.7485
 20
-50.3036
 30
0.0
 10
-19.7485
 20
-50.3036
 30
0.0
 10
-21.5745
 20
-47.1219
 30
0.0
 10
-20.5412
 20
-43.1408
 30
0.0
 10
-17.4241
 20
-41.3533
 30
0.0
 10
-17.4241
 20
-41.3533
 30
0.0
 10
-14.2406
 20
-39.5273
 30
0.0
 10
-10.2609
 20
-40.5624
 30
0.0
 10
-8.4737
 20
-43.6795
 30
0.0
 10
-8.4737
 20
-43.6795
 30
0.0
 10
-6.6478
 20
-46.8626
 30
0.0
 10
-7.681
 20
-50.8427
 30
0.0
 10
-10.7982
 20
-52.6299
 30
0.0
 10
-10.7982
 20
-52.6299
 30
0.0
 10
-12.0248
 20
-53.334
 30
0.0
 10
-12.5885
 20
-53.4772
 30
0.0
 10
-14.1111
 20
-53.4772
 30
0.0
 10
-14.1111
 20
-53.4772
 30
0.0
 10
-15.6337
 20
-53.4772
 30
0.0
 10
-16.1974
 20
-53.334
 30
0.0
 10
-17.4241
 20
-52.6299
 30
0.0
  0
SPLINE
  5
50
330
1F
100
AcDbEntity
  8
Layer 1
100
AcDbSpline
210
0.0
220
0.0
230
1.0
 70
    11
 71
     3
 72
    28
 73
    24
 74
     0
 42
0.0000000001
 43
0.0000000001
 40
0.0
 40
0.0
 40
0.0
 40
0.0
 40
0.1428571428571428
 40
0.1428571428571428
 40
0.1428571428571428
 40
0.1428571428571428
 40
0.2857142857142857
 40
0.2857142857142857
 40
0.2857142857142857
 40
0.2857142857142857
 40
0.4285714285714285
 40
0.4285714285714285
 40
0.4285714285714285
 40
0.4285714285714285
 40
0.5714285714285714
 40
0.5714285714285714
 40
0.5714285714285714
 40
0.5714285714285714
 40
0.7142857142857143
 40
0.7142857142857143
 40
0.7142857142857143
 40
0.7142857142857143
 40
1.0
 40
1.0
 40
1.0
 40
1.0
 10
9.6696
 20
-52.6299
 30
0.0
 10
8.581
 20
-52.0058
 30
0.0
 10
7.9678
 20
-51.3923
 30
0.0
 10
7.3434
 20
-50.3036
 30
0.0
 10
7.3434
 20
-50.3036
 30
0.0
 10
5.5192
 20
-47.1219
 30
0.0
 10
6.5525
 20
-43.1408
 30
0.0
 10
9.6696
 20
-41.3533
 30
0.0
 10
9.6696
 20
-41.3533
 30
0.0
 10
12.8531
 20
-39.5273
 30
0.0
 10
16.8328
 20
-40.5624
 30
0.0
 10
18.62
 20
-43.6795
 30
0.0
 10
18.62
 20
-43.6795
 30
0.0
 10
20.4459
 20
-46.8626
 30
0.0
 10
19.4109
 20
-50.8427
 30
0.0
 10
16.2952
 20
-52.6299
 30
0.0
 10
16.2952
 20
-52.6299
 30
0.0
 10
15.0675
 20
-53.334
 30
0.0
 10
14.5052
 20
-53.4772
 30
0.0
 10
12.9826
 20
-53.4772
 30
0.0
 10
12.9826
 20
-53.4772
 30
0.0
 10
11.4596
 20
-53.4772
 30
0.0
 10
10.8962
 20
-53.334
 30
0.0
 10
9.6696
 20
-52.6299
 30
0.0
  0
SPLINE
  5
51
330
1F
100
AcDbEntity
  8
Layer 1
100
AcDbSpline
210
0.0
220
0.0
230
1.0
 70
    11
 71
     3
 72
    20
 73
    16
 74
     0
 42
0.0000000001
 43
0.0000000001
 40
0.0
 40
0.0
 40
0.0
 40
0.0
 40
0.2
 40
0.2
 40
0.2
 40
0.2
 40
0.4
 40
0.4
 40
0.4
 40
0.4
 40
0.6
 40
0.6
 40
0.6
 40
0.6
 40
1.0
 40
1.0
 40
1.0
 40
1.0
 10
-94.2619
 20
-51.5246
 30
0.0
 10
-94.2619
 20
-51.3786
 30
0.0
 10
-93.4932
 20
-50.3022
 30
0.0
 10
-92.553
 20
-49.1352
 30
0.0
 10
-92.553
 20
-49.1352
 30
0.0
 10
-89.9418
 20
-45.8872
 30
0.0
 10
-84.69
 20
-41.2309
 30
0.0
 10
-84.1968
 20
-41.7241
 30
0.0
 10
-84.1968
 20
-41.7241
 30
0.0
 10
-83.7036
 20
-42.2173
 30
0.0
 10
-88.3599
 20
-47.4691
 30
0.0
 10
-91.6079
 20
-50.0803
 30
0.0
 10
-91.6079
 20
-50.0803
 30
0.0
 10
-93.6791
 20
-51.7479
 30
0.0
 10
-94.2619
 20
-52.0647
 30
0.0
 10
-94.2619
 20
-51.5246
 30
0.0
  0
SPLINE
  5
52
330
1F
100
AcDbEntity
  8
Layer 1
100
AcDbSpline
210
0.0
220
0.0
230
1.0
 70
    11
 71
     3
 72
    16
 73
    12
 74
     0
 42
0.0000000001
 43
0.0000000001
 40
0.0
 40
0.0
 40
0.0
 40
0.0
 40
0.25
 40
0.25
 40
0.25
 40
0.25
 40
0.5
 40
0.5
 40
0.5
 40
0.5
 40
1.0
 40
1.0
 40
1.0
 40
1.0
 10
90.478
 20
-50.0803
 30
0.0
 10
87.2314
 20
-47.4691
 30
0.0
 10
82.5733
 20
-42.2173
 30
0.0
 10
83.0668
 20
-41.7241
 30
0.0
 10
83.0668
 20
-41.7241
 30
0.0
 10
83.56
 20
-41.2309
 30
0.0
 10
88.8118
 20
-45.8872
 30
0.0
 10
91.4245
 20
-49.1352
 30
0.0
 10
91.4245
 20
-49.1352
 30
0.0
 10
94.0276
 20
-52.3709
 30
0.0
 10
93.7147
 20
-52.6835
 30
0.0
 10
90.478
 20
-50.0803
 30
0.0
  0
SPLINE
  5
53
330
1F
100
AcDbEntity
  8
Layer 1
100
AcDbSpline
210
0.0
220
0.0
230
1.0
 70
    11
 71
     3
 72
    24
 73
    20
 74
     0
 42
0.0000000001
 43
0.0000000001
 40
0.0
 40
0.0
 40
0.0
 40
0.0
 40
0.1666666666666667
 40
0.1666666666666667
 40
0.1666666666666667
 40
0.1666666666666667
 40
0.3333333333333333
 40
0.3333333333333333
 40
0.3333333333333333
 40
0.3333333333333333
 40
0.5
 40
0.5
 40
0.5
 40
0.5
 40
0.6666666666666666
 40
0.6666666666666666
 40
0.6666666666666666
 40
0.6666666666666666
 40
1.0
 40
1.0
 40
1.0
 40
1.0
 10
-54.1129
 20
-42.7521
 30
0.0
 10
-56.2088
 20
-41.5505
 30
0.0
 10
-57.2865
 20
-39.6349
 30
0.0
 10
-57.2865
 20
-37.1147
 30
0.0
 10
-57.2865
 20
-37.1147
 30
0.0
 10
-57.2865
 20
-33.3167
 30
0.0
 10
-54.598
 20
-30.6282
 30
0.0
 10
-50.8
 20
-30.6282
 30
0.0
 10
-50.8
 20
-30.6282
 30
0.0
 10
-47.002
 20
-30.6282
 30
0.0
 10
-44.3135
 20
-33.3167
 30
0.0
 10
-44.3135
 20
-37.1147
 30
0.0
 10
-44.3135
 20
-37.1147
 30
0.0
 10
-44.3135
 20
-40.9109
 30
0.0
 10
-47.002
 20
-43.5995
 30
0.0
 10
-50.8
 20
-43.5995
 30
0.0
 10
-50.8
 20
-43.5995
 30
0.0
 10
-52.3226
 20
-43.5995
 30
0.0
 10
-52.8863
 20
-43.4562
 30
0.0
 10
-54.1129
 20
-42.7521
 30
0.0
  0
SPLINE
  5
54
330
1F
100
AcDbEntity
  8
Layer 1
100
AcDbSpline
210
0.0
220
0.0
230
1.0
 70
    11
 71
     3
 72
    28
 73
    24
 74
     0
 42
0.0000000001
 43
0.0000000001
 40
0.0
 40
0.0
 40
0.0
 40
0.0
 40
0.1428571428571428
 40
0.1428571428571428
 40
0.1428571428571428
 40
0.1428571428571428
 40
0.2857142857142857
 40
0.2857142857142857
 40
0.2857142857142857
 40
0.2857142857142857
 40
0.4285714285714285
 40
0.4285714285714285
 40
0.4285714285714285
 40
0.4285714285714285
 40
0.5714285714285714
 40
0.5714285714285714
 40
0.5714285714285714
 40
0.5714285714285714
 40
0.7142857142857143
 40
0.7142857142857143
 40
0.7142857142857143
 40
0.7142857142857143
 40
1.0
 40
1.0
 40
1.0
 40
1.0
 10
46.3585
 20
-42.7521
 30
0.0
 10
45.2698
 20
-42.128
 30
0.0
 10
44.6567
 20
-41.5145
 30
0.0
 10
44.0323
 20
-40.4259
 30
0.0
 10
44.0323
 20
-40.4259
 30
0.0
 10
42.2081
 20
-37.2442
 30
0.0
 10
43.2414
 20
-33.2631
 30
0.0
 10
46.3585
 20
-31.4755
 30
0.0
 10
46.3585
 20
-31.4755
 30
0.0
 10
49.542
 20
-29.6496
 30
0.0
 10
53.5217
 20
-30.6846
 30
0.0
 10
55.3088
 20
-33.8018
 30
0.0
 10
55.3088
 20
-33.8018
 30
0.0
 10
57.1348
 20
-36.9849
 30
0.0
 10
56.0998
 20
-40.9649
 30
0.0
 10
52.984
 20
-42.7521
 30
0.0
 10
52.984
 20
-42.7521
 30
0.0
 10
51.7564
 20
-43.4562
 30
0.0
 10
51.194
 20
-43.5995
 30
0.0
 10
49.6715
 20
-43.5995
 30
0.0
 10
49.6715
 20
-43.5995
 30
0.0
 10
48.1485
 20
-43.5995
 30
0.0
 10
47.5851
 20
-43.4562
 30
0.0
 10
46.3585
 20
-42.7521
 30
0.0
  0
SPLINE
  5
55
330
1F
100
AcDbEntity
  8
Layer 1
100
AcDbSpline
210
0.0
220
0.0
230
1.0
 70
    11
 71
     3
 72
    28
 73
    24
 74
     0
 42
0.0000000001
 43
0.0000000001
 40
0.0
 40
0.0
 40
0.0
 40
0.0
 40
0.1428571428571428
 40
0.1428571428571428
 40
0.1428571428571428
 40
0.1428571428571428
 40
0.2857142857142857
 40
0.2857142857142857
 40
0.2857142857142857
 40
0.2857142857142857
 40
0.4285714285714285
 40
0.4285714285714285
 40
0.4285714285714285
 40
0.4285714285714285
 40
0.5714285714285714
 40
0.5714285714285714
 40
0.5714285714285714
 40
0.5714285714285714
 40
0.7142857142857143
 40
0.7142857142857143
 40
0.7142857142857143
 40
0.7142857142857143
 40
1.0
 40
1.0
 40
1.0
 40
1.0
 10
-30.6945
 20
-42.478
 30
0.0
 10
-31.98
 20
-41.6937
 30
0.0
 10
-32.7353
 20
-40.3348
 30
0.0
 10
-32.7353
 20
-38.8066
 30
0.0
 10
-32.7353
 20
-38.8066
 30
0.0
 10
-32.7353
 20
-37.2784
 30
0.0
 10
-31.98
 20
-35.9212
 30
0.0
 10
-30.6945
 20
-35.137
 30
0.0
 10
-30.6945
 20
-35.137
 30
0.0
 10
-28.768
 20
-33.963
 30
0.0
 10
-26.0311
 20
-34.6548
 30
0.0
 10
-24.8338
 20
-36.6169
 30
0.0
 10
-24.8338
 20
-36.6169
 30
0.0
 10
-23.6594
 20
-38.5434
 30
0.0
 10
-24.3512
 20
-41.2803
 30
0.0
 10
-26.3151
 20
-42.478
 30
0.0
 10
-26.3151
 20
-42.478
 30
0.0
 10
-26.8732
 20
-42.8184
 30
0.0
 10
-27.7343
 20
-43.0389
 30
0.0
 10
-28.5048
 20
-43.0389
 30
0.0
 10
-28.5048
 20
-43.0389
 30
0.0
 10
-29.2749
 20
-43.0389
 30
0.0
 10
-30.1364
 20
-42.8184
 30
0.0
 10
-30.6945
 20
-42.478
 30
0.0
  0
SPLINE
  5
56
330
1F
100
AcDbEntity
  8
Layer 1
100
AcDbSpline
210
0.0
220
0.0
230
1.0
 70
    11
 71
     3
 72
    28
 73
    24
 74
     0
 42
0.0000000001
 43
0.0000000001
 40
0.0
 40
0.0
 40
0.0
 40
0.0
 40
0.1428571428571428
 40
0.1428571428571428
 40
0.1428571428571428
 40
0.1428571428571428
 40
0.2857142857142857
 40
0.2857142857142857
 40
0.2857142857142857
 40
0.2857142857142857
 40
0.4285714285714285
 40
0.4285714285714285
 40
0.4285714285714285
 40
0.4285714285714285
 40
0.5714285714285714
 40
0.5714285714285714
 40
0.5714285714285714
 40
0.5714285714285714
 40
0.7142857142857143
 40
0.7142857142857143
 40
0.7142857142857143
 40
0.7142857142857143
 40
1.0
 40
1.0
 40
1.0
 40
1.0
 10
25.1866
 20
-42.478
 30
0.0
 10
23.8993
 20
-41.6937
 30
0.0
 10
23.144
 20
-40.3348
 30
0.0
 10
23.144
 20
-38.8066
 30
0.0
 10
23.144
 20
-38.8066
 30
0.0
 10
23.144
 20
-37.2784
 30
0.0
 10
23.8993
 20
-35.9212
 30
0.0
 10
25.1866
 20
-35.137
 30
0.0
 10
25.1866
 20
-35.137
 30
0.0
 10
27.1117
 20
-33.963
 30
0.0
 10
29.8496
 20
-34.6548
 30
0.0
 10
31.0459
 20
-36.6169
 30
0.0
 10
31.0459
 20
-36.6169
 30
0.0
 10
32.2199
 20
-38.5434
 30
0.0
 10
31.5281
 20
-41.2803
 30
0.0
 10
29.5659
 20
-42.478
 30
0.0
 10
29.5659
 20
-42.478
 30
0.0
 10
29.0079
 20
-42.8184
 30
0.0
 10
28.1464
 20
-43.0389
 30
0.0
 10
27.3763
 20
-43.0389
 30
0.0
 10
27.3763
 20
-43.0389
 30
0.0
 10
26.6044
 20
-43.0389
 30
0.0
 10
25.7432
 20
-42.8184
 30
0.0
 10
25.1866
 20
-42.478
 30
0.0
  0
SPLINE
  5
57
330
1F
100
AcDbEntity
  8
Layer 1
100
AcDbSpline
210
0.0
220
0.0
230
1.0
 70
    11
 71
     3
 72
    20
 73
    16
 74
     0
 42
0.0000000001
 43
0.0000000001
 40
0.0
 40
0.0
 40
0.0
 40
0.0
 40
0.2
 40
0.2
 40
0.2
 40
0.2
 40
0.4
 40
0.4
 40
0.4
 40
0.4
 40
0.6
 40
0.6
 40
0.6
 40
0.6
 40
1.0
 40
1.0
 40
1.0
 40
1.0
 10
-70.273
 20
-40.2357
 30
0.0
 10
-70.273
 20
-40.0897
 30
0.0
 10
-69.5043
 20
-39.0133
 30
0.0
 10
-68.5641
 20
-37.8464
 30
0.0
 10
-68.5641
 20
-37.8464
 30
0.0
 10
-65.9529
 20
-34.5983
 30
0.0
 10
-60.7011
 20
-29.942
 30
0.0
 10
-60.2079
 20
-30.4352
 30
0.0
 10
-60.2079
 20
-30.4352
 30
0.0
 10
-59.7147
 20
-30.9284
 30
0.0
 10
-64.371
 20
-36.1802
 30
0.0
 10
-67.619
 20
-38.7914
 30
0.0
 10
-67.619
 20
-38.7914
 30
0.0
 10
-69.6902
 20
-40.459
 30
0.0
 10
-70.273
 20
-40.7758
 30
0.0
 10
-70.273
 20
-40.2357
 30
0.0
  0
SPLINE
  5
58
330
1F
100
AcDbEntity
  8
Layer 1
100
AcDbSpline
210
0.0
220
0.0
230
1.0
 70
    11
 71
     3
 72
    16
 73
    12
 74
     0
 42
0.0000000001
 43
0.0000000001
 40
0.0
 40
0.0
 40
0.0
 40
0.0
 40
0.25
 40
0.25
 40
0.25
 40
0.25
 40
0.5
 40
0.5
 40
0.5
 40
0.5
 40
1.0
 40
1.0
 40
1.0
 40
1.0
 10
66.4891
 20
-38.7914
 30
0.0
 10
63.2425
 20
-36.1802
 30
0.0
 10
58.5844
 20
-30.9284
 30
0.0
 10
59.0779
 20
-30.4352
 30
0.0
 10
59.0779
 20
-30.4352
 30
0.0
 10
59.5711
 20
-29.942
 30
0.0
 10
64.8229
 20
-34.5983
 30
0.0
 10
67.4356
 20
-37.8464
 30
0.0
 10
67.4356
 20
-37.8464
 30
0.0
 10
70.0387
 20
-41.082
 30
0.0
 10
69.7258
 20
-41.3946
 30
0.0
 10
66.4891
 20
-38.7914
 30
0.0
  0
SPLINE
  5
59
330
1F
100
AcDbEntity
  8
Layer 1
100
AcDbSpline
210
0.0
220
0.0
230
1.0
 70
    11
 71
     3
 72
    20
 73
    16
 74
     0
 42
0.0000000001
 43
0.0000000001
 40
0.0
 40
0.0
 40
0.0
 40
0.0
 40
0.2
 40
0.2
 40
0.2
 40
0.2
 40
0.4
 40
0.4
 40
0.4
 40
0.4
 40
0.6
 40
0.6
 40
0.6
 40
0.6
 40
1.0
 40
1.0
 40
1.0
 40
1.0
 10
-96.2381
 20
-36.8487
 30
0.0
 10
-96.2381
 20
-36.7026
 30
0.0
 10
-95.4691
 20
-35.6277
 30
0.0
 10
-94.5293
 20
-34.459
 30
0.0
 10
-94.5293
 20
-34.459
 30
0.0
 10
-91.9166
 20
-31.211
 30
0.0
 10
-86.6648
 20
-26.5546
 30
0.0
 10
-86.1716
 20
-27.0478
 30
0.0
 10
-86.1716
 20
-27.0478
 30
0.0
 10
-85.6781
 20
-27.5414
 30
0.0
 10
-90.3358
 20
-32.7932
 30
0.0
 10
-93.5824
 20
-35.4058
 30
0.0
 10
-93.5824
 20
-35.4058
 30
0.0
 10
-95.655
 20
-37.0717
 30
0.0
 10
-96.2381
 20
-37.3888
 30
0.0
 10
-96.2381
 20
-36.8487
 30
0.0
  0
SPLINE
  5
5A
330
1F
100
AcDbEntity
  8
Layer 1
100
AcDbSpline
210
0.0
220
0.0
230
1.0
 70
    11
 71
     3
 72
    16
 73
    12
 74
     0
 42
0.0000000001
 43
0.0000000001
 40
0.0
 40
0.0
 40
0.0
 40
0.0
 40
0.25
 40
0.25
 40
0.25
 40
0.25
 40
0.5
 40
0.5
 40
0.5
 40
0.5
 40
1.0
 40
1.0
 40
1.0
 40
1.0
 10
92.4539
 20
-35.4058
 30
0.0
 10
89.2059
 20
-32.7932
 30
0.0
 10
84.5495
 20
-27.5414
 30
0.0
 10
85.0427
 20
-27.0478
 30
0.0
 10
85.0427
 20
-27.0478
 30
0.0
 10
85.5363
 20
-26.5546
 30
0.0
 10
90.7881
 20
-31.211
 30
0.0
 10
93.4007
 20
-34.459
 30
0.0
 10
93.4007
 20
-34.459
 30
0.0
 10
96.0039
 20
-37.6947
 30
0.0
 10
95.6896
 20
-38.009
 30
0.0
 10
92.4539
 20
-35.4058
 30
0.0
  0
SPLINE
  5
5B
330
1F
100
AcDbEntity
  8
Layer 1
100
AcDbSpline
210
0.0
220
0.0
230
1.0
 70
    11
 71
     3
 72
    16
 73
    12
 74
     0
 42
0.0000000001
 43
0.0000000001
 40
0.0
 40
0.0
 40
0.0
 40
0.0
 40
0.25
 40
0.25
 40
0.25
 40
0.25
 40
0.5
 40
0.5
 40
0.5
 40
0.5
 40
1.0
 40
1.0
 40
1.0
 40
1.0
 10
-14.49
 20
-34.3404
 30
0.0
 10
-15.1074
 20
-33.6585
 30
0.0
 10
-15.0841
 20
-32.5187
 30
0.0
 10
-14.4417
 20
-31.9373
 30
0.0
 10
-14.4417
 20
-31.9373
 30
0.0
 10
-13.323
 20
-30.9245
 30
0.0
 10
-11.5715
 20
-31.7017
 30
0.0
 10
-11.5715
 20
-33.2119
 30
0.0
 10
-11.5715
 20
-33.2119
 30
0.0
 10
-11.5715
 20
-34.6576
 30
0.0
 10
-13.5213
 20
-35.4111
 30
0.0
 10
-14.49
 20
-34.3404
 30
0.0
  0
SPLINE
  5
5C
330
1F
100
AcDbEntity
  8
Layer 1
100
AcDbSpline
210
0.0
220
0.0
230
1.0
 70
    11
 71
     3
 72
    16
 73
    12
 74
     0
 42
0.0000000001
 43
0.0000000001
 40
0.0
 40
0.0
 40
0.0
 40
0.0
 40
0.25
 40
0.25
 40
0.25
 40
0.25
 40
0.5
 40
0.5
 40
0.5
 40
0.5
 40
1.0
 40
1.0
 40
1.0
 40
1.0
 10
10.91
 20
-34.3404
 30
0.0
 10
10.2926
 20
-33.6585
 30
0.0
 10
10.3159
 20
-32.5187
 30
0.0
 10
10.9583
 20
-31.9373
 30
0.0
 10
10.9583
 20
-31.9373
 30
0.0
 10
12.077
 20
-30.9245
 30
0.0
 10
13.8285
 20
-31.7017
 30
0.0
 10
13.8285
 20
-33.2119
 30
0.0
 10
13.8285
 20
-33.2119
 30
0.0
 10
13.8285
 20
-34.6576
 30
0.0
 10
11.8787
 20
-35.4111
 30
0.0
 10
10.91
 20
-34.3404
 30
0.0
  0
SPLINE
  5
5D
330
1F
100
AcDbEntity
  8
Layer 1
100
AcDbSpline
210
0.0
220
0.0
230
1.0
 70
    11
 71
     3
 72
    20
 73
    16
 74
     0
 42
0.0000000001
 43
0.0000000001
 40
0.0
 40
0.0
 40
0.0
 40
0.0
 40
0.2
 40
0.2
 40
0.2
 40
0.2
 40
0.4
 40
0.4
 40
0.4
 40
0.4
 40
0.6
 40
0.6
 40
0.6
 40
0.6
 40
1.0
 40
1.0
 40
1.0
 40
1.0
 10
-75.8501
 20
-33.1636
 30
0.0
 10
-79.5211
 20
-30.9259
 30
0.0
 10
-77.9515
 20
-25.2635
 30
0.0
 10
-73.6604
 20
-25.2635
 30
0.0
 10
-73.6604
 20
-25.2635
 30
0.0
 10
-71.2516
 20
-25.2635
 30
0.0
 10
-69.4284
 20
-27.0866
 30
0.0
 10
-69.4284
 20
-29.494
 30
0.0
 10
-69.4284
 20
-29.494
 30
0.0
 10
-69.4284
 20
-31.9013
 30
0.0
 10
-71.2516
 20
-33.7245
 30
0.0
 10
-73.6604
 20
-33.7245
 30
0.0
 10
-73.6604
 20
-33.7245
 30
0.0
 10
-74.4305
 20
-33.7245
 30
0.0
 10
-75.292
 20
-33.504
 30
0.0
 10
-75.8501
 20
-33.1636
 30
0.0
  0
SPLINE
  5
5E
330
1F
100
AcDbEntity
  8
Layer 1
100
AcDbSpline
210
0.0
220
0.0
230
1.0
 70
    11
 71
     3
 72
    28
 73
    24
 74
     0
 42
0.0000000001
 43
0.0000000001
 40
0.0
 40
0.0
 40
0.0
 40
0.0
 40
0.1428571428571428
 40
0.1428571428571428
 40
0.1428571428571428
 40
0.1428571428571428
 40
0.2857142857142857
 40
0.2857142857142857
 40
0.2857142857142857
 40
0.2857142857142857
 40
0.4285714285714285
 40
0.4285714285714285
 40
0.4285714285714285
 40
0.4285714285714285
 40
0.5714285714285714
 40
0.5714285714285714
 40
0.5714285714285714
 40
0.5714285714285714
 40
0.7142857142857143
 40
0.7142857142857143
 40
0.7142857142857143
 40
0.7142857142857143
 40
1.0
 40
1.0
 40
1.0
 40
1.0
 10
70.3421
 20
-33.1636
 30
0.0
 10
69.0548
 20
-32.3797
 30
0.0
 10
68.2995
 20
-31.0222
 30
0.0
 10
68.2995
 20
-29.494
 30
0.0
 10
68.2995
 20
-29.494
 30
0.0
 10
68.2995
 20
-27.9658
 30
0.0
 10
69.0548
 20
-26.6083
 30
0.0
 10
70.3421
 20
-25.823
 30
0.0
 10
70.3421
 20
-25.823
 30
0.0
 10
72.2672
 20
-24.6489
 30
0.0
 10
75.0051
 20
-25.3407
 30
0.0
 10
76.2014
 20
-27.3043
 30
0.0
 10
76.2014
 20
-27.3043
 30
0.0
 10
77.3755
 20
-29.2294
 30
0.0
 10
76.6837
 20
-31.9677
 30
0.0
 10
74.7215
 20
-33.1636
 30
0.0
 10
74.7215
 20
-33.1636
 30
0.0
 10
74.1634
 20
-33.504
 30
0.0
 10
73.3019
 20
-33.7245
 30
0.0
 10
72.5318
 20
-33.7245
 30
0.0
 10
72.5318
 20
-33.7245
 30
0.0
 10
71.7599
 20
-33.7245
 30
0.0
 10
70.8988
 20
-33.504
 30
0.0
 10
70.3421
 20
-33.1636
 30
0.0
  0
SPLINE
  5
5F
330
1F
100
AcDbEntity
  8
Layer 1
100
AcDbSpline
210
0.0
220
0.0
230
1.0
 70
    11
 71
     3
 72
    16
 73
    12
 74
     0
 42
0.0000000001
 43
0.0000000001
 40
0.0
 40
0.0
 40
0.0
 40
0.0
 40
0.25
 40
0.25
 40
0.25
 40
0.25
 40
0.5
 40
0.5
 40
0.5
 40
0.5
 40
1.0
 40
1.0
 40
1.0
 40
1.0
 10
-6.0233
 20
-30.9534
 30
0.0
 10
-6.6407
 20
-30.2712
 30
0.0
 10
-6.6174
 20
-29.1317
 30
0.0
 10
-5.975
 20
-28.55
 30
0.0
 10
-5.975
 20
-28.55
 30
0.0
 10
-4.8563
 20
-27.5371
 30
0.0
 10
-3.1048
 20
-28.3157
 30
0.0
 10
-3.1048
 20
-29.8249
 30
0.0
 10
-3.1048
 20
-29.8249
 30
0.0
 10
-3.1048
 20
-31.2702
 30
0.0
 10
-5.0546
 20
-32.0241
 30
0.0
 10
-6.0233
 20
-30.9534
 30
0.0
  0
SPLINE
  5
60
330
1F
100
AcDbEntity
  8
Layer 1
100
AcDbSpline
210
0.0
220
0.0
230
1.0
 70
    11
 71
     3
 72
    16
 73
    12
 74
     0
 42
0.0000000001
 43
0.0000000001
 40
0.0
 40
0.0
 40
0.0
 40
0.0
 40
0.25
 40
0.25
 40
0.25
 40
0.25
 40
0.5
 40
0.5
 40
0.5
 40
0.5
 40
1.0
 40
1.0
 40
1.0
 40
1.0
 10
2.4433
 20
-30.9534
 30
0.0
 10
1.826
 20
-30.2712
 30
0.0
 10
1.8493
 20
-29.1317
 30
0.0
 10
2.4917
 20
-28.55
 30
0.0
 10
2.4917
 20
-28.55
 30
0.0
 10
3.6103
 20
-27.5371
 30
0.0
 10
5.3619
 20
-28.3157
 30
0.0
 10
5.3619
 20
-29.8249
 30
0.0
 10
5.3619
 20
-29.8249
 30
0.0
 10
5.3619
 20
-31.2702
 30
0.0
 10
3.4121
 20
-32.0241
 30
0.0
 10
2.4433
 20
-30.9534
 30
0.0
  0
SPLINE
  5
61
330
1F
100
AcDbEntity
  8
Layer 1
100
AcDbSpline
210
0.0
220
0.0
230
1.0
 70
    11
 71
     3
 72
    16
 73
    12
 74
     0
 42
0.0000000001
 43
0.0000000001
 40
0.0
 40
0.0
 40
0.0
 40
0.0
 40
0.25
 40
0.25
 40
0.25
 40
0.25
 40
0.5
 40
0.5
 40
0.5
 40
0.5
 40
1.0
 40
1.0
 40
1.0
 40
1.0
 10
-22.1107
 20
-28.696
 30
0.0
 10
-22.7281
 20
-28.0141
 30
0.0
 10
-22.7044
 20
-26.8743
 30
0.0
 10
-22.061
 20
-26.2929
 30
0.0
 10
-22.061
 20
-26.2929
 30
0.0
 10
-20.9434
 20
-25.2801
 30
0.0
 10
-19.1904
 20
-26.0572
 30
0.0
 10
-19.1904
 20
-27.5675
 30
0.0
 10
-19.1904
 20
-27.5675
 30
0.0
 10
-19.1904
 20
-29.0131
 30
0.0
 10
-21.142
 20
-29.7667
 30
0.0
 10
-22.1107
 20
-28.696
 30
0.0
  0
SPLINE
  5
62
330
1F
100
AcDbEntity
  8
Layer 1
100
AcDbSpline
210
0.0
220
0.0
230
1.0
 70
    11
 71
     3
 72
    16
 73
    12
 74
     0
 42
0.0000000001
 43
0.0000000001
 40
0.0
 40
0.0
 40
0.0
 40
0.0
 40
0.25
 40
0.25
 40
0.25
 40
0.25
 40
0.5
 40
0.5
 40
0.5
 40
0.5
 40
1.0
 40
1.0
 40
1.0
 40
1.0
 10
18.5289
 20
-28.696
 30
0.0
 10
17.913
 20
-28.0141
 30
0.0
 10
17.9352
 20
-26.8743
 30
0.0
 10
18.5787
 20
-26.2929
 30
0.0
 10
18.5787
 20
-26.2929
 30
0.0
 10
19.6977
 20
-25.2801
 30
0.0
 10
21.4492
 20
-26.0572
 30
0.0
 10
21.4492
 20
-27.5675
 30
0.0
 10
21.4492
 20
-27.5675
 30
0.0
 10
21.4492
 20
-29.0131
 30
0.0
 10
19.498
 20
-29.7667
 30
0.0
 10
18.5289
 20
-28.696
 30
0.0
  0
SPLINE
  5
63
330
1F
100
AcDbEntity
  8
Layer 1
100
AcDbSpline
210
0.0
220
0.0
230
1.0
 70
    11
 71
     3
 72
    16
 73
    12
 74
     0
 42
0.0000000001
 43
0.0000000001
 40
0.0
 40
0.0
 40
0.0
 40
0.0
 40
0.25
 40
0.25
 40
0.25
 40
0.25
 40
0.5
 40
0.5
 40
0.5
 40
0.5
 40
1.0
 40
1.0
 40
1.0
 40
1.0
 10
-39.044
 20
-26.7201
 30
0.0
 10
-39.6614
 20
-26.0378
 30
0.0
 10
-39.6378
 20
-24.8984
 30
0.0
 10
-38.9943
 20
-24.3166
 30
0.0
 10
-38.9943
 20
-24.3166
 30
0.0
 10
-37.8767
 20
-23.3038
 30
0.0
 10
-36.1237
 20
-24.0824
 30
0.0
 10
-36.1237
 20
-25.5916
 30
0.0
 10
-36.1237
 20
-25.5916
 30
0.0
 10
-36.1237
 20
-27.0369
 30
0.0
 10
-38.0753
 20
-27.7908
 30
0.0
 10
-39.044
 20
-26.7201
 30
0.0
  0
SPLINE
  5
64
330
1F
100
AcDbEntity
  8
Layer 1
100
AcDbSpline
210
0.0
220
0.0
230
1.0
 70
    11
 71
     3
 72
    16
 73
    12
 74
     0
 42
0.0000000001
 43
0.0000000001
 40
0.0
 40
0.0
 40
0.0
 40
0.0
 40
0.25
 40
0.25
 40
0.25
 40
0.25
 40
0.5
 40
0.5
 40
0.5
 40
0.5
 40
1.0
 40
1.0
 40
1.0
 40
1.0
 10
35.4623
 20
-26.7201
 30
0.0
 10
34.8463
 20
-26.0378
 30
0.0
 10
34.8686
 20
-24.8984
 30
0.0
 10
35.512
 20
-24.3166
 30
0.0
 10
35.512
 20
-24.3166
 30
0.0
 10
36.631
 20
-23.3038
 30
0.0
 10
38.3826
 20
-24.0824
 30
0.0
 10
38.3826
 20
-25.5916
 30
0.0
 10
38.3826
 20
-25.5916
 30
0.0
 10
38.3826
 20
-27.0369
 30
0.0
 10
36.4314
 20
-27.7908
 30
0.0
 10
35.4623
 20
-26.7201
 30
0.0
  0
SPLINE
  5
65
330
1F
100
AcDbEntity
  8
Layer 1
100
AcDbSpline
210
0.0
220
0.0
230
1.0
 70
    11
 71
     3
 72
    16
 73
    12
 74
     0
 42
0.0000000001
 43
0.0000000001
 40
0.0
 40
0.0
 40
0.0
 40
0.0
 40
0.25
 40
0.25
 40
0.25
 40
0.25
 40
0.5
 40
0.5
 40
0.5
 40
0.5
 40
1.0
 40
1.0
 40
1.0
 40
1.0
 10
-29.7311
 20
-26.4375
 30
0.0
 10
-30.347
 20
-25.7567
 30
0.0
 10
-30.3237
 20
-24.6158
 30
0.0
 10
-29.6817
 20
-24.034
 30
0.0
 10
-29.6817
 20
-24.034
 30
0.0
 10
-28.5627
 20
-23.0212
 30
0.0
 10
-26.8111
 20
-23.7998
 30
0.0
 10
-26.8111
 20
-25.3104
 30
0.0
 10
-26.8111
 20
-25.3104
 30
0.0
 10
-26.8111
 20
-26.7543
 30
0.0
 10
-28.7609
 20
-27.5082
 30
0.0
 10
-29.7311
 20
-26.4375
 30
0.0
  0
SPLINE
  5
66
330
1F
100
AcDbEntity
  8
Layer 1
100
AcDbSpline
210
0.0
220
0.0
230
1.0
 70
    11
 71
     3
 72
    16
 73
    12
 74
     0
 42
0.0000000001
 43
0.0000000001
 40
0.0
 40
0.0
 40
0.0
 40
0.0
 40
0.25
 40
0.25
 40
0.25
 40
0.25
 40
0.5
 40
0.5
 40
0.5
 40
0.5
 40
1.0
 40
1.0
 40
1.0
 40
1.0
 10
26.1496
 20
-26.4375
 30
0.0
 10
25.5323
 20
-25.7567
 30
0.0
 10
25.5556
 20
-24.6158
 30
0.0
 10
26.198
 20
-24.034
 30
0.0
 10
26.198
 20
-24.034
 30
0.0
 10
27.317
 20
-23.0212
 30
0.0
 10
29.0682
 20
-23.7998
 30
0.0
 10
29.0682
 20
-25.3104
 30
0.0
 10
29.0682
 20
-25.3104
 30
0.0
 10
29.0682
 20
-26.7543
 30
0.0
 10
27.1184
 20
-27.5082
 30
0.0
 10
26.1496
 20
-26.4375
 30
0.0
  0
SPLINE
  5
67
330
1F
100
AcDbEntity
  8
Layer 1
100
AcDbSpline
210
0.0
220
0.0
230
1.0
 70
    11
 71
     3
 72
    20
 73
    16
 74
     0
 42
0.0000000001
 43
0.0000000001
 40
0.0
 40
0.0
 40
0.0
 40
0.0
 40
0.2
 40
0.2
 40
0.2
 40
0.2
 40
0.4
 40
0.4
 40
0.4
 40
0.4
 40
0.6
 40
0.6
 40
0.6
 40
0.6
 40
1.0
 40
1.0
 40
1.0
 40
1.0
 10
-11.5715
 20
-24.9947
 30
0.0
 10
-11.5715
 20
-24.1032
 30
0.0
 10
-9.0234
 20
-20.9942
 30
0.0
 10
-7.1078
 20
-19.5474
 30
0.0
 10
-7.1078
 20
-19.5474
 30
0.0
 10
-5.2021
 20
-18.1088
 30
0.0
 10
-4.2333
 20
-17.8414
 30
0.0
 10
-4.2333
 20
-18.7537
 30
0.0
 10
-4.2333
 20
-18.7537
 30
0.0
 10
-4.2333
 20
-19.6437
 30
0.0
 10
-6.7815
 20
-22.7528
 30
0.0
 10
-8.6967
 20
-24.1995
 30
0.0
 10
-8.6967
 20
-24.1995
 30
0.0
 10
-10.6027
 20
-25.6395
 30
0.0
 10
-11.5715
 20
-25.9069
 30
0.0
 10
-11.5715
 20
-24.9947
 30
0.0
  0
SPLINE
  5
68
330
1F
100
AcDbEntity
  8
Layer 1
100
AcDbSpline
210
0.0
220
0.0
230
1.0
 70
    11
 71
     3
 72
    20
 73
    16
 74
     0
 42
0.0000000001
 43
0.0000000001
 40
0.0
 40
0.0
 40
0.0
 40
0.0
 40
0.2
 40
0.2
 40
0.2
 40
0.2
 40
0.4
 40
0.4
 40
0.4
 40
0.4
 40
0.6
 40
0.6
 40
0.6
 40
0.6
 40
1.0
 40
1.0
 40
1.0
 40
1.0
 10
7.5681
 20
-24.1995
 30
0.0
 10
5.6515
 20
-22.7528
 30
0.0
 10
3.1048
 20
-19.6437
 30
0.0
 10
3.1048
 20
-18.7537
 30
0.0
 10
3.1048
 20
-18.7537
 30
0.0
 10
3.1048
 20
-17.8414
 30
0.0
 10
4.0721
 20
-18.1088
 30
0.0
 10
5.9792
 20
-19.5474
 30
0.0
 10
5.9792
 20
-19.5474
 30
0.0
 10
7.8948
 20
-20.9942
 30
0.0
 10
10.4429
 20
-24.1032
 30
0.0
 10
10.4429
 20
-24.9947
 30
0.0
 10
10.4429
 20
-24.9947
 30
0.0
 10
10.4429
 20
-25.9069
 30
0.0
 10
9.4738
 20
-25.6395
 30
0.0
 10
7.5681
 20
-24.1995
 30
0.0
  0
SPLINE
  5
69
330
1F
100
AcDbEntity
  8
Layer 1
100
AcDbSpline
210
0.0
220
0.0
230
1.0
 70
    11
 71
     3
 72
    20
 73
    16
 74
     0
 42
0.0000000001
 43
0.0000000001
 40
0.0
 40
0.0
 40
0.0
 40
0.0
 40
0.2
 40
0.2
 40
0.2
 40
0.2
 40
0.4
 40
0.4
 40
0.4
 40
0.4
 40
0.6
 40
0.6
 40
0.6
 40
0.6
 40
1.0
 40
1.0
 40
1.0
 40
1.0
 10
-108.373
 20
-24.4309
 30
0.0
 10
-108.373
 20
-24.2849
 30
0.0
 10
-107.6043
 20
-23.2103
 30
0.0
 10
-106.6641
 20
-22.0416
 30
0.0
 10
-106.6641
 20
-22.0416
 30
0.0
 10
-104.0529
 20
-18.7935
 30
0.0
 10
-98.8011
 20
-14.1372
 30
0.0
 10
-98.3079
 20
-14.6304
 30
0.0
 10
-98.3079
 20
-14.6304
 30
0.0
 10
-97.8147
 20
-15.1239
 30
0.0
 10
-102.471
 20
-20.3754
 30
0.0
 10
-105.719
 20
-22.9884
 30
0.0
 10
-105.719
 20
-22.9884
 30
0.0
 10
-107.7902
 20
-24.6542
 30
0.0
 10
-108.373
 20
-24.9714
 30
0.0
 10
-108.373
 20
-24.4309
 30
0.0
  0
SPLINE
  5
6A
330
1F
100
AcDbEntity
  8
Layer 1
100
AcDbSpline
210
0.0
220
0.0
230
1.0
 70
    11
 71
     3
 72
    16
 73
    12
 74
     0
 42
0.0000000001
 43
0.0000000001
 40
0.0
 40
0.0
 40
0.0
 40
0.0
 40
0.25
 40
0.25
 40
0.25
 40
0.25
 40
0.5
 40
0.5
 40
0.5
 40
0.5
 40
1.0
 40
1.0
 40
1.0
 40
1.0
 10
104.5891
 20
-22.9884
 30
0.0
 10
101.3425
 20
-20.3754
 30
0.0
 10
96.6844
 20
-15.1239
 30
0.0
 10
97.1779
 20
-14.6304
 30
0.0
 10
97.1779
 20
-14.6304
 30
0.0
 10
97.6711
 20
-14.1372
 30
0.0
 10
102.9229
 20
-18.7935
 30
0.0
 10
105.5356
 20
-22.0416
 30
0.0
 10
105.5356
 20
-22.0416
 30
0.0
 10
108.1387
 20
-25.2772
 30
0.0
 10
107.8258
 20
-25.5916
 30
0.0
 10
104.5891
 20
-22.9884
 30
0.0
  0
SPLINE
  5
6B
330
1F
100
AcDbEntity
  8
Layer 1
100
AcDbSpline
210
0.0
220
0.0
230
1.0
 70
    11
 71
     3
 72
    20
 73
    16
 74
     0
 42
0.0000000001
 43
0.0000000001
 40
0.0
 40
0.0
 40
0.0
 40
0.0
 40
0.2
 40
0.2
 40
0.2
 40
0.2
 40
0.4
 40
0.4
 40
0.4
 40
0.4
 40
0.6
 40
0.6
 40
0.6
 40
0.6
 40
1.0
 40
1.0
 40
1.0
 40
1.0
 10
-67.9468
 20
-23.0046
 30
0.0
 10
-71.6181
 20
-20.767
 30
0.0
 10
-70.0497
 20
-15.1031
 30
0.0
 10
-65.7571
 20
-15.1031
 30
0.0
 10
-65.7571
 20
-15.1031
 30
0.0
 10
-63.3497
 20
-15.1031
 30
0.0
 10
-61.5266
 20
-16.9263
 30
0.0
 10
-61.5266
 20
-19.3336
 30
0.0
 10
-61.5266
 20
-19.3336
 30
0.0
 10
-61.5266
 20
-21.7424
 30
0.0
 10
-63.3497
 20
-23.5656
 30
0.0
 10
-65.7571
 20
-23.5656
 30
0.0
 10
-65.7571
 20
-23.5656
 30
0.0
 10
-66.529
 20
-23.5656
 30
0.0
 10
-67.3901
 20
-23.3451
 30
0.0
 10
-67.9468
 20
-23.0046
 30
0.0
  0
SPLINE
  5
6C
330
1F
100
AcDbEntity
  8
Layer 1
100
AcDbSpline
210
0.0
220
0.0
230
1.0
 70
    11
 71
     3
 72
    28
 73
    24
 74
     0
 42
0.0000000001
 43
0.0000000001
 40
0.0
 40
0.0
 40
0.0
 40
0.0
 40
0.1428571428571428
 40
0.1428571428571428
 40
0.1428571428571428
 40
0.1428571428571428
 40
0.2857142857142857
 40
0.2857142857142857
 40
0.2857142857142857
 40
0.2857142857142857
 40
0.4285714285714285
 40
0.4285714285714285
 40
0.4285714285714285
 40
0.4285714285714285
 40
0.5714285714285714
 40
0.5714285714285714
 40
0.5714285714285714
 40
0.5714285714285714
 40
0.7142857142857143
 40
0.7142857142857143
 40
0.7142857142857143
 40
0.7142857142857143
 40
1.0
 40
1.0
 40
1.0
 40
1.0
 10
62.4388
 20
-23.0046
 30
0.0
 10
61.1533
 20
-22.2208
 30
0.0
 10
60.398
 20
-20.8619
 30
0.0
 10
60.398
 20
-19.3336
 30
0.0
 10
60.398
 20
-19.3336
 30
0.0
 10
60.398
 20
-17.8054
 30
0.0
 10
61.1533
 20
-16.4483
 30
0.0
 10
62.4388
 20
-15.664
 30
0.0
 10
62.4388
 20
-15.664
 30
0.0
 10
64.3654
 20
-14.49
 30
0.0
 10
67.1022
 20
-15.1818
 30
0.0
 10
68.2995
 20
-17.1439
 30
0.0
 10
68.2995
 20
-17.1439
 30
0.0
 10
69.4739
 20
-19.0705
 30
0.0
 10
68.7821
 20
-21.8073
 30
0.0
 10
66.8182
 20
-23.0046
 30
0.0
 10
66.8182
 20
-23.0046
 30
0.0
 10
66.2601
 20
-23.3451
 30
0.0
 10
65.399
 20
-23.5656
 30
0.0
 10
64.6285
 20
-23.5656
 30
0.0
 10
64.6285
 20
-23.5656
 30
0.0
 10
63.8584
 20
-23.5656
 30
0.0
 10
62.9969
 20
-23.3451
 30
0.0
 10
62.4388
 20
-23.0046
 30
0.0
  0
SPLINE
  5
6D
330
1F
100
AcDbEntity
  8
Layer 1
100
AcDbSpline
210
0.0
220
0.0
230
1.0
 70
    11
 71
     3
 72
    16
 73
    12
 74
     0
 42
0.0000000001
 43
0.0000000001
 40
0.0
 40
0.0
 40
0.0
 40
0.0
 40
0.25
 40
0.25
 40
0.25
 40
0.25
 40
0.5
 40
0.5
 40
0.5
 40
0.5
 40
1.0
 40
1.0
 40
1.0
 40
1.0
 10
-45.2533
 20
-21.0757
 30
0.0
 10
-46.265
 20
-19.9566
 30
0.0
 10
-45.4875
 20
-18.2051
 30
0.0
 10
-43.9773
 20
-18.2051
 30
0.0
 10
-43.9773
 20
-18.2051
 30
0.0
 10
-42.5316
 20
-18.2051
 30
0.0
 10
-41.7781
 20
-20.1549
 30
0.0
 10
-42.8502
 20
-21.125
 30
0.0
 10
-42.8502
 20
-21.125
 30
0.0
 10
-43.531
 20
-21.741
 30
0.0
 10
-44.6719
 20
-21.7191
 30
0.0
 10
-45.2533
 20
-21.0757
 30
0.0
  0
SPLINE
  5
6E
330
1F
100
AcDbEntity
  8
Layer 1
100
AcDbSpline
210
0.0
220
0.0
230
1.0
 70
    11
 71
     3
 72
    16
 73
    12
 74
     0
 42
0.0000000001
 43
0.0000000001
 40
0.0
 40
0.0
 40
0.0
 40
0.0
 40
0.25
 40
0.25
 40
0.25
 40
0.25
 40
0.5
 40
0.5
 40
0.5
 40
0.5
 40
1.0
 40
1.0
 40
1.0
 40
1.0
 10
41.6719
 20
-21.0757
 30
0.0
 10
41.0545
 20
-20.3948
 30
0.0
 10
41.0778
 20
-19.2539
 30
0.0
 10
41.7202
 20
-18.6722
 30
0.0
 10
41.7202
 20
-18.6722
 30
0.0
 10
42.8392
 20
-17.6594
 30
0.0
 10
44.5904
 20
-18.4379
 30
0.0
 10
44.5904
 20
-19.9471
 30
0.0
 10
44.5904
 20
-19.9471
 30
0.0
 10
44.5904
 20
-21.3924
 30
0.0
 10
42.6406
 20
-22.1463
 30
0.0
 10
41.6719
 20
-21.0757
 30
0.0
  0
SPLINE
  5
6F
330
1F
100
AcDbEntity
  8
Layer 1
100
AcDbSpline
210
0.0
220
0.0
230
1.0
 70
    11
 71
     3
 72
    20
 73
    16
 74
     0
 42
0.0000000001
 43
0.0000000001
 40
0.0
 40
0.0
 40
0.0
 40
0.0
 40
0.2
 40
0.2
 40
0.2
 40
0.2
 40
0.4
 40
0.4
 40
0.4
 40
0.4
 40
0.6
 40
0.6
 40
0.6
 40
0.6
 40
1.0
 40
1.0
 40
1.0
 40
1.0
 10
-18.9096
 20
-21.154
 30
0.0
 10
-18.9096
 20
-20.7006
 30
0.0
 10
-17.8082
 20
-18.9643
 30
0.0
 10
-16.4123
 20
-17.217
 30
0.0
 10
-16.4123
 20
-17.217
 30
0.0
 10
-12.4492
 20
-12.2601
 30
0.0
 10
-3.9825
 20
-4.8147
 30
0.0
 10
-3.1983
 20
-5.5989
 30
0.0
 10
-3.1983
 20
-5.5989
 30
0.0
 10
-2.6871
 20
-6.1115
 30
0.0
 10
-6.0001
 20
-10.3928
 30
0.0
 10
-10.0101
 20
-14.4032
 30
0.0
 10
-10.0101
 20
-14.4032
 30
0.0
 10
-14.2448
 20
-18.638
 30
0.0
 10
-18.9096
 20
-22.1767
 30
0.0
 10
-18.9096
 20
-21.154
 30
0.0
  0
SPLINE
  5
70
330
1F
100
AcDbEntity
  8
Layer 1
100
AcDbSpline
210
0.0
220
0.0
230
1.0
 70
    11
 71
     3
 72
    24
 73
    20
 74
     0
 42
0.0000000001
 43
0.0000000001
 40
0.0
 40
0.0
 40
0.0
 40
0.0
 40
0.1666666666666667
 40
0.1666666666666667
 40
0.1666666666666667
 40
0.1666666666666667
 40
0.3333333333333333
 40
0.3333333333333333
 40
0.3333333333333333
 40
0.3333333333333333
 40
0.5
 40
0.5
 40
0.5
 40
0.5
 40
0.6666666666666666
 40
0.6666666666666666
 40
0.6666666666666666
 40
0.6666666666666666
 40
1.0
 40
1.0
 40
1.0
 40
1.0
 10
16.5103
 20
-20.8386
 30
0.0
 10
14.0836
 20
-19.5513
 30
0.0
 10
7.5572
 20
-13.4564
 30
0.0
 10
4.4732
 20
-9.598
 30
0.0
 10
4.4732
 20
-9.598
 30
0.0
 10
2.8734
 20
-7.5971
 30
0.0
 10
1.8217
 20
-5.8469
 30
0.0
 10
2.0697
 20
-5.5989
 30
0.0
 10
2.0697
 20
-5.5989
 30
0.0
 10
2.1442
 20
-5.5245
 30
0.0
 10
2.6292
 20
-5.6801
 30
0.0
 10
3.1489
 20
-5.9432
 30
0.0
 10
3.1489
 20
-5.9432
 30
0.0
 10
6.4975
 20
-7.6465
 30
0.0
 10
15.6284
 20
-16.7651
 30
0.0
 10
17.3207
 20
-20.0956
 30
0.0
 10
17.3207
 20
-20.0956
 30
0.0
 10
18.0301
 20
-21.4916
 30
0.0
 10
17.9243
 20
-21.5882
 30
0.0
 10
16.5103
 20
-20.8386
 30
0.0
  0
SPLINE
  5
71
330
1F
100
AcDbEntity
  8
Layer 1
100
AcDbSpline
210
0.0
220
0.0
230
1.0
 70
    11
 71
     3
 72
    16
 73
    12
 74
     0
 42
0.0000000001
 43
0.0000000001
 40
0.0
 40
0.0
 40
0.0
 40
0.0
 40
0.25
 40
0.25
 40
0.25
 40
0.25
 40
0.5
 40
0.5
 40
0.5
 40
0.5
 40
1.0
 40
1.0
 40
1.0
 40
1.0
 10
-34.5281
 20
-19.6645
 30
0.0
 10
-35.1455
 20
-18.9837
 30
0.0
 10
-35.1222
 20
-17.8428
 30
0.0
 10
-34.4798
 20
-17.2611
 30
0.0
 10
-34.4798
 20
-17.2611
 30
0.0
 10
-33.3608
 20
-16.2482
 30
0.0
 10
-31.6096
 20
-17.0268
 30
0.0
 10
-31.6096
 20
-18.536
 30
0.0
 10
-31.6096
 20
-18.536
 30
0.0
 10
-31.6096
 20
-19.9813
 30
0.0
 10
-33.5594
 20
-20.7352
 30
0.0
 10
-34.5281
 20
-19.6645
 30
0.0
  0
SPLINE
  5
72
330
1F
100
AcDbEntity
  8
Layer 1
100
AcDbSpline
210
0.0
220
0.0
230
1.0
 70
    11
 71
     3
 72
    16
 73
    12
 74
     0
 42
0.0000000001
 43
0.0000000001
 40
0.0
 40
0.0
 40
0.0
 40
0.0
 40
0.25
 40
0.25
 40
0.25
 40
0.25
 40
0.5
 40
0.5
 40
0.5
 40
0.5
 40
1.0
 40
1.0
 40
1.0
 40
1.0
 10
30.9467
 20
-19.6645
 30
0.0
 10
30.3308
 20
-18.9837
 30
0.0
 10
30.3541
 20
-17.8428
 30
0.0
 10
30.9961
 20
-17.2611
 30
0.0
 10
30.9961
 20
-17.2611
 30
0.0
 10
32.1151
 20
-16.2482
 30
0.0
 10
33.8667
 20
-17.0268
 30
0.0
 10
33.8667
 20
-18.536
 30
0.0
 10
33.8667
 20
-18.536
 30
0.0
 10
33.8667
 20
-19.9813
 30
0.0
 10
31.9169
 20
-20.7352
 30
0.0
 10
30.9467
 20
-19.6645
 30
0.0
  0
SPLINE
  5
73
330
1F
100
AcDbEntity
  8
Layer 1
100
AcDbSpline
210
0.0
220
0.0
230
1.0
 70
    11
 71
     3
 72
    16
 73
    12
 74
     0
 42
0.0000000001
 43
0.0000000001
 40
0.0
 40
0.0
 40
0.0
 40
0.0
 40
0.25
 40
0.25
 40
0.25
 40
0.25
 40
0.5
 40
0.5
 40
0.5
 40
0.5
 40
1.0
 40
1.0
 40
1.0
 40
1.0
 10
-54.2837
 20
-18.8182
 30
0.0
 10
-55.2965
 20
-17.6992
 30
0.0
 10
-54.5179
 20
-15.948
 30
0.0
 10
-53.0091
 20
-15.948
 30
0.0
 10
-53.0091
 20
-15.948
 30
0.0
 10
-51.5634
 20
-15.948
 30
0.0
 10
-50.8095
 20
-17.8978
 30
0.0
 10
-51.8802
 20
-18.8666
 30
0.0
 10
-51.8802
 20
-18.8666
 30
0.0
 10
-52.5625
 20
-19.4839
 30
0.0
 10
-53.7023
 20
-19.4606
 30
0.0
 10
-54.2837
 20
-18.8182
 30
0.0
  0
SPLINE
  5
74
330
1F
100
AcDbEntity
  8
Layer 1
100
AcDbSpline
210
0.0
220
0.0
230
1.0
 70
    11
 71
     3
 72
    16
 73
    12
 74
     0
 42
0.0000000001
 43
0.0000000001
 40
0.0
 40
0.0
 40
0.0
 40
0.0
 40
0.25
 40
0.25
 40
0.25
 40
0.25
 40
0.5
 40
0.5
 40
0.5
 40
0.5
 40
1.0
 40
1.0
 40
1.0
 40
1.0
 10
50.7023
 20
-18.8182
 30
0.0
 10
50.0863
 20
-18.1363
 30
0.0
 10
50.1096
 20
-16.9965
 30
0.0
 10
50.7517
 20
-16.4151
 30
0.0
 10
50.7517
 20
-16.4151
 30
0.0
 10
51.8707
 20
-15.4023
 30
0.0
 10
53.6222
 20
-16.1809
 30
0.0
 10
53.6222
 20
-17.6897
 30
0.0
 10
53.6222
 20
-17.6897
 30
0.0
 10
53.6222
 20
-19.1354
 30
0.0
 10
51.6724
 20
-19.8889
 30
0.0
 10
50.7023
 20
-18.8182
 30
0.0
  0
SPLINE
  5
75
330
1F
100
AcDbEntity
  8
Layer 1
100
AcDbSpline
210
0.0
220
0.0
230
1.0
 70
    11
 71
     3
 72
    24
 73
    20
 74
     0
 42
0.0000000001
 43
0.0000000001
 40
0.0
 40
0.0
 40
0.0
 40
0.0
 40
0.1666666666666667
 40
0.1666666666666667
 40
0.1666666666666667
 40
0.1666666666666667
 40
0.3333333333333333
 40
0.3333333333333333
 40
0.3333333333333333
 40
0.3333333333333333
 40
0.5
 40
0.5
 40
0.5
 40
0.5
 40
0.6666666666666666
 40
0.6666666666666666
 40
0.6666666666666666
 40
0.6666666666666666
 40
1.0
 40
1.0
 40
1.0
 40
1.0
 10
-89.9541
 20
-17.3521
 30
0.0
 10
-92.0503
 20
-16.1505
 30
0.0
 10
-93.1277
 20
-14.2349
 30
0.0
 10
-93.1277
 20
-11.7147
 30
0.0
 10
-93.1277
 20
-11.7147
 30
0.0
 10
-93.1277
 20
-7.9167
 30
0.0
 10
-90.4392
 20
-5.2282
 30
0.0
 10
-86.6429
 20
-5.2282
 30
0.0
 10
-86.6429
 20
-5.2282
 30
0.0
 10
-82.8449
 20
-5.2282
 30
0.0
 10
-80.1564
 20
-7.9167
 30
0.0
 10
-80.1564
 20
-11.7147
 30
0.0
 10
-80.1564
 20
-11.7147
 30
0.0
 10
-80.1564
 20
-15.5123
 30
0.0
 10
-82.8449
 20
-18.1995
 30
0.0
 10
-86.6429
 20
-18.1995
 30
0.0
 10
-86.6429
 20
-18.1995
 30
0.0
 10
-88.1641
 20
-18.1995
 30
0.0
 10
-88.7279
 20
-18.0562
 30
0.0
 10
-89.9541
 20
-17.3521
 30
0.0
  0
SPLINE
  5
76
330
1F
100
AcDbEntity
  8
Layer 1
100
AcDbSpline
210
0.0
220
0.0
230
1.0
 70
    11
 71
     3
 72
    28
 73
    24
 74
     0
 42
0.0000000001
 43
0.0000000001
 40
0.0
 40
0.0
 40
0.0
 40
0.0
 40
0.1428571428571428
 40
0.1428571428571428
 40
0.1428571428571428
 40
0.1428571428571428
 40
0.2857142857142857
 40
0.2857142857142857
 40
0.2857142857142857
 40
0.2857142857142857
 40
0.4285714285714285
 40
0.4285714285714285
 40
0.4285714285714285
 40
0.4285714285714285
 40
0.5714285714285714
 40
0.5714285714285714
 40
0.5714285714285714
 40
0.5714285714285714
 40
0.7142857142857143
 40
0.7142857142857143
 40
0.7142857142857143
 40
0.7142857142857143
 40
1.0
 40
1.0
 40
1.0
 40
1.0
 10
82.2015
 20
-17.3521
 30
0.0
 10
81.1128
 20
-16.728
 30
0.0
 10
80.4997
 20
-16.1145
 30
0.0
 10
79.8752
 20
-15.0259
 30
0.0
 10
79.8752
 20
-15.0259
 30
0.0
 10
78.0493
 20
-11.8442
 30
0.0
 10
79.0843
 20
-7.8631
 30
0.0
 10
82.2015
 20
-6.0755
 30
0.0
 10
82.2015
 20
-6.0755
 30
0.0
 10
85.3832
 20
-4.251
 30
0.0
 10
89.3643
 20
-5.2846
 30
0.0
 10
91.1518
 20
-8.4018
 30
0.0
 10
91.1518
 20
-8.4018
 30
0.0
 10
92.9778
 20
-11.5849
 30
0.0
 10
91.9427
 20
-15.5649
 30
0.0
 10
88.8256
 20
-17.3521
 30
0.0
 10
88.8256
 20
-17.3521
 30
0.0
 10
87.5993
 20
-18.0562
 30
0.0
 10
87.0356
 20
-18.1995
 30
0.0
 10
85.5126
 20
-18.1995
 30
0.0
 10
85.5126
 20
-18.1995
 30
0.0
 10
83.9914
 20
-18.1995
 30
0.0
 10
83.4277
 20
-18.0562
 30
0.0
 10
82.2015
 20
-17.3521
 30
0.0
  0
SPLINE
  5
77
330
1F
100
AcDbEntity
  8
Layer 1
100
AcDbSpline
210
0.0
220
0.0
230
1.0
 70
    11
 71
     3
 72
    20
 73
    16
 74
     0
 42
0.0000000001
 43
0.0000000001
 40
0.0
 40
0.0
 40
0.0
 40
0.0
 40
0.2
 40
0.2
 40
0.2
 40
0.2
 40
0.4
 40
0.4
 40
0.4
 40
0.4
 40
0.6
 40
0.6
 40
0.6
 40
0.6
 40
1.0
 40
1.0
 40
1.0
 40
1.0
 10
-28.2222
 20
-17.0931
 30
0.0
 10
-28.2222
 20
-16.2013
 30
0.0
 10
-25.6741
 20
-13.0926
 30
0.0
 10
-23.7589
 20
-11.6455
 30
0.0
 10
-23.7589
 20
-11.6455
 30
0.0
 10
-21.8528
 20
-10.2055
 30
0.0
 10
-20.8841
 20
-9.9381
 30
0.0
 10
-20.8841
 20
-10.8504
 30
0.0
 10
-20.8841
 20
-10.8504
 30
0.0
 10
-20.8841
 20
-11.7422
 30
0.0
 10
-23.4322
 20
-14.8509
 30
0.0
 10
-25.3478
 20
-16.298
 30
0.0
 10
-25.3478
 20
-16.298
 30
0.0
 10
-27.2535
 20
-17.738
 30
0.0
 10
-28.2222
 20
-18.0054
 30
0.0
 10
-28.2222
 20
-17.0931
 30
0.0
  0
SPLINE
  5
78
330
1F
100
AcDbEntity
  8
Layer 1
100
AcDbSpline
210
0.0
220
0.0
230
1.0
 70
    11
 71
     3
 72
    20
 73
    16
 74
     0
 42
0.0000000001
 43
0.0000000001
 40
0.0
 40
0.0
 40
0.0
 40
0.0
 40
0.2
 40
0.2
 40
0.2
 40
0.2
 40
0.4
 40
0.4
 40
0.4
 40
0.4
 40
0.6
 40
0.6
 40
0.6
 40
0.6
 40
1.0
 40
1.0
 40
1.0
 40
1.0
 10
24.2189
 20
-16.298
 30
0.0
 10
22.3037
 20
-14.8509
 30
0.0
 10
19.7556
 20
-11.7422
 30
0.0
 10
19.7556
 20
-10.8504
 30
0.0
 10
19.7556
 20
-10.8504
 30
0.0
 10
19.7556
 20
-9.9381
 30
0.0
 10
20.7243
 20
-10.2055
 30
0.0
 10
22.63
 20
-11.6455
 30
0.0
 10
22.63
 20
-11.6455
 30
0.0
 10
24.5456
 20
-13.0926
 30
0.0
 10
27.0937
 20
-16.2013
 30
0.0
 10
27.0937
 20
-17.0931
 30
0.0
 10
27.0937
 20
-17.0931
 30
0.0
 10
27.0937
 20
-18.0054
 30
0.0
 10
26.125
 20
-17.738
 30
0.0
 10
24.2189
 20
-16.298
 30
0.0
  0
SPLINE
  5
79
330
1F
100
AcDbEntity
  8
Layer 1
100
AcDbSpline
210
0.0
220
0.0
230
1.0
 70
    11
 71
     3
 72
    16
 73
    12
 74
     0
 42
0.0000000001
 43
0.0000000001
 40
0.0
 40
0.0
 40
0.0
 40
0.0
 40
0.25
 40
0.25
 40
0.25
 40
0.25
 40
0.5
 40
0.5
 40
0.5
 40
0.5
 40
1.0
 40
1.0
 40
1.0
 40
1.0
 10
-40.7377
 20
-15.7138
 30
0.0
 10
-41.3537
 20
-15.0315
 30
0.0
 10
-41.3315
 20
-13.8917
 30
0.0
 10
-40.688
 20
-13.3103
 30
0.0
 10
-40.688
 20
-13.3103
 30
0.0
 10
-39.569
 20
-12.2975
 30
0.0
 10
-37.8174
 20
-13.0761
 30
0.0
 10
-37.8174
 20
-14.5849
 30
0.0
 10
-37.8174
 20
-14.5849
 30
0.0
 10
-37.8174
 20
-16.0306
 30
0.0
 10
-39.7686
 20
-16.7845
 30
0.0
 10
-40.7377
 20
-15.7138
 30
0.0
  0
SPLINE
  5
7A
330
1F
100
AcDbEntity
  8
Layer 1
100
AcDbSpline
210
0.0
220
0.0
230
1.0
 70
    11
 71
     3
 72
    16
 73
    12
 74
     0
 42
0.0000000001
 43
0.0000000001
 40
0.0
 40
0.0
 40
0.0
 40
0.0
 40
0.25
 40
0.25
 40
0.25
 40
0.25
 40
0.5
 40
0.5
 40
0.5
 40
0.5
 40
1.0
 40
1.0
 40
1.0
 40
1.0
 10
37.156
 20
-15.7138
 30
0.0
 10
36.5386
 20
-15.0315
 30
0.0
 10
36.5622
 20
-13.8917
 30
0.0
 10
37.2057
 20
-13.3103
 30
0.0
 10
37.2057
 20
-13.3103
 30
0.0
 10
38.3233
 20
-12.2975
 30
0.0
 10
40.0763
 20
-13.0761
 30
0.0
 10
40.0763
 20
-14.5849
 30
0.0
 10
40.0763
 20
-14.5849
 30
0.0
 10
40.0763
 20
-16.0306
 30
0.0
 10
38.1247
 20
-16.7845
 30
0.0
 10
37.156
 20
-15.7138
 30
0.0
  0
SPLINE
  5
7B
330
1F
100
AcDbEntity
  8
Layer 1
100
AcDbSpline
210
0.0
220
0.0
230
1.0
 70
    11
 71
     3
 72
    16
 73
    12
 74
     0
 42
0.0000000001
 43
0.0000000001
 40
0.0
 40
0.0
 40
0.0
 40
0.0
 40
0.25
 40
0.25
 40
0.25
 40
0.25
 40
0.5
 40
0.5
 40
0.5
 40
0.5
 40
1.0
 40
1.0
 40
1.0
 40
1.0
 10
-59.6456
 20
-13.4549
 30
0.0
 10
-60.6584
 20
-12.3373
 30
0.0
 10
-59.8798
 20
-10.5844
 30
0.0
 10
-58.371
 20
-10.5844
 30
0.0
 10
-58.371
 20
-10.5844
 30
0.0
 10
-56.9253
 20
-10.5844
 30
0.0
 10
-56.1718
 20
-12.536
 30
0.0
 10
-57.2424
 20
-13.5047
 30
0.0
 10
-57.2424
 20
-13.5047
 30
0.0
 10
-57.9244
 20
-14.122
 30
0.0
 10
-59.0642
 20
-14.0984
 30
0.0
 10
-59.6456
 20
-13.4549
 30
0.0
  0
SPLINE
  5
7C
330
1F
100
AcDbEntity
  8
Layer 1
100
AcDbSpline
210
0.0
220
0.0
230
1.0
 70
    11
 71
     3
 72
    16
 73
    12
 74
     0
 42
0.0000000001
 43
0.0000000001
 40
0.0
 40
0.0
 40
0.0
 40
0.0
 40
0.25
 40
0.25
 40
0.25
 40
0.25
 40
0.5
 40
0.5
 40
0.5
 40
0.5
 40
1.0
 40
1.0
 40
1.0
 40
1.0
 10
56.0656
 20
-13.4549
 30
0.0
 10
55.4482
 20
-12.7741
 30
0.0
 10
55.4715
 20
-11.6332
 30
0.0
 10
56.1139
 20
-11.0518
 30
0.0
 10
56.1139
 20
-11.0518
 30
0.0
 10
57.2325
 20
-10.0401
 30
0.0
 10
58.9841
 20
-10.8176
 30
0.0
 10
58.9841
 20
-12.3278
 30
0.0
 10
58.9841
 20
-12.3278
 30
0.0
 10
58.9841
 20
-13.7735
 30
0.0
 10
57.0343
 20
-14.527
 30
0.0
 10
56.0656
 20
-13.4549
 30
0.0
  0
SPLINE
  5
7D
330
1F
100
AcDbEntity
  8
Layer 1
100
AcDbSpline
210
0.0
220
0.0
230
1.0
 70
    11
 71
     3
 72
    20
 73
    16
 74
     0
 42
0.0000000001
 43
0.0000000001
 40
0.0
 40
0.0
 40
0.0
 40
0.0
 40
0.2
 40
0.2
 40
0.2
 40
0.2
 40
0.4
 40
0.4
 40
0.4
 40
0.4
 40
0.6
 40
0.6
 40
0.6
 40
0.6
 40
1.0
 40
1.0
 40
1.0
 40
1.0
 10
-34.4318
 20
-12.0121
 30
0.0
 10
-34.4318
 20
-11.122
 30
0.0
 10
-31.8837
 20
-8.013
 30
0.0
 10
-29.9681
 20
-6.5663
 30
0.0
 10
-29.9681
 20
-6.5663
 30
0.0
 10
-28.061
 20
-5.1262
 30
0.0
 10
-27.0937
 20
-4.8588
 30
0.0
 10
-27.0937
 20
-5.7711
 30
0.0
 10
-27.0937
 20
-5.7711
 30
0.0
 10
-27.0937
 20
-6.6626
 30
0.0
 10
-29.6404
 20
-9.7716
 30
0.0
 10
-31.557
 20
-11.2183
 30
0.0
 10
-31.557
 20
-11.2183
 30
0.0
 10
-33.4627
 20
-12.657
 30
0.0
 10
-34.4318
 20
-12.9244
 30
0.0
 10
-34.4318
 20
-12.0121
 30
0.0
  0
SPLINE
  5
7E
330
1F
100
AcDbEntity
  8
Layer 1
100
AcDbSpline
210
0.0
220
0.0
230
1.0
 70
    11
 71
     3
 72
    20
 73
    16
 74
     0
 42
0.0000000001
 43
0.0000000001
 40
0.0
 40
0.0
 40
0.0
 40
0.0
 40
0.2
 40
0.2
 40
0.2
 40
0.2
 40
0.4
 40
0.4
 40
0.4
 40
0.4
 40
0.6
 40
0.6
 40
0.6
 40
0.6
 40
1.0
 40
1.0
 40
1.0
 40
1.0
 10
30.4285
 20
-11.2183
 30
0.0
 10
28.5115
 20
-9.7716
 30
0.0
 10
25.9651
 20
-6.6626
 30
0.0
 10
25.9651
 20
-5.7711
 30
0.0
 10
25.9651
 20
-5.7711
 30
0.0
 10
25.9651
 20
-4.8588
 30
0.0
 10
26.9325
 20
-5.1262
 30
0.0
 10
28.8382
 20
-6.5663
 30
0.0
 10
28.8382
 20
-6.5663
 30
0.0
 10
30.7552
 20
-8.013
 30
0.0
 10
33.3015
 20
-11.122
 30
0.0
 10
33.3015
 20
-12.0121
 30
0.0
 10
33.3015
 20
-12.0121
 30
0.0
 10
33.3015
 20
-12.9244
 30
0.0
 10
32.3342
 20
-12.657
 30
0.0
 10
30.4285
 20
-11.2183
 30
0.0
  0
SPLINE
  5
7F
330
1F
100
AcDbEntity
  8
Layer 1
100
AcDbSpline
210
0.0
220
0.0
230
1.0
 70
    11
 71
     3
 72
    16
 73
    12
 74
     0
 42
0.0000000001
 43
0.0000000001
 40
0.0
 40
0.0
 40
0.0
 40
0.0
 40
0.25
 40
0.25
 40
0.25
 40
0.25
 40
0.5
 40
0.5
 40
0.5
 40
0.5
 40
1.0
 40
1.0
 40
1.0
 40
1.0
 10
-50.6155
 20
-10.9153
 30
0.0
 10
-51.6283
 20
-9.7963
 30
0.0
 10
-50.8497
 20
-8.0447
 30
0.0
 10
-49.3392
 20
-8.0447
 30
0.0
 10
-49.3392
 20
-8.0447
 30
0.0
 10
-47.8952
 20
-8.0447
 30
0.0
 10
-47.1413
 20
-9.996
 30
0.0
 10
-48.212
 20
-10.965
 30
0.0
 10
-48.212
 20
-10.965
 30
0.0
 10
-48.8929
 20
-11.581
 30
0.0
 10
-50.0338
 20
-11.5588
 30
0.0
 10
-50.6155
 20
-10.9153
 30
0.0
  0
SPLINE
  5
80
330
1F
100
AcDbEntity
  8
Layer 1
100
AcDbSpline
210
0.0
220
0.0
230
1.0
 70
    11
 71
     3
 72
    16
 73
    12
 74
     0
 42
0.0000000001
 43
0.0000000001
 40
0.0
 40
0.0
 40
0.0
 40
0.0
 40
0.25
 40
0.25
 40
0.25
 40
0.25
 40
0.5
 40
0.5
 40
0.5
 40
0.5
 40
1.0
 40
1.0
 40
1.0
 40
1.0
 10
47.0337
 20
-10.9153
 30
0.0
 10
46.4164
 20
-10.2344
 30
0.0
 10
46.44
 20
-9.0936
 30
0.0
 10
47.0835
 20
-8.5118
 30
0.0
 10
47.0835
 20
-8.5118
 30
0.0
 10
48.2011
 20
-7.499
 30
0.0
 10
49.954
 20
-8.2776
 30
0.0
 10
49.954
 20
-9.7882
 30
0.0
 10
49.954
 20
-9.7882
 30
0.0
 10
49.954
 20
-11.2321
 30
0.0
 10
48.0025
 20
-11.986
 30
0.0
 10
47.0337
 20
-10.9153
 30
0.0
  0
SPLINE
  5
81
330
1F
100
AcDbEntity
  8
Layer 1
100
AcDbSpline
210
0.0
220
0.0
230
1.0
 70
    11
 71
     3
 72
    16
 73
    12
 74
     0
 42
0.0000000001
 43
0.0000000001
 40
0.0
 40
0.0
 40
0.0
 40
0.0
 40
0.25
 40
0.25
 40
0.25
 40
0.25
 40
0.5
 40
0.5
 40
0.5
 40
0.5
 40
1.0
 40
1.0
 40
1.0
 40
1.0
 10
-42.1488
 20
-8.9404
 30
0.0
 10
-42.7648
 20
-8.2585
 30
0.0
 10
-42.7426
 20
-7.1187
 30
0.0
 10
-42.0991
 20
-6.5373
 30
0.0
 10
-42.0991
 20
-6.5373
 30
0.0
 10
-40.9801
 20
-5.5245
 30
0.0
 10
-39.2285
 20
-6.3017
 30
0.0
 10
-39.2285
 20
-7.8119
 30
0.0
 10
-39.2285
 20
-7.8119
 30
0.0
 10
-39.2285
 20
-9.2576
 30
0.0
 10
-41.1798
 20
-10.0111
 30
0.0
 10
-42.1488
 20
-8.9404
 30
0.0
  0
SPLINE
  5
82
330
1F
100
AcDbEntity
  8
Layer 1
100
AcDbSpline
210
0.0
220
0.0
230
1.0
 70
    11
 71
     3
 72
    16
 73
    12
 74
     0
 42
0.0000000001
 43
0.0000000001
 40
0.0
 40
0.0
 40
0.0
 40
0.0
 40
0.25
 40
0.25
 40
0.25
 40
0.25
 40
0.5
 40
0.5
 40
0.5
 40
0.5
 40
1.0
 40
1.0
 40
1.0
 40
1.0
 10
38.5671
 20
-8.9404
 30
0.0
 10
37.9497
 20
-8.2585
 30
0.0
 10
37.9733
 20
-7.1187
 30
0.0
 10
38.6168
 20
-6.5373
 30
0.0
 10
38.6168
 20
-6.5373
 30
0.0
 10
39.7344
 20
-5.5245
 30
0.0
 10
41.4874
 20
-6.3017
 30
0.0
 10
41.4874
 20
-7.8119
 30
0.0
 10
41.4874
 20
-7.8119
 30
0.0
 10
41.4874
 20
-9.2576
 30
0.0
 10
39.5358
 20
-10.0111
 30
0.0
 10
38.5671
 20
-8.9404
 30
0.0
  0
SPLINE
  5
83
330
1F
100
AcDbEntity
  8
Layer 1
100
AcDbSpline
210
0.0
220
0.0
230
1.0
 70
    11
 71
     3
 72
    16
 73
    12
 74
     0
 42
0.0000000001
 43
0.0000000001
 40
0.0
 40
0.0
 40
0.0
 40
0.0
 40
0.25
 40
0.25
 40
0.25
 40
0.25
 40
0.5
 40
0.5
 40
0.5
 40
0.5
 40
1.0
 40
1.0
 40
1.0
 40
1.0
 10
-69.2422
 20
-8.6582
 30
0.0
 10
-70.2539
 20
-7.5392
 30
0.0
 10
-69.4764
 20
-5.7877
 30
0.0
 10
-67.9662
 20
-5.7877
 30
0.0
 10
-67.9662
 20
-5.7877
 30
0.0
 10
-66.5205
 20
-5.7877
 30
0.0
 10
-65.767
 20
-7.7375
 30
0.0
 10
-66.839
 20
-8.7062
 30
0.0
 10
-66.839
 20
-8.7062
 30
0.0
 10
-67.5199
 20
-9.3236
 30
0.0
 10
-68.6608
 20
-9.3003
 30
0.0
 10
-69.2422
 20
-8.6582
 30
0.0
  0
SPLINE
  5
84
330
1F
100
AcDbEntity
  8
Layer 1
100
AcDbSpline
210
0.0
220
0.0
230
1.0
 70
    11
 71
     3
 72
    16
 73
    12
 74
     0
 42
0.0000000001
 43
0.0000000001
 40
0.0
 40
0.0
 40
0.0
 40
0.0
 40
0.25
 40
0.25
 40
0.25
 40
0.25
 40
0.5
 40
0.5
 40
0.5
 40
0.5
 40
1.0
 40
1.0
 40
1.0
 40
1.0
 10
65.6608
 20
-8.6582
 30
0.0
 10
65.0434
 20
-7.976
 30
0.0
 10
65.0667
 20
-6.8361
 30
0.0
 10
65.7091
 20
-6.2548
 30
0.0
 10
65.7091
 20
-6.2548
 30
0.0
 10
66.8281
 20
-5.2419
 30
0.0
 10
68.5793
 20
-6.0205
 30
0.0
 10
68.5793
 20
-7.5293
 30
0.0
 10
68.5793
 20
-7.5293
 30
0.0
 10
68.5793
 20
-8.975
 30
0.0
 10
66.6295
 20
-9.7289
 30
0.0
 10
65.6608
 20
-8.6582
 30
0.0
  0
SPLINE
  5
85
330
1F
100
AcDbEntity
  8
Layer 1
100
AcDbSpline
210
0.0
220
0.0
230
1.0
 70
    11
 71
     3
 72
    20
 73
    16
 74
     0
 42
0.0000000001
 43
0.0000000001
 40
0.0
 40
0.0
 40
0.0
 40
0.0
 40
0.2
 40
0.2
 40
0.2
 40
0.2
 40
0.4
 40
0.4
 40
0.4
 40
0.4
 40
0.6
 40
0.6
 40
0.6
 40
0.6
 40
1.0
 40
1.0
 40
1.0
 40
1.0
 10
-21.4492
 20
-7.608
 30
0.0
 10
-21.4492
 20
-7.1533
 30
0.0
 10
-20.3482
 20
-5.4169
 30
0.0
 10
-18.9523
 20
-3.671
 30
0.0
 10
-18.9523
 20
-3.671
 30
0.0
 10
-14.9902
 20
1.2873
 30
0.0
 10
-6.5222
 20
8.7313
 30
0.0
 10
-5.7383
 20
7.9474
 30
0.0
 10
-5.7383
 20
7.9474
 30
0.0
 10
-5.2268
 20
7.4362
 30
0.0
 10
-8.5397
 20
3.1545
 30
0.0
 10
-12.5511
 20
-0.8569
 30
0.0
 10
-12.5511
 20
-0.8569
 30
0.0
 10
-16.7845
 20
-5.0902
 30
0.0
 10
-21.4492
 20
-8.6289
 30
0.0
 10
-21.4492
 20
-7.608
 30
0.0
  0
SPLINE
  5
86
330
1F
100
AcDbEntity
  8
Layer 1
100
AcDbSpline
210
0.0
220
0.0
230
1.0
 70
    11
 71
     3
 72
    24
 73
    20
 74
     0
 42
0.0000000001
 43
0.0000000001
 40
0.0
 40
0.0
 40
0.0
 40
0.0
 40
0.1666666666666667
 40
0.1666666666666667
 40
0.1666666666666667
 40
0.1666666666666667
 40
0.3333333333333333
 40
0.3333333333333333
 40
0.3333333333333333
 40
0.3333333333333333
 40
0.5
 40
0.5
 40
0.5
 40
0.5
 40
0.6666666666666666
 40
0.6666666666666666
 40
0.6666666666666666
 40
0.6666666666666666
 40
1.0
 40
1.0
 40
1.0
 40
1.0
 10
19.05
 20
-7.2912
 30
0.0
 10
16.6232
 20
-6.0039
 30
0.0
 10
10.0968
 20
0.0896
 30
0.0
 10
7.0129
 20
3.9497
 30
0.0
 10
7.0129
 20
3.9497
 30
0.0
 10
5.413
 20
5.9507
 30
0.0
 10
4.3614
 20
7.6994
 30
0.0
 10
4.6094
 20
7.9474
 30
0.0
 10
4.6094
 20
7.9474
 30
0.0
 10
4.6838
 20
8.0218
 30
0.0
 10
5.1703
 20
7.8673
 30
0.0
 10
5.6885
 20
7.6027
 30
0.0
 10
5.6885
 20
7.6027
 30
0.0
 10
9.0371
 20
5.9009
 30
0.0
 10
18.1681
 20
-3.2177
 30
0.0
 10
19.8603
 20
-6.5497
 30
0.0
 10
19.8603
 20
-6.5497
 30
0.0
 10
20.5701
 20
-7.9442
 30
0.0
 10
20.4639
 20
-8.0409
 30
0.0
 10
19.05
 20
-7.2912
 30
0.0
  0
SPLINE
  5
87
330
1F
100
AcDbEntity
  8
Layer 1
100
AcDbSpline
210
0.0
220
0.0
230
1.0
 70
    11
 71
     3
 72
    16
 73
    12
 74
     0
 42
0.0000000001
 43
0.0000000001
 40
0.0
 40
0.0
 40
0.0
 40
0.0
 40
0.25
 40
0.25
 40
0.25
 40
0.25
 40
0.5
 40
0.5
 40
0.5
 40
0.5
 40
1.0
 40
1.0
 40
1.0
 40
1.0
 10
-61.9044
 20
-5.5534
 30
0.0
 10
-62.9172
 20
-4.4344
 30
0.0
 10
-62.1386
 20
-2.6829
 30
0.0
 10
-60.628
 20
-2.6829
 30
0.0
 10
-60.628
 20
-2.6829
 30
0.0
 10
-59.1841
 20
-2.6829
 30
0.0
 10
-58.4302
 20
-4.6327
 30
0.0
 10
-59.5009
 20
-5.6028
 30
0.0
 10
-59.5009
 20
-5.6028
 30
0.0
 10
-60.1818
 20
-6.2188
 30
0.0
 10
-61.3227
 20
-6.1955
 30
0.0
 10
-61.9044
 20
-5.5534
 30
0.0
  0
SPLINE
  5
88
330
1F
100
AcDbEntity
  8
Layer 1
100
AcDbSpline
210
0.0
220
0.0
230
1.0
 70
    11
 71
     3
 72
    16
 73
    12
 74
     0
 42
0.0000000001
 43
0.0000000001
 40
0.0
 40
0.0
 40
0.0
 40
0.0
 40
0.25
 40
0.25
 40
0.25
 40
0.25
 40
0.5
 40
0.5
 40
0.5
 40
0.5
 40
1.0
 40
1.0
 40
1.0
 40
1.0
 10
58.3226
 20
-5.5534
 30
0.0
 10
57.7053
 20
-4.8712
 30
0.0
 10
57.7289
 20
-3.7317
 30
0.0
 10
58.3724
 20
-3.15
 30
0.0
 10
58.3724
 20
-3.15
 30
0.0
 10
59.49
 20
-2.1371
 30
0.0
 10
61.2429
 20
-2.9157
 30
0.0
 10
61.2429
 20
-4.4249
 30
0.0
 10
61.2429
 20
-4.4249
 30
0.0
 10
61.2429
 20
-5.8702
 30
0.0
 10
59.2914
 20
-6.6241
 30
0.0
 10
58.3226
 20
-5.5534
 30
0.0
  0
SPLINE
  5
89
330
1F
100
AcDbEntity
  8
Layer 1
100
AcDbSpline
210
0.0
220
0.0
230
1.0
 70
    11
 71
     3
 72
    20
 73
    16
 74
     0
 42
0.0000000001
 43
0.0000000001
 40
0.0
 40
0.0
 40
0.0
 40
0.0
 40
0.2
 40
0.2
 40
0.2
 40
0.2
 40
0.4
 40
0.4
 40
0.4
 40
0.4
 40
0.6
 40
0.6
 40
0.6
 40
0.6
 40
1.0
 40
1.0
 40
1.0
 40
1.0
 10
-36.1237
 20
-3.9384
 30
0.0
 10
-36.1237
 20
-3.4847
 30
0.0
 10
-35.0241
 20
-1.7487
 30
0.0
 10
-33.6268
 20
-0.0011
 30
0.0
 10
-33.6268
 20
-0.0011
 30
0.0
 10
-29.6651
 20
4.9555
 30
0.0
 10
-21.1984
 20
12.4012
 30
0.0
 10
-20.4142
 20
11.617
 30
0.0
 10
-20.4142
 20
11.617
 30
0.0
 10
-19.903
 20
11.1044
 30
0.0
 10
-23.216
 20
6.8227
 30
0.0
 10
-27.226
 20
2.8127
 30
0.0
 10
-27.226
 20
2.8127
 30
0.0
 10
-31.4607
 20
-1.422
 30
0.0
 10
-36.1237
 20
-4.9608
 30
0.0
 10
-36.1237
 20
-3.9384
 30
0.0
  0
SPLINE
  5
8A
330
1F
100
AcDbEntity
  8
Layer 1
100
AcDbSpline
210
0.0
220
0.0
230
1.0
 70
    11
 71
     3
 72
    24
 73
    20
 74
     0
 42
0.0000000001
 43
0.0000000001
 40
0.0
 40
0.0
 40
0.0
 40
0.0
 40
0.1666666666666667
 40
0.1666666666666667
 40
0.1666666666666667
 40
0.1666666666666667
 40
0.3333333333333333
 40
0.3333333333333333
 40
0.3333333333333333
 40
0.3333333333333333
 40
0.5
 40
0.5
 40
0.5
 40
0.5
 40
0.6666666666666666
 40
0.6666666666666666
 40
0.6666666666666666
 40
0.6666666666666666
 40
1.0
 40
1.0
 40
1.0
 40
1.0
 10
33.7263
 20
-3.6227
 30
0.0
 10
31.2995
 20
-2.3357
 30
0.0
 10
24.7731
 20
3.7581
 30
0.0
 10
21.6877
 20
7.6179
 30
0.0
 10
21.6877
 20
7.6179
 30
0.0
 10
20.0889
 20
9.6188
 30
0.0
 10
19.0376
 20
11.369
 30
0.0
 10
19.2857
 20
11.617
 30
0.0
 10
19.2857
 20
11.617
 30
0.0
 10
19.3601
 20
11.6914
 30
0.0
 10
19.8452
 20
11.5358
 30
0.0
 10
20.3648
 20
11.2727
 30
0.0
 10
20.3648
 20
11.2727
 30
0.0
 10
23.712
 20
9.5691
 30
0.0
 10
32.8429
 20
0.4509
 30
0.0
 10
34.5362
 20
-2.8801
 30
0.0
 10
34.5362
 20
-2.8801
 30
0.0
 10
35.246
 20
-4.276
 30
0.0
 10
35.1398
 20
-4.3723
 30
0.0
 10
33.7263
 20
-3.6227
 30
0.0
  0
SPLINE
  5
8B
330
1F
100
AcDbEntity
  8
Layer 1
100
AcDbSpline
210
0.0
220
0.0
230
1.0
 70
    11
 71
     3
 72
    20
 73
    16
 74
     0
 42
0.0000000001
 43
0.0000000001
 40
0.0
 40
0.0
 40
0.0
 40
0.0
 40
0.2
 40
0.2
 40
0.2
 40
0.2
 40
0.4
 40
0.4
 40
0.4
 40
0.4
 40
0.6
 40
0.6
 40
0.6
 40
0.6
 40
1.0
 40
1.0
 40
1.0
 40
1.0
 10
-103.7897
 20
-2.9669
 30
0.0
 10
-107.4607
 20
-0.7288
 30
0.0
 10
-105.8912
 20
4.935
 30
0.0
 10
-101.6
 20
4.935
 30
0.0
 10
-101.6
 20
4.935
 30
0.0
 10
-99.1927
 20
4.935
 30
0.0
 10
-97.3695
 20
3.1119
 30
0.0
 10
-97.3695
 20
0.7045
 30
0.0
 10
-97.3695
 20
0.7045
 30
0.0
 10
-97.3695
 20
-1.7046
 30
0.0
 10
-99.1927
 20
-3.5278
 30
0.0
 10
-101.6
 20
-3.5278
 30
0.0
 10
-101.6
 20
-3.5278
 30
0.0
 10
-102.3705
 20
-3.5278
 30
0.0
 10
-103.2316
 20
-3.3073
 30
0.0
 10
-103.7897
 20
-2.9669
 30
0.0
  0
SPLINE
  5
8C
330
1F
100
AcDbEntity
  8
Layer 1
100
AcDbSpline
210
0.0
220
0.0
230
1.0
 70
    11
 71
     3
 72
    28
 73
    24
 74
     0
 42
0.0000000001
 43
0.0000000001
 40
0.0
 40
0.0
 40
0.0
 40
0.0
 40
0.1428571428571428
 40
0.1428571428571428
 40
0.1428571428571428
 40
0.1428571428571428
 40
0.2857142857142857
 40
0.2857142857142857
 40
0.2857142857142857
 40
0.2857142857142857
 40
0.4285714285714285
 40
0.4285714285714285
 40
0.4285714285714285
 40
0.4285714285714285
 40
0.5714285714285714
 40
0.5714285714285714
 40
0.5714285714285714
 40
0.5714285714285714
 40
0.7142857142857143
 40
0.7142857142857143
 40
0.7142857142857143
 40
0.7142857142857143
 40
1.0
 40
1.0
 40
1.0
 40
1.0
 10
98.2818
 20
-2.9669
 30
0.0
 10
96.9945
 20
-2.1826
 30
0.0
 10
96.2395
 20
-0.8251
 30
0.0
 10
96.2395
 20
0.7045
 30
0.0
 10
96.2395
 20
0.7045
 30
0.0
 10
96.2395
 20
2.2327
 30
0.0
 10
96.9945
 20
3.5899
 30
0.0
 10
98.2818
 20
4.3741
 30
0.0
 10
98.2818
 20
4.3741
 30
0.0
 10
100.2069
 20
5.5481
 30
0.0
 10
102.9451
 20
4.8563
 30
0.0
 10
104.1411
 20
2.8942
 30
0.0
 10
104.1411
 20
2.8942
 30
0.0
 10
105.3151
 20
0.9677
 30
0.0
 10
104.6233
 20
-1.7692
 30
0.0
 10
102.6612
 20
-2.9669
 30
0.0
 10
102.6612
 20
-2.9669
 30
0.0
 10
102.1031
 20
-3.3073
 30
0.0
 10
101.2416
 20
-3.5278
 30
0.0
 10
100.4715
 20
-3.5278
 30
0.0
 10
100.4715
 20
-3.5278
 30
0.0
 10
99.701
 20
-3.5278
 30
0.0
 10
98.8399
 20
-3.3073
 30
0.0
 10
98.2818
 20
-2.9669
 30
0.0
  0
SPLINE
  5
8D
330
1F
100
AcDbEntity
  8
Layer 1
100
AcDbSpline
210
0.0
220
0.0
230
1.0
 70
    11
 71
     3
 72
    20
 73
    16
 74
     0
 42
0.0000000001
 43
0.0000000001
 40
0.0
 40
0.0
 40
0.0
 40
0.0
 40
0.2
 40
0.2
 40
0.2
 40
0.2
 40
0.4
 40
0.4
 40
0.4
 40
0.4
 40
0.6
 40
0.6
 40
0.6
 40
0.6
 40
1.0
 40
1.0
 40
1.0
 40
1.0
 10
-48.2604
 20
-2.4169
 30
0.0
 10
-48.2604
 20
-1.5254
 30
0.0
 10
-45.7122
 20
1.5836
 30
0.0
 10
-43.7967
 20
3.0304
 30
0.0
 10
-43.7967
 20
3.0304
 30
0.0
 10
-40.7363
 20
5.3414
 30
0.0
 10
-39.9535
 20
4.5586
 30
0.0
 10
-42.2645
 20
1.4982
 30
0.0
 10
-42.2645
 20
1.4982
 30
0.0
 10
-43.7113
 20
-0.4173
 30
0.0
 10
-46.8203
 20
-2.9655
 30
0.0
 10
-47.7118
 20
-2.9655
 30
0.0
 10
-47.7118
 20
-2.9655
 30
0.0
 10
-48.066
 20
-2.9655
 30
0.0
 10
-48.2604
 20
-2.7711
 30
0.0
 10
-48.2604
 20
-2.4169
 30
0.0
  0
SPLINE
  5
8E
330
1F
100
AcDbEntity
  8
Layer 1
100
AcDbSpline
210
0.0
220
0.0
230
1.0
 70
    11
 71
     3
 72
    16
 73
    12
 74
     0
 42
0.0000000001
 43
0.0000000001
 40
0.0
 40
0.0
 40
0.0
 40
0.0
 40
0.25
 40
0.25
 40
0.25
 40
0.25
 40
0.5
 40
0.5
 40
0.5
 40
0.5
 40
1.0
 40
1.0
 40
1.0
 40
1.0
 10
-24.9329
 20
-2.4486
 30
0.0
 10
-25.5503
 20
-1.7678
 30
0.0
 10
-25.5267
 20
-0.6269
 30
0.0
 10
-24.8832
 20
-0.0452
 30
0.0
 10
-24.8832
 20
-0.0452
 30
0.0
 10
-23.7656
 20
0.9677
 30
0.0
 10
-22.0126
 20
0.1891
 30
0.0
 10
-22.0126
 20
-1.3215
 30
0.0
 10
-22.0126
 20
-1.3215
 30
0.0
 10
-22.0126
 20
-2.7654
 30
0.0
 10
-23.9642
 20
-3.5193
 30
0.0
 10
-24.9329
 20
-2.4486
 30
0.0
  0
SPLINE
  5
8F
330
1F
100
AcDbEntity
  8
Layer 1
100
AcDbSpline
210
0.0
220
0.0
230
1.0
 70
    11
 71
     3
 72
    16
 73
    12
 74
     0
 42
0.0000000001
 43
0.0000000001
 40
0.0
 40
0.0
 40
0.0
 40
0.0
 40
0.25
 40
0.25
 40
0.25
 40
0.25
 40
0.5
 40
0.5
 40
0.5
 40
0.5
 40
1.0
 40
1.0
 40
1.0
 40
1.0
 10
21.3512
 20
-2.4486
 30
0.0
 10
20.7352
 20
-1.7678
 30
0.0
 10
20.7574
 20
-0.6269
 30
0.0
 10
21.4009
 20
-0.0452
 30
0.0
 10
21.4009
 20
-0.0452
 30
0.0
 10
22.5199
 20
0.9677
 30
0.0
 10
24.2715
 20
0.1891
 30
0.0
 10
24.2715
 20
-1.3215
 30
0.0
 10
24.2715
 20
-1.3215
 30
0.0
 10
24.2715
 20
-2.7654
 30
0.0
 10
22.3202
 20
-3.5193
 30
0.0
 10
21.3512
 20
-2.4486
 30
0.0
  0
SPLINE
  5
90
330
1F
100
AcDbEntity
  8
Layer 1
100
AcDbSpline
210
0.0
220
0.0
230
1.0
 70
    11
 71
     3
 72
    20
 73
    16
 74
     0
 42
0.0000000001
 43
0.0000000001
 40
0.0
 40
0.0
 40
0.0
 40
0.0
 40
0.2
 40
0.2
 40
0.2
 40
0.2
 40
0.4
 40
0.4
 40
0.4
 40
0.4
 40
0.6
 40
0.6
 40
0.6
 40
0.6
 40
1.0
 40
1.0
 40
1.0
 40
1.0
 10
44.257
 20
-1.6217
 30
0.0
 10
42.3404
 20
-0.175
 30
0.0
 10
39.7937
 20
2.9341
 30
0.0
 10
39.7937
 20
3.8241
 30
0.0
 10
39.7937
 20
3.8241
 30
0.0
 10
39.7937
 20
4.7364
 30
0.0
 10
40.761
 20
4.469
 30
0.0
 10
42.6681
 20
3.0304
 30
0.0
 10
42.6681
 20
3.0304
 30
0.0
 10
44.5837
 20
1.5836
 30
0.0
 10
47.1318
 20
-1.5254
 30
0.0
 10
47.1318
 20
-2.4169
 30
0.0
 10
47.1318
 20
-2.4169
 30
0.0
 10
47.1318
 20
-3.3292
 30
0.0
 10
46.1627
 20
-3.0618
 30
0.0
 10
44.257
 20
-1.6217
 30
0.0
  0
SPLINE
  5
91
330
1F
100
AcDbEntity
  8
Layer 1
100
AcDbSpline
210
0.0
220
0.0
230
1.0
 70
    11
 71
     3
 72
    16
 73
    12
 74
     0
 42
0.0000000001
 43
0.0000000001
 40
0.0
 40
0.0
 40
0.0
 40
0.0
 40
0.25
 40
0.25
 40
0.25
 40
0.25
 40
0.5
 40
0.5
 40
0.5
 40
0.5
 40
1.0
 40
1.0
 40
1.0
 40
1.0
 10
-54.8488
 20
-1.8849
 30
0.0
 10
-55.8617
 20
-0.7659
 30
0.0
 10
-55.0831
 20
0.9853
 30
0.0
 10
-53.5725
 20
0.9853
 30
0.0
 10
-53.5725
 20
0.9853
 30
0.0
 10
-52.1286
 20
0.9853
 30
0.0
 10
-51.3747
 20
-0.9645
 30
0.0
 10
-52.4454
 20
-1.9332
 30
0.0
 10
-52.4454
 20
-1.9332
 30
0.0
 10
-53.1262
 20
-2.5506
 30
0.0
 10
-54.2671
 20
-2.5273
 30
0.0
 10
-54.8488
 20
-1.8849
 30
0.0
  0
SPLINE
  5
92
330
1F
100
AcDbEntity
  8
Layer 1
100
AcDbSpline
210
0.0
220
0.0
230
1.0
 70
    11
 71
     3
 72
    16
 73
    12
 74
     0
 42
0.0000000001
 43
0.0000000001
 40
0.0
 40
0.0
 40
0.0
 40
0.0
 40
0.25
 40
0.25
 40
0.25
 40
0.25
 40
0.5
 40
0.5
 40
0.5
 40
0.5
 40
1.0
 40
1.0
 40
1.0
 40
1.0
 10
51.2671
 20
-1.8849
 30
0.0
 10
50.6497
 20
-1.203
 30
0.0
 10
50.6733
 20
-0.0631
 30
0.0
 10
51.3168
 20
0.5182
 30
0.0
 10
51.3168
 20
0.5182
 30
0.0
 10
52.4344
 20
1.5311
 30
0.0
 10
54.1874
 20
0.7539
 30
0.0
 10
54.1874
 20
-0.7564
 30
0.0
 10
54.1874
 20
-0.7564
 30
0.0
 10
54.1874
 20
-2.202
 30
0.0
 10
52.2358
 20
-2.9556
 30
0.0
 10
51.2671
 20
-1.8849
 30
0.0
  0
SPLINE
  5
93
330
1F
100
AcDbEntity
  8
Layer 1
100
AcDbSpline
210
0.0
220
0.0
230
1.0
 70
    11
 71
     3
 72
    16
 73
    12
 74
     0
 42
0.0000000001
 43
0.0000000001
 40
0.0
 40
0.0
 40
0.0
 40
0.0
 40
0.25
 40
0.25
 40
0.25
 40
0.25
 40
0.5
 40
0.5
 40
0.5
 40
0.5
 40
1.0
 40
1.0
 40
1.0
 40
1.0
 10
-4.8948
 20
-1.0375
 30
0.0
 10
-5.5122
 20
-0.3567
 30
0.0
 10
-5.4889
 20
0.7842
 30
0.0
 10
-4.8465
 20
1.366
 30
0.0
 10
-4.8465
 20
1.366
 30
0.0
 10
-3.7275
 20
2.3788
 30
0.0
 10
-1.9763
 20
1.6002
 30
0.0
 10
-1.9763
 20
0.0896
 30
0.0
 10
-1.9763
 20
0.0896
 30
0.0
 10
-1.9763
 20
-1.3543
 30
0.0
 10
-3.9261
 20
-2.1082
 30
0.0
 10
-4.8948
 20
-1.0375
 30
0.0
  0
SPLINE
  5
94
330
1F
100
AcDbEntity
  8
Layer 1
100
AcDbSpline
210
0.0
220
0.0
230
1.0
 70
    11
 71
     3
 72
    16
 73
    12
 74
     0
 42
0.0000000001
 43
0.0000000001
 40
0.0
 40
0.0
 40
0.0
 40
0.0
 40
0.25
 40
0.25
 40
0.25
 40
0.25
 40
0.5
 40
0.5
 40
0.5
 40
0.5
 40
1.0
 40
1.0
 40
1.0
 40
1.0
 10
1.3134
 20
-1.0375
 30
0.0
 10
0.6974
 20
-0.3567
 30
0.0
 10
0.7207
 20
0.7842
 30
0.0
 10
1.3628
 20
1.366
 30
0.0
 10
1.3628
 20
1.366
 30
0.0
 10
2.4818
 20
2.3788
 30
0.0
 10
4.2333
 20
1.6002
 30
0.0
 10
4.2333
 20
0.0896
 30
0.0
 10
4.2333
 20
0.0896
 30
0.0
 10
4.2333
 20
-1.3543
 30
0.0
 10
2.2835
 20
-2.1082
 30
0.0
 10
1.3134
 20
-1.0375
 30
0.0
  0
SPLINE
  5
95
330
1F
100
AcDbEntity
  8
Layer 1
100
AcDbSpline
210
0.0
220
0.0
230
1.0
 70
    11
 71
     3
 72
    20
 73
    16
 74
     0
 42
0.0000000001
 43
0.0000000001
 40
0.0
 40
0.0
 40
0.0
 40
0.0
 40
0.2
 40
0.2
 40
0.2
 40
0.2
 40
0.4
 40
0.4
 40
0.4
 40
0.4
 40
0.6
 40
0.6
 40
0.6
 40
0.6
 40
1.0
 40
1.0
 40
1.0
 40
1.0
 10
-121.073
 20
-1.0058
 30
0.0
 10
-121.073
 20
-0.8597
 30
0.0
 10
-120.3043
 20
0.2152
 30
0.0
 10
-119.3641
 20
1.3836
 30
0.0
 10
-119.3641
 20
1.3836
 30
0.0
 10
-116.7529
 20
4.6302
 30
0.0
 10
-111.5011
 20
9.2883
 30
0.0
 10
-111.0079
 20
8.7948
 30
0.0
 10
-111.0079
 20
8.7948
 30
0.0
 10
-110.5147
 20
8.3016
 30
0.0
 10
-115.171
 20
3.0498
 30
0.0
 10
-118.419
 20
0.4371
 30
0.0
 10
-118.419
 20
0.4371
 30
0.0
 10
-120.4902
 20
-1.2305
 30
0.0
 10
-121.073
 20
-1.5473
 30
0.0
 10
-121.073
 20
-1.0058
 30
0.0
  0
SPLINE
  5
96
330
1F
100
AcDbEntity
  8
Layer 1
100
AcDbSpline
210
0.0
220
0.0
230
1.0
 70
    11
 71
     3
 72
    16
 73
    12
 74
     0
 42
0.0000000001
 43
0.0000000001
 40
0.0
 40
0.0
 40
0.0
 40
0.0
 40
0.25
 40
0.25
 40
0.25
 40
0.25
 40
0.5
 40
0.5
 40
0.5
 40
0.5
 40
1.0
 40
1.0
 40
1.0
 40
1.0
 10
117.2891
 20
0.4371
 30
0.0
 10
114.0425
 20
3.0498
 30
0.0
 10
109.3844
 20
8.3016
 30
0.0
 10
109.8779
 20
8.7948
 30
0.0
 10
109.8779
 20
8.7948
 30
0.0
 10
110.3711
 20
9.2883
 30
0.0
 10
115.6229
 20
4.6302
 30
0.0
 10
118.2356
 20
1.3836
 30
0.0
 10
118.2356
 20
1.3836
 30
0.0
 10
120.8387
 20
-1.8531
 30
0.0
 10
120.5258
 20
-2.1661
 30
0.0
 10
117.2891
 20
0.4371
 30
0.0
  0
SPLINE
  5
97
330
1F
100
AcDbEntity
  8
Layer 1
100
AcDbSpline
210
0.0
220
0.0
230
1.0
 70
    11
 71
     3
 72
    16
 73
    12
 74
     0
 42
0.0000000001
 43
0.0000000001
 40
0.0
 40
0.0
 40
0.0
 40
0.0
 40
0.25
 40
0.25
 40
0.25
 40
0.25
 40
0.5
 40
0.5
 40
0.5
 40
0.5
 40
1.0
 40
1.0
 40
1.0
 40
1.0
 10
-65.8552
 20
-0.4738
 30
0.0
 10
-66.868
 20
0.6452
 30
0.0
 10
-66.0894
 20
2.3964
 30
0.0
 10
-64.5802
 20
2.3964
 30
0.0
 10
-64.5802
 20
2.3964
 30
0.0
 10
-63.1349
 20
2.3964
 30
0.0
 10
-62.381
 20
0.4466
 30
0.0
 10
-63.4517
 20
-0.5221
 30
0.0
 10
-63.4517
 20
-0.5221
 30
0.0
 10
-64.1339
 20
-1.1395
 30
0.0
 10
-65.2734
 20
-1.1162
 30
0.0
 10
-65.8552
 20
-0.4738
 30
0.0
  0
SPLINE
  5
98
330
1F
100
AcDbEntity
  8
Layer 1
100
AcDbSpline
210
0.0
220
0.0
230
1.0
 70
    11
 71
     3
 72
    16
 73
    12
 74
     0
 42
0.0000000001
 43
0.0000000001
 40
0.0
 40
0.0
 40
0.0
 40
0.0
 40
0.25
 40
0.25
 40
0.25
 40
0.25
 40
0.5
 40
0.5
 40
0.5
 40
0.5
 40
1.0
 40
1.0
 40
1.0
 40
1.0
 10
62.2734
 20
-0.4738
 30
0.0
 10
61.6574
 20
0.2081
 30
0.0
 10
61.6797
 20
1.348
 30
0.0
 10
62.3231
 20
1.9293
 30
0.0
 10
62.3231
 20
1.9293
 30
0.0
 10
63.4421
 20
2.9422
 30
0.0
 10
65.1937
 20
2.165
 30
0.0
 10
65.1937
 20
0.6548
 30
0.0
 10
65.1937
 20
0.6548
 30
0.0
 10
65.1937
 20
-0.7909
 30
0.0
 10
63.2425
 20
-1.5445
 30
0.0
 10
62.2734
 20
-0.4738
 30
0.0
  0
SPLINE
  5
99
330
1F
100
AcDbEntity
  8
Layer 1
100
AcDbSpline
210
0.0
220
0.0
230
1.0
 70
    11
 71
     3
 72
    16
 73
    12
 74
     0
 42
0.0000000001
 43
0.0000000001
 40
0.0
 40
0.0
 40
0.0
 40
0.0
 40
0.25
 40
0.25
 40
0.25
 40
0.25
 40
0.5
 40
0.5
 40
0.5
 40
0.5
 40
1.0
 40
1.0
 40
1.0
 40
1.0
 10
-74.0392
 20
0.3736
 30
0.0
 10
-75.0521
 20
1.4926
 30
0.0
 10
-74.2735
 20
3.2441
 30
0.0
 10
-72.7647
 20
3.2441
 30
0.0
 10
-72.7647
 20
3.2441
 30
0.0
 10
-71.319
 20
3.2441
 30
0.0
 10
-70.5651
 20
1.2929
 30
0.0
 10
-71.6358
 20
0.3239
 30
0.0
 10
-71.6358
 20
0.3239
 30
0.0
 10
-72.318
 20
-0.2921
 30
0.0
 10
-73.4579
 20
-0.2699
 30
0.0
 10
-74.0392
 20
0.3736
 30
0.0
  0
SPLINE
  5
9A
330
1F
100
AcDbEntity
  8
Layer 1
100
AcDbSpline
210
0.0
220
0.0
230
1.0
 70
    11
 71
     3
 72
    16
 73
    12
 74
     0
 42
0.0000000001
 43
0.0000000001
 40
0.0
 40
0.0
 40
0.0
 40
0.0
 40
0.25
 40
0.25
 40
0.25
 40
0.25
 40
0.5
 40
0.5
 40
0.5
 40
0.5
 40
1.0
 40
1.0
 40
1.0
 40
1.0
 10
70.4578
 20
0.3736
 30
0.0
 10
69.8419
 20
1.0545
 30
0.0
 10
69.8652
 20
2.1953
 30
0.0
 10
70.5072
 20
2.7771
 30
0.0
 10
70.5072
 20
2.7771
 30
0.0
 10
71.6262
 20
3.7899
 30
0.0
 10
73.3778
 20
3.0113
 30
0.0
 10
73.3778
 20
1.5007
 30
0.0
 10
73.3778
 20
1.5007
 30
0.0
 10
73.3778
 20
0.0568
 30
0.0
 10
71.428
 20
-0.6971
 30
0.0
 10
70.4578
 20
0.3736
 30
0.0
  0
SPLINE
  5
9B
330
1F
100
AcDbEntity
  8
Layer 1
100
AcDbSpline
210
0.0
220
0.0
230
1.0
 70
    11
 71
     3
 72
    20
 73
    16
 74
     0
 42
0.0000000001
 43
0.0000000001
 40
0.0
 40
0.0
 40
0.0
 40
0.0
 40
0.2
 40
0.2
 40
0.2
 40
0.2
 40
0.4
 40
0.4
 40
0.4
 40
0.4
 40
0.6
 40
0.6
 40
0.6
 40
0.6
 40
1.0
 40
1.0
 40
1.0
 40
1.0
 10
-91.0897
 20
1.2665
 30
0.0
 10
-94.7607
 20
3.5045
 30
0.0
 10
-93.1912
 20
9.1683
 30
0.0
 10
-88.9
 20
9.1683
 30
0.0
 10
-88.9
 20
9.1683
 30
0.0
 10
-86.4927
 20
9.1683
 30
0.0
 10
-84.6695
 20
7.3452
 30
0.0
 10
-84.6695
 20
4.9378
 30
0.0
 10
-84.6695
 20
4.9378
 30
0.0
 10
-84.6695
 20
2.5287
 30
0.0
 10
-86.4927
 20
0.7056
 30
0.0
 10
-88.9
 20
0.7056
 30
0.0
 10
-88.9
 20
0.7056
 30
0.0
 10
-89.6705
 20
0.7056
 30
0.0
 10
-90.5316
 20
0.926
 30
0.0
 10
-91.0897
 20
1.2665
 30
0.0
  0
SPLINE
  5
9C
330
1F
100
AcDbEntity
  8
Layer 1
100
AcDbSpline
210
0.0
220
0.0
230
1.0
 70
    11
 71
     3
 72
    28
 73
    24
 74
     0
 42
0.0000000001
 43
0.0000000001
 40
0.0
 40
0.0
 40
0.0
 40
0.0
 40
0.1428571428571428
 40
0.1428571428571428
 40
0.1428571428571428
 40
0.1428571428571428
 40
0.2857142857142857
 40
0.2857142857142857
 40
0.2857142857142857
 40
0.2857142857142857
 40
0.4285714285714285
 40
0.4285714285714285
 40
0.4285714285714285
 40
0.4285714285714285
 40
0.5714285714285714
 40
0.5714285714285714
 40
0.5714285714285714
 40
0.5714285714285714
 40
0.7142857142857143
 40
0.7142857142857143
 40
0.7142857142857143
 40
0.7142857142857143
 40
1.0
 40
1.0
 40
1.0
 40
1.0
 10
85.5818
 20
1.2665
 30
0.0
 10
84.2945
 20
2.0507
 30
0.0
 10
83.5395
 20
3.4082
 30
0.0
 10
83.5395
 20
4.9378
 30
0.0
 10
83.5395
 20
4.9378
 30
0.0
 10
83.5395
 20
6.4661
 30
0.0
 10
84.2945
 20
7.8232
 30
0.0
 10
85.5818
 20
8.6074
 30
0.0
 10
85.5818
 20
8.6074
 30
0.0
 10
87.5069
 20
9.7815
 30
0.0
 10
90.2451
 20
9.0897
 30
0.0
 10
91.4411
 20
7.1275
 30
0.0
 10
91.4411
 20
7.1275
 30
0.0
 10
92.6151
 20
5.201
 30
0.0
 10
91.9233
 20
2.4642
 30
0.0
 10
89.9612
 20
1.2665
 30
0.0
 10
89.9612
 20
1.2665
 30
0.0
 10
89.4031
 20
0.926
 30
0.0
 10
88.5416
 20
0.7056
 30
0.0
 10
87.7715
 20
0.7056
 30
0.0
 10
87.7715
 20
0.7056
 30
0.0
 10
87.001
 20
0.7056
 30
0.0
 10
86.1399
 20
0.926
 30
0.0
 10
85.5818
 20
1.2665
 30
0.0
  0
SPLINE
  5
9D
330
1F
100
AcDbEntity
  8
Layer 1
100
AcDbSpline
210
0.0
220
0.0
230
1.0
 70
    11
 71
     3
 72
    20
 73
    16
 74
     0
 42
0.0000000001
 43
0.0000000001
 40
0.0
 40
0.0
 40
0.0
 40
0.0
 40
0.2
 40
0.2
 40
0.2
 40
0.2
 40
0.4
 40
0.4
 40
0.4
 40
0.4
 40
0.6
 40
0.6
 40
0.6
 40
0.6
 40
1.0
 40
1.0
 40
1.0
 40
1.0
 10
-58.9841
 20
3.2276
 30
0.0
 10
-58.9841
 20
4.119
 30
0.0
 10
-56.4374
 20
7.2281
 30
0.0
 10
-54.5208
 20
8.6748
 30
0.0
 10
-54.5208
 20
8.6748
 30
0.0
 10
-51.4615
 20
10.9859
 30
0.0
 10
-50.6787
 20
10.203
 30
0.0
 10
-52.9897
 20
7.1427
 30
0.0
 10
-52.9897
 20
7.1427
 30
0.0
 10
-54.4368
 20
5.2271
 30
0.0
 10
-57.5455
 20
2.679
 30
0.0
 10
-58.4359
 20
2.679
 30
0.0
 10
-58.4359
 20
2.679
 30
0.0
 10
-58.7911
 20
2.679
 30
0.0
 10
-58.9841
 20
2.8734
 30
0.0
 10
-58.9841
 20
3.2276
 30
0.0
  0
SPLINE
  5
9E
330
1F
100
AcDbEntity
  8
Layer 1
100
AcDbSpline
210
0.0
220
0.0
230
1.0
 70
    11
 71
     3
 72
    20
 73
    16
 74
     0
 42
0.0000000001
 43
0.0000000001
 40
0.0
 40
0.0
 40
0.0
 40
0.0
 40
0.2
 40
0.2
 40
0.2
 40
0.2
 40
0.4
 40
0.4
 40
0.4
 40
0.4
 40
0.6
 40
0.6
 40
0.6
 40
0.6
 40
1.0
 40
1.0
 40
1.0
 40
1.0
 10
54.9811
 20
4.0227
 30
0.0
 10
53.0655
 20
5.4695
 30
0.0
 10
50.5174
 20
8.5785
 30
0.0
 10
50.5174
 20
9.4686
 30
0.0
 10
50.5174
 20
9.4686
 30
0.0
 10
50.5174
 20
10.3808
 30
0.0
 10
51.4861
 20
10.1134
 30
0.0
 10
53.3922
 20
8.6748
 30
0.0
 10
53.3922
 20
8.6748
 30
0.0
 10
55.3074
 20
7.2281
 30
0.0
 10
57.8556
 20
4.119
 30
0.0
 10
57.8556
 20
3.2276
 30
0.0
 10
57.8556
 20
3.2276
 30
0.0
 10
57.8556
 20
2.3153
 30
0.0
 10
56.8868
 20
2.5827
 30
0.0
 10
54.9811
 20
4.0227
 30
0.0
  0
SPLINE
  5
9F
330
1F
100
AcDbEntity
  8
Layer 1
100
AcDbSpline
210
0.0
220
0.0
230
1.0
 70
    11
 71
     3
 72
    16
 73
    12
 74
     0
 42
0.0000000001
 43
0.0000000001
 40
0.0
 40
0.0
 40
0.0
 40
0.0
 40
0.25
 40
0.25
 40
0.25
 40
0.25
 40
0.5
 40
0.5
 40
0.5
 40
0.5
 40
1.0
 40
1.0
 40
1.0
 40
1.0
 10
-37.6329
 20
4.6069
 30
0.0
 10
-38.2503
 20
5.2878
 30
0.0
 10
-38.2267
 20
6.4287
 30
0.0
 10
-37.5832
 20
7.0104
 30
0.0
 10
-37.5832
 20
7.0104
 30
0.0
 10
-36.4656
 20
8.0232
 30
0.0
 10
-34.7126
 20
7.2446
 30
0.0
 10
-34.7126
 20
5.7341
 30
0.0
 10
-34.7126
 20
5.7341
 30
0.0
 10
-34.7126
 20
4.2901
 30
0.0
 10
-36.6642
 20
3.5362
 30
0.0
 10
-37.6329
 20
4.6069
 30
0.0
  0
SPLINE
  5
A0
330
1F
100
AcDbEntity
  8
Layer 1
100
AcDbSpline
210
0.0
220
0.0
230
1.0
 70
    11
 71
     3
 72
    16
 73
    12
 74
     0
 42
0.0000000001
 43
0.0000000001
 40
0.0
 40
0.0
 40
0.0
 40
0.0
 40
0.25
 40
0.25
 40
0.25
 40
0.25
 40
0.5
 40
0.5
 40
0.5
 40
0.5
 40
1.0
 40
1.0
 40
1.0
 40
1.0
 10
34.0512
 20
4.6069
 30
0.0
 10
33.4352
 20
5.2878
 30
0.0
 10
33.4574
 20
6.4287
 30
0.0
 10
34.1009
 20
7.0104
 30
0.0
 10
34.1009
 20
7.0104
 30
0.0
 10
35.2199
 20
8.0232
 30
0.0
 10
36.9715
 20
7.2446
 30
0.0
 10
36.9715
 20
5.7341
 30
0.0
 10
36.9715
 20
5.7341
 30
0.0
 10
36.9715
 20
4.2901
 30
0.0
 10
35.0202
 20
3.5362
 30
0.0
 10
34.0512
 20
4.6069
 30
0.0
  0
SPLINE
  5
A1
330
1F
100
AcDbEntity
  8
Layer 1
100
AcDbSpline
210
0.0
220
0.0
230
1.0
 70
    11
 71
     3
 72
    16
 73
    12
 74
     0
 42
0.0000000001
 43
0.0000000001
 40
0.0
 40
0.0
 40
0.0
 40
0.0
 40
0.25
 40
0.25
 40
0.25
 40
0.25
 40
0.5
 40
0.5
 40
0.5
 40
0.5
 40
1.0
 40
1.0
 40
1.0
 40
1.0
 10
-17.0311
 20
6.864
 30
0.0
 10
-17.647
 20
7.5463
 30
0.0
 10
-17.6237
 20
8.6861
 30
0.0
 10
-16.9817
 20
9.2675
 30
0.0
 10
-16.9817
 20
9.2675
 30
0.0
 10
-15.8627
 20
10.2803
 30
0.0
 10
-14.1111
 20
9.5017
 30
0.0
 10
-14.1111
 20
7.9929
 30
0.0
 10
-14.1111
 20
7.9929
 30
0.0
 10
-14.1111
 20
6.5472
 30
0.0
 10
-16.0609
 20
5.7933
 30
0.0
 10
-17.0311
 20
6.864
 30
0.0
  0
SPLINE
  5
A2
330
1F
100
AcDbEntity
  8
Layer 1
100
AcDbSpline
210
0.0
220
0.0
230
1.0
 70
    11
 71
     3
 72
    16
 73
    12
 74
     0
 42
0.0000000001
 43
0.0000000001
 40
0.0
 40
0.0
 40
0.0
 40
0.0
 40
0.25
 40
0.25
 40
0.25
 40
0.25
 40
0.5
 40
0.5
 40
0.5
 40
0.5
 40
1.0
 40
1.0
 40
1.0
 40
1.0
 10
13.4496
 20
6.864
 30
0.0
 10
12.8323
 20
7.5463
 30
0.0
 10
12.8556
 20
8.6861
 30
0.0
 10
13.498
 20
9.2675
 30
0.0
 10
13.498
 20
9.2675
 30
0.0
 10
14.617
 20
10.2803
 30
0.0
 10
16.3682
 20
9.5017
 30
0.0
 10
16.3682
 20
7.9929
 30
0.0
 10
16.3682
 20
7.9929
 30
0.0
 10
16.3682
 20
6.5472
 30
0.0
 10
14.4184
 20
5.7933
 30
0.0
 10
13.4496
 20
6.864
 30
0.0
  0
SPLINE
  5
A3
330
1F
100
AcDbEntity
  8
Layer 1
100
AcDbSpline
210
0.0
220
0.0
230
1.0
 70
    11
 71
     3
 72
    16
 73
    12
 74
     0
 42
0.0000000001
 43
0.0000000001
 40
0.0
 40
0.0
 40
0.0
 40
0.0
 40
0.25
 40
0.25
 40
0.25
 40
0.25
 40
0.5
 40
0.5
 40
0.5
 40
0.5
 40
1.0
 40
1.0
 40
1.0
 40
1.0
 10
-66.7011
 20
7.7117
 30
0.0
 10
-67.7139
 20
8.8293
 30
0.0
 10
-66.9354
 20
10.5823
 30
0.0
 10
-65.4265
 20
10.5823
 30
0.0
 10
-65.4265
 20
10.5823
 30
0.0
 10
-63.9808
 20
10.5823
 30
0.0
 10
-63.2273
 20
8.6307
 30
0.0
 10
-64.298
 20
7.662
 30
0.0
 10
-64.298
 20
7.662
 30
0.0
 10
-64.9799
 20
7.0446
 30
0.0
 10
-66.1197
 20
7.0683
 30
0.0
 10
-66.7011
 20
7.7117
 30
0.0
  0
SPLINE
  5
A4
330
1F
100
AcDbEntity
  8
Layer 1
100
AcDbSpline
210
0.0
220
0.0
230
1.0
 70
    11
 71
     3
 72
    16
 73
    12
 74
     0
 42
0.0000000001
 43
0.0000000001
 40
0.0
 40
0.0
 40
0.0
 40
0.0
 40
0.25
 40
0.25
 40
0.25
 40
0.25
 40
0.5
 40
0.5
 40
0.5
 40
0.5
 40
1.0
 40
1.0
 40
1.0
 40
1.0
 10
63.1211
 20
7.7117
 30
0.0
 10
62.5038
 20
8.3926
 30
0.0
 10
62.527
 20
9.5335
 30
0.0
 10
63.1694
 20
10.1148
 30
0.0
 10
63.1694
 20
10.1148
 30
0.0
 10
64.2881
 20
11.1266
 30
0.0
 10
66.0396
 20
10.3491
 30
0.0
 10
66.0396
 20
8.8388
 30
0.0
 10
66.0396
 20
8.8388
 30
0.0
 10
66.0396
 20
7.3932
 30
0.0
 10
64.0898
 20
6.6396
 30
0.0
 10
63.1211
 20
7.7117
 30
0.0
  0
SPLINE
  5
A5
330
1F
100
AcDbEntity
  8
Layer 1
100
AcDbSpline
210
0.0
220
0.0
230
1.0
 70
    11
 71
     3
 72
    16
 73
    12
 74
     0
 42
0.0000000001
 43
0.0000000001
 40
0.0
 40
0.0
 40
0.0
 40
0.0
 40
0.25
 40
0.25
 40
0.25
 40
0.25
 40
0.5
 40
0.5
 40
0.5
 40
0.5
 40
1.0
 40
1.0
 40
1.0
 40
1.0
 10
-82.2233
 20
7.9929
 30
0.0
 10
-83.2362
 20
9.1119
 30
0.0
 10
-82.4576
 20
10.8631
 30
0.0
 10
-80.9487
 20
10.8631
 30
0.0
 10
-80.9487
 20
10.8631
 30
0.0
 10
-79.5031
 20
10.8631
 30
0.0
 10
-78.7495
 20
8.9133
 30
0.0
 10
-79.8202
 20
7.9446
 30
0.0
 10
-79.8202
 20
7.9446
 30
0.0
 10
-80.5021
 20
7.3272
 30
0.0
 10
-81.642
 20
7.3505
 30
0.0
 10
-82.2233
 20
7.9929
 30
0.0
  0
SPLINE
  5
A6
330
1F
100
AcDbEntity
  8
Layer 1
100
AcDbSpline
210
0.0
220
0.0
230
1.0
 70
    11
 71
     3
 72
    16
 73
    12
 74
     0
 42
0.0000000001
 43
0.0000000001
 40
0.0
 40
0.0
 40
0.0
 40
0.0
 40
0.25
 40
0.25
 40
0.25
 40
0.25
 40
0.5
 40
0.5
 40
0.5
 40
0.5
 40
1.0
 40
1.0
 40
1.0
 40
1.0
 10
78.6433
 20
7.9929
 30
0.0
 10
78.026
 20
8.6748
 30
0.0
 10
78.0493
 20
9.8146
 30
0.0
 10
78.6917
 20
10.396
 30
0.0
 10
78.6917
 20
10.396
 30
0.0
 10
79.8103
 20
11.4088
 30
0.0
 10
81.5619
 20
10.6317
 30
0.0
 10
81.5619
 20
9.1214
 30
0.0
 10
81.5619
 20
9.1214
 30
0.0
 10
81.5619
 20
7.6757
 30
0.0
 10
79.6121
 20
6.9222
 30
0.0
 10
78.6433
 20
7.9929
 30
0.0
  0
SPLINE
  5
A7
330
1F
100
AcDbEntity
  8
Layer 1
100
AcDbSpline
210
0.0
220
0.0
230
1.0
 70
    11
 71
     3
 72
    16
 73
    12
 74
     0
 42
0.0000000001
 43
0.0000000001
 40
0.0
 40
0.0
 40
0.0
 40
0.0
 40
0.25
 40
0.25
 40
0.25
 40
0.25
 40
0.5
 40
0.5
 40
0.5
 40
0.5
 40
1.0
 40
1.0
 40
1.0
 40
1.0
 10
-75.7329
 20
9.404
 30
0.0
 10
-76.7458
 20
10.523
 30
0.0
 10
-75.9672
 20
12.2742
 30
0.0
 10
-74.458
 20
12.2742
 30
0.0
 10
-74.458
 20
12.2742
 30
0.0
 10
-73.0127
 20
12.2742
 30
0.0
 10
-72.2588
 20
10.3244
 30
0.0
 10
-73.3295
 20
9.3557
 30
0.0
 10
-73.3295
 20
9.3557
 30
0.0
 10
-74.0117
 20
8.7383
 30
0.0
 10
-75.1512
 20
8.7616
 30
0.0
 10
-75.7329
 20
9.404
 30
0.0
  0
SPLINE
  5
A8
330
1F
100
AcDbEntity
  8
Layer 1
100
AcDbSpline
210
0.0
220
0.0
230
1.0
 70
    11
 71
     3
 72
    16
 73
    12
 74
     0
 42
0.0000000001
 43
0.0000000001
 40
0.0
 40
0.0
 40
0.0
 40
0.0
 40
0.25
 40
0.25
 40
0.25
 40
0.25
 40
0.5
 40
0.5
 40
0.5
 40
0.5
 40
1.0
 40
1.0
 40
1.0
 40
1.0
 10
72.1512
 20
9.404
 30
0.0
 10
71.5352
 20
10.0859
 30
0.0
 10
71.5574
 20
11.2257
 30
0.0
 10
72.2009
 20
11.8071
 30
0.0
 10
72.2009
 20
11.8071
 30
0.0
 10
73.3199
 20
12.8199
 30
0.0
 10
75.0715
 20
12.0428
 30
0.0
 10
75.0715
 20
10.5325
 30
0.0
 10
75.0715
 20
10.5325
 30
0.0
 10
75.0715
 20
9.0869
 30
0.0
 10
73.1202
 20
8.3333
 30
0.0
 10
72.1512
 20
9.404
 30
0.0
  0
SPLINE
  5
A9
330
1F
100
AcDbEntity
  8
Layer 1
100
AcDbSpline
210
0.0
220
0.0
230
1.0
 70
    11
 71
     3
 72
    20
 73
    16
 74
     0
 42
0.0000000001
 43
0.0000000001
 40
0.0
 40
0.0
 40
0.0
 40
0.0
 40
0.2
 40
0.2
 40
0.2
 40
0.2
 40
0.4
 40
0.4
 40
0.4
 40
0.4
 40
0.6
 40
0.6
 40
0.6
 40
0.6
 40
1.0
 40
1.0
 40
1.0
 40
1.0
 10
-40.3571
 20
9.6079
 30
0.0
 10
-40.3571
 20
10.0626
 30
0.0
 10
-39.2575
 20
11.7976
 30
0.0
 10
-37.8601
 20
13.5449
 30
0.0
 10
-37.8601
 20
13.5449
 30
0.0
 10
-33.8984
 20
18.5032
 30
0.0
 10
-25.4318
 20
25.9472
 30
0.0
 10
-24.6475
 20
25.1633
 30
0.0
 10
-24.6475
 20
25.1633
 30
0.0
 10
-24.1364
 20
24.6518
 30
0.0
 10
-27.4493
 20
20.369
 30
0.0
 10
-31.4593
 20
16.359
 30
0.0
 10
-31.4593
 20
16.359
 30
0.0
 10
-35.6941
 20
12.1243
 30
0.0
 10
-40.3571
 20
8.5866
 30
0.0
 10
-40.3571
 20
9.6079
 30
0.0
  0
SPLINE
  5
AA
330
1F
100
AcDbEntity
  8
Layer 1
100
AcDbSpline
210
0.0
220
0.0
230
1.0
 70
    11
 71
     3
 72
    24
 73
    20
 74
     0
 42
0.0000000001
 43
0.0000000001
 40
0.0
 40
0.0
 40
0.0
 40
0.0
 40
0.1666666666666667
 40
0.1666666666666667
 40
0.1666666666666667
 40
0.1666666666666667
 40
0.3333333333333333
 40
0.3333333333333333
 40
0.3333333333333333
 40
0.3333333333333333
 40
0.5
 40
0.5
 40
0.5
 40
0.5
 40
0.6666666666666666
 40
0.6666666666666666
 40
0.6666666666666666
 40
0.6666666666666666
 40
1.0
 40
1.0
 40
1.0
 40
1.0
 10
37.9596
 20
9.9247
 30
0.0
 10
35.5328
 20
11.2106
 30
0.0
 10
29.0064
 20
17.3055
 30
0.0
 10
25.921
 20
21.1656
 30
0.0
 10
25.921
 20
21.1656
 30
0.0
 10
24.3223
 20
23.1662
 30
0.0
 10
23.271
 20
24.9149
 30
0.0
 10
23.519
 20
25.1633
 30
0.0
 10
23.519
 20
25.1633
 30
0.0
 10
23.5934
 20
25.2377
 30
0.0
 10
24.0785
 20
25.0832
 30
0.0
 10
24.5981
 20
24.8186
 30
0.0
 10
24.5981
 20
24.8186
 30
0.0
 10
27.9453
 20
23.1154
 30
0.0
 10
37.0762
 20
13.9982
 30
0.0
 10
38.7696
 20
10.6662
 30
0.0
 10
38.7696
 20
10.6662
 30
0.0
 10
39.4794
 20
9.2717
 30
0.0
 10
39.3732
 20
9.1736
 30
0.0
 10
37.9596
 20
9.9247
 30
0.0
  0
SPLINE
  5
AB
330
1F
100
AcDbEntity
  8
Layer 1
100
AcDbSpline
210
0.0
220
0.0
230
1.0
 70
    11
 71
     3
 72
    20
 73
    16
 74
     0
 42
0.0000000001
 43
0.0000000001
 40
0.0
 40
0.0
 40
0.0
 40
0.0
 40
0.2
 40
0.2
 40
0.2
 40
0.2
 40
0.4
 40
0.4
 40
0.4
 40
0.4
 40
0.6
 40
0.6
 40
0.6
 40
0.6
 40
1.0
 40
1.0
 40
1.0
 40
1.0
 10
-47.6952
 20
11.4117
 30
0.0
 10
-47.6952
 20
12.3031
 30
0.0
 10
-45.1485
 20
15.4122
 30
0.0
 10
-43.2319
 20
16.8593
 30
0.0
 10
-43.2319
 20
16.8593
 30
0.0
 10
-40.1726
 20
19.1699
 30
0.0
 10
-39.3898
 20
18.3875
 30
0.0
 10
-41.7008
 20
15.3268
 30
0.0
 10
-41.7008
 20
15.3268
 30
0.0
 10
-43.1479
 20
13.4112
 30
0.0
 10
-46.2566
 20
10.8631
 30
0.0
 10
-47.147
 20
10.8631
 30
0.0
 10
-47.147
 20
10.8631
 30
0.0
 10
-47.5022
 20
10.8631
 30
0.0
 10
-47.6952
 20
11.0575
 30
0.0
 10
-47.6952
 20
11.4117
 30
0.0
  0
SPLINE
  5
AC
330
1F
100
AcDbEntity
  8
Layer 1
100
AcDbSpline
210
0.0
220
0.0
230
1.0
 70
    11
 71
     3
 72
    20
 73
    16
 74
     0
 42
0.0000000001
 43
0.0000000001
 40
0.0
 40
0.0
 40
0.0
 40
0.0
 40
0.2
 40
0.2
 40
0.2
 40
0.2
 40
0.4
 40
0.4
 40
0.4
 40
0.4
 40
0.6
 40
0.6
 40
0.6
 40
0.6
 40
1.0
 40
1.0
 40
1.0
 40
1.0
 10
43.6922
 20
12.2068
 30
0.0
 10
41.7766
 20
13.6539
 30
0.0
 10
39.2285
 20
16.7626
 30
0.0
 10
39.2285
 20
17.653
 30
0.0
 10
39.2285
 20
17.653
 30
0.0
 10
39.2285
 20
18.5663
 30
0.0
 10
40.1973
 20
18.2979
 30
0.0
 10
42.1033
 20
16.8593
 30
0.0
 10
42.1033
 20
16.8593
 30
0.0
 10
44.0185
 20
15.4122
 30
0.0
 10
46.5667
 20
12.3031
 30
0.0
 10
46.5667
 20
11.4117
 30
0.0
 10
46.5667
 20
11.4117
 30
0.0
 10
46.5667
 20
10.4994
 30
0.0
 10
45.5979
 20
10.7668
 30
0.0
 10
43.6922
 20
12.2068
 30
0.0
  0
SPLINE
  5
AD
330
1F
100
AcDbEntity
  8
Layer 1
100
AcDbSpline
210
0.0
220
0.0
230
1.0
 70
    11
 71
     3
 72
    16
 73
    12
 74
     0
 42
0.0000000001
 43
0.0000000001
 40
0.0
 40
0.0
 40
0.0
 40
0.0
 40
0.25
 40
0.25
 40
0.25
 40
0.25
 40
0.5
 40
0.5
 40
0.5
 40
0.5
 40
1.0
 40
1.0
 40
1.0
 40
1.0
 10
-6.8612
 20
12.5017
 30
0.0
 10
-7.91
 20
13.5961
 30
0.0
 10
-7.8962
 20
15.0082
 30
0.0
 10
-6.828
 20
16.0323
 30
0.0
 10
-6.828
 20
16.0323
 30
0.0
 10
-5.1802
 20
17.6114
 30
0.0
 10
-2.5397
 20
16.4952
 30
0.0
 10
-2.5397
 20
14.2173
 30
0.0
 10
-2.5397
 20
14.2173
 30
0.0
 10
-2.5397
 20
11.9782
 30
0.0
 10
-5.3068
 20
10.8797
 30
0.0
 10
-6.8612
 20
12.5017
 30
0.0
  0
SPLINE
  5
AE
330
1F
100
AcDbEntity
  8
Layer 1
100
AcDbSpline
210
0.0
220
0.0
230
1.0
 70
    11
 71
     3
 72
    16
 73
    12
 74
     0
 42
0.0000000001
 43
0.0000000001
 40
0.0
 40
0.0
 40
0.0
 40
0.0
 40
0.25
 40
0.25
 40
0.25
 40
0.25
 40
0.5
 40
0.5
 40
0.5
 40
0.5
 40
1.0
 40
1.0
 40
1.0
 40
1.0
 10
2.1689
 20
12.5017
 30
0.0
 10
1.1218
 20
13.5961
 30
0.0
 10
1.1342
 20
15.0082
 30
0.0
 10
2.202
 20
16.0323
 30
0.0
 10
2.202
 20
16.0323
 30
0.0
 10
3.8516
 20
17.6114
 30
0.0
 10
6.4904
 20
16.4952
 30
0.0
 10
6.4904
 20
14.2173
 30
0.0
 10
6.4904
 20
14.2173
 30
0.0
 10
6.4904
 20
11.9782
 30
0.0
 10
3.7236
 20
10.8797
 30
0.0
 10
2.1689
 20
12.5017
 30
0.0
  0
SPLINE
  5
AF
330
1F
100
AcDbEntity
  8
Layer 1
100
AcDbSpline
210
0.0
220
0.0
230
1.0
 70
    11
 71
     3
 72
    24
 73
    20
 74
     0
 42
0.0000000001
 43
0.0000000001
 40
0.0
 40
0.0
 40
0.0
 40
0.0
 40
0.1666666666666667
 40
0.1666666666666667
 40
0.1666666666666667
 40
0.1666666666666667
 40
0.3333333333333333
 40
0.3333333333333333
 40
0.3333333333333333
 40
0.3333333333333333
 40
0.5
 40
0.5
 40
0.5
 40
0.5
 40
0.6666666666666666
 40
0.6666666666666666
 40
0.6666666666666666
 40
0.6666666666666666
 40
1.0
 40
1.0
 40
1.0
 40
1.0
 10
-106.0415
 20
12.8464
 30
0.0
 10
-108.1373
 20
14.048
 30
0.0
 10
-109.2151
 20
15.9621
 30
0.0
 10
-109.2151
 20
18.4838
 30
0.0
 10
-109.2151
 20
18.4838
 30
0.0
 10
-109.2151
 20
22.2818
 30
0.0
 10
-106.5265
 20
24.9703
 30
0.0
 10
-102.7285
 20
24.9703
 30
0.0
 10
-102.7285
 20
24.9703
 30
0.0
 10
-98.9309
 20
24.9703
 30
0.0
 10
-96.2434
 20
22.2818
 30
0.0
 10
-96.2434
 20
18.4838
 30
0.0
 10
-96.2434
 20
18.4838
 30
0.0
 10
-96.2434
 20
14.6858
 30
0.0
 10
-98.9309
 20
11.9973
 30
0.0
 10
-102.7285
 20
11.9973
 30
0.0
 10
-102.7285
 20
11.9973
 30
0.0
 10
-104.2515
 20
11.9973
 30
0.0
 10
-104.8149
 20
12.1419
 30
0.0
 10
-106.0415
 20
12.8464
 30
0.0
  0
SPLINE
  5
B0
330
1F
100
AcDbEntity
  8
Layer 1
100
AcDbSpline
210
0.0
220
0.0
230
1.0
 70
    11
 71
     3
 72
    28
 73
    24
 74
     0
 42
0.0000000001
 43
0.0000000001
 40
0.0
 40
0.0
 40
0.0
 40
0.0
 40
0.1428571428571428
 40
0.1428571428571428
 40
0.1428571428571428
 40
0.1428571428571428
 40
0.2857142857142857
 40
0.2857142857142857
 40
0.2857142857142857
 40
0.2857142857142857
 40
0.4285714285714285
 40
0.4285714285714285
 40
0.4285714285714285
 40
0.4285714285714285
 40
0.5714285714285714
 40
0.5714285714285714
 40
0.5714285714285714
 40
0.5714285714285714
 40
0.7142857142857143
 40
0.7142857142857143
 40
0.7142857142857143
 40
0.7142857142857143
 40
1.0
 40
1.0
 40
1.0
 40
1.0
 10
98.2871
 20
12.8464
 30
0.0
 10
97.1984
 20
13.4705
 30
0.0
 10
96.5867
 20
14.0822
 30
0.0
 10
95.9626
 20
15.1709
 30
0.0
 10
95.9626
 20
15.1709
 30
0.0
 10
94.1366
 20
18.3543
 30
0.0
 10
95.1699
 20
22.334
 30
0.0
 10
98.2871
 20
24.1212
 30
0.0
 10
98.2871
 20
24.1212
 30
0.0
 10
101.4705
 20
25.9472
 30
0.0
 10
105.4502
 20
24.9139
 30
0.0
 10
107.2374
 20
21.7967
 30
0.0
 10
107.2374
 20
21.7967
 30
0.0
 10
109.0634
 20
18.6133
 30
0.0
 10
108.0301
 20
14.6336
 30
0.0
 10
104.9129
 20
12.8464
 30
0.0
 10
104.9129
 20
12.8464
 30
0.0
 10
103.6863
 20
12.1419
 30
0.0
 10
103.1226
 20
11.9973
 30
0.0
 10
101.6
 20
11.9973
 30
0.0
 10
101.6
 20
11.9973
 30
0.0
 10
100.0774
 20
11.9973
 30
0.0
 10
99.5137
 20
12.1419
 30
0.0
 10
98.2871
 20
12.8464
 30
0.0
  0
SPLINE
  5
B1
330
1F
100
AcDbEntity
  8
Layer 1
100
AcDbSpline
210
0.0
220
0.0
230
1.0
 70
    11
 71
     3
 72
    20
 73
    16
 74
     0
 42
0.0000000001
 43
0.0000000001
 40
0.0
 40
0.0
 40
0.0
 40
0.0
 40
0.2
 40
0.2
 40
0.2
 40
0.2
 40
0.4
 40
0.4
 40
0.4
 40
0.4
 40
0.6
 40
0.6
 40
0.6
 40
0.6
 40
1.0
 40
1.0
 40
1.0
 40
1.0
 10
-57.573
 20
13.2761
 30
0.0
 10
-57.573
 20
14.81
 30
0.0
 10
-50.5989
 20
22.6427
 30
0.0
 10
-45.8611
 20
26.4294
 30
0.0
 10
-45.8611
 20
26.4294
 30
0.0
 10
-43.8602
 20
28.0282
 30
0.0
 10
-42.11
 20
29.0795
 30
0.0
 10
-41.8634
 20
28.8315
 30
0.0
 10
-41.8634
 20
28.8315
 30
0.0
 10
-41.0792
 20
28.0472
 30
0.0
 10
-48.5235
 20
19.5806
 30
0.0
 10
-53.4818
 20
15.6189
 30
0.0
 10
-53.4818
 20
15.6189
 30
0.0
 10
-55.7569
 20
13.8
 30
0.0
 10
-57.573
 20
12.7607
 30
0.0
 10
-57.573
 20
13.2761
 30
0.0
  0
SPLINE
  5
B2
330
1F
100
AcDbEntity
  8
Layer 1
100
AcDbSpline
210
0.0
220
0.0
230
1.0
 70
    11
 71
     3
 72
    24
 73
    20
 74
     0
 42
0.0000000001
 43
0.0000000001
 40
0.0
 40
0.0
 40
0.0
 40
0.0
 40
0.1666666666666667
 40
0.1666666666666667
 40
0.1666666666666667
 40
0.1666666666666667
 40
0.3333333333333333
 40
0.3333333333333333
 40
0.3333333333333333
 40
0.3333333333333333
 40
0.5
 40
0.5
 40
0.5
 40
0.5
 40
0.6666666666666666
 40
0.6666666666666666
 40
0.6666666666666666
 40
0.6666666666666666
 40
1.0
 40
1.0
 40
1.0
 40
1.0
 10
55.1737
 20
13.5932
 30
0.0
 10
52.7484
 20
14.8802
 30
0.0
 10
46.222
 20
20.9741
 30
0.0
 10
43.1366
 20
24.8338
 30
0.0
 10
43.1366
 20
24.8338
 30
0.0
 10
41.5382
 20
26.8347
 30
0.0
 10
40.4869
 20
28.5849
 30
0.0
 10
40.7335
 20
28.8315
 30
0.0
 10
40.7335
 20
28.8315
 30
0.0
 10
40.8093
 20
28.9073
 30
0.0
 10
41.2944
 20
28.7514
 30
0.0
 10
41.8137
 20
28.4882
 30
0.0
 10
41.8137
 20
28.4882
 30
0.0
 10
45.1612
 20
26.785
 30
0.0
 10
54.2918
 20
17.6668
 30
0.0
 10
55.9855
 20
14.3344
 30
0.0
 10
55.9855
 20
14.3344
 30
0.0
 10
56.6939
 20
12.9399
 30
0.0
 10
56.5891
 20
12.8436
 30
0.0
 10
55.1737
 20
13.5932
 30
0.0
  0
SPLINE
  5
B3
330
1F
100
AcDbEntity
  8
Layer 1
100
AcDbSpline
210
0.0
220
0.0
230
1.0
 70
    11
 71
     3
 72
    16
 73
    12
 74
     0
 42
0.0000000001
 43
0.0000000001
 40
0.0
 40
0.0
 40
0.0
 40
0.0
 40
0.25
 40
0.25
 40
0.25
 40
0.25
 40
0.5
 40
0.5
 40
0.5
 40
0.5
 40
1.0
 40
1.0
 40
1.0
 40
1.0
 10
-28.6011
 20
13.9196
 30
0.0
 10
-29.2185
 20
14.6018
 30
0.0
 10
-29.1952
 20
15.7417
 30
0.0
 10
-28.5528
 20
16.323
 30
0.0
 10
-28.5528
 20
16.323
 30
0.0
 10
-27.4341
 20
17.3359
 30
0.0
 10
-25.6826
 20
16.5573
 30
0.0
 10
-25.6826
 20
15.0484
 30
0.0
 10
-25.6826
 20
15.0484
 30
0.0
 10
-25.6826
 20
13.6028
 30
0.0
 10
-27.6324
 20
12.8489
 30
0.0
 10
-28.6011
 20
13.9196
 30
0.0
  0
SPLINE
  5
B4
330
1F
100
AcDbEntity
  8
Layer 1
100
AcDbSpline
210
0.0
220
0.0
230
1.0
 70
    11
 71
     3
 72
    16
 73
    12
 74
     0
 42
0.0000000001
 43
0.0000000001
 40
0.0
 40
0.0
 40
0.0
 40
0.0
 40
0.25
 40
0.25
 40
0.25
 40
0.25
 40
0.5
 40
0.5
 40
0.5
 40
0.5
 40
1.0
 40
1.0
 40
1.0
 40
1.0
 10
25.0211
 20
13.9196
 30
0.0
 10
24.4038
 20
14.6018
 30
0.0
 10
24.427
 20
15.7417
 30
0.0
 10
25.0694
 20
16.323
 30
0.0
 10
25.0694
 20
16.323
 30
0.0
 10
26.1881
 20
17.3359
 30
0.0
 10
27.9396
 20
16.5573
 30
0.0
 10
27.9396
 20
15.0484
 30
0.0
 10
27.9396
 20
15.0484
 30
0.0
 10
27.9396
 20
13.6028
 30
0.0
 10
25.9898
 20
12.8489
 30
0.0
 10
25.0211
 20
13.9196
 30
0.0
  0
SPLINE
  5
B5
330
1F
100
AcDbEntity
  8
Layer 1
100
AcDbSpline
210
0.0
220
0.0
230
1.0
 70
    11
 71
     3
 72
    36
 73
    32
 74
     0
 42
0.0000000001
 43
0.0000000001
 40
0.0
 40
0.0
 40
0.0
 40
0.0
 40
0.1111111111111111
 40
0.1111111111111111
 40
0.1111111111111111
 40
0.1111111111111111
 40
0.2222222222222222
 40
0.2222222222222222
 40
0.2222222222222222
 40
0.2222222222222222
 40
0.3333333333333333
 40
0.3333333333333333
 40
0.3333333333333333
 40
0.3333333333333333
 40
0.4444444444444444
 40
0.4444444444444444
 40
0.4444444444444444
 40
0.4444444444444444
 40
0.5555555555555556
 40
0.5555555555555556
 40
0.5555555555555556
 40
0.5555555555555556
 40
0.6666666666666666
 40
0.6666666666666666
 40
0.6666666666666666
 40
0.6666666666666666
 40
0.7777777777777778
 40
0.7777777777777778
 40
0.7777777777777778
 40
0.7777777777777778
 40
1.0
 40
1.0
 40
1.0
 40
1.0
 10
-17.9215
 20
14.6516
 30
0.0
 10
-18.9837
 20
15.1268
 30
0.0
 10
-20.4735
 20
16.6829
 30
0.0
 10
-20.8675
 20
17.726
 30
0.0
 10
-20.8675
 20
17.726
 30
0.0
 10
-21.2866
 20
18.838
 30
0.0
 10
-21.2397
 20
21.1529
 30
0.0
 10
-20.7769
 20
22.2321
 30
0.0
 10
-20.7769
 20
22.2321
 30
0.0
 10
-20.3027
 20
23.3387
 30
0.0
 10
-18.7688
 20
24.8338
 30
0.0
 10
-17.6911
 20
25.2402
 30
0.0
 10
-17.6911
 20
25.2402
 30
0.0
 10
-16.5792
 20
25.6593
 30
0.0
 10
-14.2642
 20
25.6124
 30
0.0
 10
-13.1851
 20
25.1495
 30
0.0
 10
-13.1851
 20
25.1495
 30
0.0
 10
-12.0784
 20
24.6754
 30
0.0
 10
-10.5833
 20
23.1415
 30
0.0
 10
-10.1769
 20
22.0638
 30
0.0
 10
-10.1769
 20
22.0638
 30
0.0
 10
-9.7578
 20
20.9518
 30
0.0
 10
-9.8048
 20
18.6369
 30
0.0
 10
-10.2676
 20
17.5578
 30
0.0
 10
-10.2676
 20
17.5578
 30
0.0
 10
-10.7417
 20
16.4511
 30
0.0
 10
-12.2756
 20
14.956
 30
0.0
 10
-13.3534
 20
14.5496
 30
0.0
 10
-13.3534
 20
14.5496
 30
0.0
 10
-14.4445
 20
14.139
 30
0.0
 10
-16.8963
 20
14.1926
 30
0.0
 10
-17.9215
 20
14.6516
 30
0.0
  0
SPLINE
  5
B6
330
1F
100
AcDbEntity
  8
Layer 1
100
AcDbSpline
210
0.0
220
0.0
230
1.0
 70
    11
 71
     3
 72
    36
 73
    32
 74
     0
 42
0.0000000001
 43
0.0000000001
 40
0.0
 40
0.0
 40
0.0
 40
0.0
 40
0.1111111111111111
 40
0.1111111111111111
 40
0.1111111111111111
 40
0.1111111111111111
 40
0.2222222222222222
 40
0.2222222222222222
 40
0.2222222222222222
 40
0.2222222222222222
 40
0.3333333333333333
 40
0.3333333333333333
 40
0.3333333333333333
 40
0.3333333333333333
 40
0.4444444444444444
 40
0.4444444444444444
 40
0.4444444444444444
 40
0.4444444444444444
 40
0.5555555555555556
 40
0.5555555555555556
 40
0.5555555555555556
 40
0.5555555555555556
 40
0.6666666666666666
 40
0.6666666666666666
 40
0.6666666666666666
 40
0.6666666666666666
 40
0.7777777777777778
 40
0.7777777777777778
 40
0.7777777777777778
 40
0.7777777777777778
 40
1.0
 40
1.0
 40
1.0
 40
1.0
 10
11.9944
 20
14.6516
 30
0.0
 10
10.9319
 20
15.1268
 30
0.0
 10
9.4424
 20
16.6829
 30
0.0
 10
9.048
 20
17.726
 30
0.0
 10
9.048
 20
17.726
 30
0.0
 10
8.6293
 20
18.838
 30
0.0
 10
8.6748
 20
21.1529
 30
0.0
 10
9.1391
 20
22.2321
 30
0.0
 10
9.1391
 20
22.2321
 30
0.0
 10
9.6132
 20
23.3387
 30
0.0
 10
11.1471
 20
24.8338
 30
0.0
 10
12.2245
 20
25.2402
 30
0.0
 10
12.2245
 20
25.2402
 30
0.0
 10
13.3368
 20
25.6593
 30
0.0
 10
15.6517
 20
25.6124
 30
0.0
 10
16.7308
 20
25.1495
 30
0.0
 10
16.7308
 20
25.1495
 30
0.0
 10
17.8375
 20
24.6754
 30
0.0
 10
19.3326
 20
23.1415
 30
0.0
 10
19.7376
 20
22.0638
 30
0.0
 10
19.7376
 20
22.0638
 30
0.0
 10
20.1581
 20
20.9518
 30
0.0
 10
20.1112
 20
18.6369
 30
0.0
 10
19.648
 20
17.5578
 30
0.0
 10
19.648
 20
17.5578
 30
0.0
 10
19.1728
 20
16.4511
 30
0.0
 10
17.6403
 20
14.956
 30
0.0
 10
16.5626
 20
14.5496
 30
0.0
 10
16.5626
 20
14.5496
 30
0.0
 10
15.4711
 20
14.139
 30
0.0
 10
13.0182
 20
14.1926
 30
0.0
 10
11.9944
 20
14.6516
 30
0.0
  0
SPLINE
  5
B7
330
1F
100
AcDbEntity
  8
Layer 1
100
AcDbSpline
210
0.0
220
0.0
230
1.0
 70
    11
 71
     3
 72
    20
 73
    16
 74
     0
 42
0.0000000001
 43
0.0000000001
 40
0.0
 40
0.0
 40
0.0
 40
0.0
 40
0.2
 40
0.2
 40
0.2
 40
0.2
 40
0.4
 40
0.4
 40
0.4
 40
0.4
 40
0.6
 40
0.6
 40
0.6
 40
0.6
 40
1.0
 40
1.0
 40
1.0
 40
1.0
 10
-66.3222
 20
15.3624
 30
0.0
 10
-66.3222
 20
16.2542
 30
0.0
 10
-63.7741
 20
19.3629
 30
0.0
 10
-61.8589
 20
20.81
 30
0.0
 10
-61.8589
 20
20.81
 30
0.0
 10
-58.7996
 20
23.1211
 30
0.0
 10
-58.0168
 20
22.3382
 30
0.0
 10
-60.3278
 20
19.279
 30
0.0
 10
-60.3278
 20
19.279
 30
0.0
 10
-61.7746
 20
17.362
 30
0.0
 10
-64.8836
 20
14.8156
 30
0.0
 10
-65.7737
 20
14.8156
 30
0.0
 10
-65.7737
 20
14.8156
 30
0.0
 10
-66.1293
 20
14.8156
 30
0.0
 10
-66.3222
 20
15.0082
 30
0.0
 10
-66.3222
 20
15.3624
 30
0.0
  0
SPLINE
  5
B8
330
1F
100
AcDbEntity
  8
Layer 1
100
AcDbSpline
210
0.0
220
0.0
230
1.0
 70
    11
 71
     3
 72
    20
 73
    16
 74
     0
 42
0.0000000001
 43
0.0000000001
 40
0.0
 40
0.0
 40
0.0
 40
0.0
 40
0.2
 40
0.2
 40
0.2
 40
0.2
 40
0.4
 40
0.4
 40
0.4
 40
0.4
 40
0.6
 40
0.6
 40
0.6
 40
0.6
 40
1.0
 40
1.0
 40
1.0
 40
1.0
 10
62.3189
 20
16.1576
 30
0.0
 10
60.4037
 20
17.6047
 30
0.0
 10
57.8556
 20
20.7133
 30
0.0
 10
57.8556
 20
21.6052
 30
0.0
 10
57.8556
 20
21.6052
 30
0.0
 10
57.8556
 20
22.5175
 30
0.0
 10
58.8243
 20
22.25
 30
0.0
 10
60.73
 20
20.81
 30
0.0
 10
60.73
 20
20.81
 30
0.0
 10
62.6456
 20
19.3629
 30
0.0
 10
65.1937
 20
16.2542
 30
0.0
 10
65.1937
 20
15.3624
 30
0.0
 10
65.1937
 20
15.3624
 30
0.0
 10
65.1937
 20
14.4501
 30
0.0
 10
64.225
 20
14.7175
 30
0.0
 10
62.3189
 20
16.1576
 30
0.0
  0
SPLINE
  5
B9
330
1F
100
AcDbEntity
  8
Layer 1
100
AcDbSpline
210
0.0
220
0.0
230
1.0
 70
    11
 71
     3
 72
    16
 73
    12
 74
     0
 42
0.0000000001
 43
0.0000000001
 40
0.0
 40
0.0
 40
0.0
 40
0.0
 40
0.25
 40
0.25
 40
0.25
 40
0.25
 40
0.5
 40
0.5
 40
0.5
 40
0.5
 40
1.0
 40
1.0
 40
1.0
 40
1.0
 10
-81.9422
 20
15.6132
 30
0.0
 10
-82.9539
 20
16.7323
 30
0.0
 10
-82.1764
 20
18.4838
 30
0.0
 10
-80.6662
 20
18.4838
 30
0.0
 10
-80.6662
 20
18.4838
 30
0.0
 10
-79.2205
 20
18.4838
 30
0.0
 10
-78.467
 20
16.534
 30
0.0
 10
-79.539
 20
15.5639
 30
0.0
 10
-79.539
 20
15.5639
 30
0.0
 10
-80.2199
 20
14.9479
 30
0.0
 10
-81.3608
 20
14.9712
 30
0.0
 10
-81.9422
 20
15.6132
 30
0.0
  0
SPLINE
  5
BA
330
1F
100
AcDbEntity
  8
Layer 1
100
AcDbSpline
210
0.0
220
0.0
230
1.0
 70
    11
 71
     3
 72
    16
 73
    12
 74
     0
 42
0.0000000001
 43
0.0000000001
 40
0.0
 40
0.0
 40
0.0
 40
0.0
 40
0.25
 40
0.25
 40
0.25
 40
0.25
 40
0.5
 40
0.5
 40
0.5
 40
0.5
 40
1.0
 40
1.0
 40
1.0
 40
1.0
 10
78.3608
 20
15.6132
 30
0.0
 10
77.7434
 20
16.2955
 30
0.0
 10
77.7667
 20
17.435
 30
0.0
 10
78.4091
 20
18.0167
 30
0.0
 10
78.4091
 20
18.0167
 30
0.0
 10
79.5281
 20
19.0295
 30
0.0
 10
81.2793
 20
18.251
 30
0.0
 10
81.2793
 20
16.7418
 30
0.0
 10
81.2793
 20
16.7418
 30
0.0
 10
81.2793
 20
15.2964
 30
0.0
 10
79.3295
 20
14.5426
 30
0.0
 10
78.3608
 20
15.6132
 30
0.0
  0
SPLINE
  5
BB
330
1F
100
AcDbEntity
  8
Layer 1
100
AcDbSpline
210
0.0
220
0.0
230
1.0
 70
    11
 71
     3
 72
    20
 73
    16
 74
     0
 42
0.0000000001
 43
0.0000000001
 40
0.0
 40
0.0
 40
0.0
 40
0.0
 40
0.2
 40
0.2
 40
0.2
 40
0.2
 40
0.4
 40
0.4
 40
0.4
 40
0.4
 40
0.6
 40
0.6
 40
0.6
 40
0.6
 40
1.0
 40
1.0
 40
1.0
 40
1.0
 10
-126.154
 20
15.9276
 30
0.0
 10
-126.154
 20
16.0736
 30
0.0
 10
-125.385
 20
17.1485
 30
0.0
 10
-124.4452
 20
18.3169
 30
0.0
 10
-124.4452
 20
18.3169
 30
0.0
 10
-121.8325
 20
21.5635
 30
0.0
 10
-116.5807
 20
26.2216
 30
0.0
 10
-116.0872
 20
25.7281
 30
0.0
 10
-116.0872
 20
25.7281
 30
0.0
 10
-115.594
 20
25.2349
 30
0.0
 10
-120.2503
 20
19.9831
 30
0.0
 10
-123.4983
 20
17.3704
 30
0.0
 10
-123.4983
 20
17.3704
 30
0.0
 10
-125.5709
 20
15.7028
 30
0.0
 10
-126.154
 20
15.386
 30
0.0
 10
-126.154
 20
15.9276
 30
0.0
  0
SPLINE
  5
BC
330
1F
100
AcDbEntity
  8
Layer 1
100
AcDbSpline
210
0.0
220
0.0
230
1.0
 70
    11
 71
     3
 72
    16
 73
    12
 74
     0
 42
0.0000000001
 43
0.0000000001
 40
0.0
 40
0.0
 40
0.0
 40
0.0
 40
0.25
 40
0.25
 40
0.25
 40
0.25
 40
0.5
 40
0.5
 40
0.5
 40
0.5
 40
1.0
 40
1.0
 40
1.0
 40
1.0
 10
122.3698
 20
17.3704
 30
0.0
 10
119.1218
 20
19.9831
 30
0.0
 10
114.4654
 20
25.2349
 30
0.0
 10
114.9586
 20
25.7281
 30
0.0
 10
114.9586
 20
25.7281
 30
0.0
 10
115.4522
 20
26.2216
 30
0.0
 10
120.7036
 20
21.5635
 30
0.0
 10
123.3166
 20
18.3169
 30
0.0
 10
123.3166
 20
18.3169
 30
0.0
 10
125.9198
 20
15.0802
 30
0.0
 10
125.6055
 20
14.7673
 30
0.0
 10
122.3698
 20
17.3704
 30
0.0
  0
SPLINE
  5
BD
330
1F
100
AcDbEntity
  8
Layer 1
100
AcDbSpline
210
0.0
220
0.0
230
1.0
 70
    11
 71
     3
 72
    16
 73
    12
 74
     0
 42
0.0000000001
 43
0.0000000001
 40
0.0
 40
0.0
 40
0.0
 40
0.0
 40
0.25
 40
0.25
 40
0.25
 40
0.25
 40
0.5
 40
0.5
 40
0.5
 40
0.5
 40
1.0
 40
1.0
 40
1.0
 40
1.0
 10
-72.3456
 20
16.4596
 30
0.0
 10
-73.3584
 20
17.5786
 30
0.0
 10
-72.5798
 20
19.3298
 30
0.0
 10
-71.071
 20
19.3298
 30
0.0
 10
-71.071
 20
19.3298
 30
0.0
 10
-69.6253
 20
19.3298
 30
0.0
 10
-68.8718
 20
17.38
 30
0.0
 10
-69.9424
 20
16.4112
 30
0.0
 10
-69.9424
 20
16.4112
 30
0.0
 10
-70.6244
 20
15.7939
 30
0.0
 10
-71.7642
 20
15.8171
 30
0.0
 10
-72.3456
 20
16.4596
 30
0.0
  0
SPLINE
  5
BE
330
1F
100
AcDbEntity
  8
Layer 1
100
AcDbSpline
210
0.0
220
0.0
230
1.0
 70
    11
 71
     3
 72
    16
 73
    12
 74
     0
 42
0.0000000001
 43
0.0000000001
 40
0.0
 40
0.0
 40
0.0
 40
0.0
 40
0.25
 40
0.25
 40
0.25
 40
0.25
 40
0.5
 40
0.5
 40
0.5
 40
0.5
 40
1.0
 40
1.0
 40
1.0
 40
1.0
 10
68.7656
 20
16.4596
 30
0.0
 10
68.1482
 20
17.1415
 30
0.0
 10
68.1715
 20
18.2813
 30
0.0
 10
68.8139
 20
18.8627
 30
0.0
 10
68.8139
 20
18.8627
 30
0.0
 10
69.9325
 20
19.8755
 30
0.0
 10
71.6841
 20
19.0983
 30
0.0
 10
71.6841
 20
17.5881
 30
0.0
 10
71.6841
 20
17.5881
 30
0.0
 10
71.6841
 20
16.1424
 30
0.0
 10
69.7343
 20
15.3889
 30
0.0
 10
68.7656
 20
16.4596
 30
0.0
  0
SPLINE
  5
BF
330
1F
100
AcDbEntity
  8
Layer 1
100
AcDbSpline
210
0.0
220
0.0
230
1.0
 70
    11
 71
     3
 72
    16
 73
    12
 74
     0
 42
0.0000000001
 43
0.0000000001
 40
0.0
 40
0.0
 40
0.0
 40
0.0
 40
0.25
 40
0.25
 40
0.25
 40
0.25
 40
0.5
 40
0.5
 40
0.5
 40
0.5
 40
1.0
 40
1.0
 40
1.0
 40
1.0
 10
-87.8678
 20
20.9751
 30
0.0
 10
-88.8806
 20
22.0941
 30
0.0
 10
-88.102
 20
23.8457
 30
0.0
 10
-86.5932
 20
23.8457
 30
0.0
 10
-86.5932
 20
23.8457
 30
0.0
 10
-85.1475
 20
23.8457
 30
0.0
 10
-84.394
 20
21.8959
 30
0.0
 10
-85.4647
 20
20.9271
 30
0.0
 10
-85.4647
 20
20.9271
 30
0.0
 10
-86.1466
 20
20.3098
 30
0.0
 10
-87.2864
 20
20.3331
 30
0.0
 10
-87.8678
 20
20.9751
 30
0.0
  0
SPLINE
  5
C0
330
1F
100
AcDbEntity
  8
Layer 1
100
AcDbSpline
210
0.0
220
0.0
230
1.0
 70
    11
 71
     3
 72
    16
 73
    12
 74
     0
 42
0.0000000001
 43
0.0000000001
 40
0.0
 40
0.0
 40
0.0
 40
0.0
 40
0.25
 40
0.25
 40
0.25
 40
0.25
 40
0.5
 40
0.5
 40
0.5
 40
0.5
 40
1.0
 40
1.0
 40
1.0
 40
1.0
 10
84.2878
 20
20.9751
 30
0.0
 10
83.6704
 20
21.6574
 30
0.0
 10
83.6937
 20
22.7972
 30
0.0
 10
84.3361
 20
23.3786
 30
0.0
 10
84.3361
 20
23.3786
 30
0.0
 10
85.4548
 20
24.3914
 30
0.0
 10
87.2063
 20
23.6128
 30
0.0
 10
87.2063
 20
22.104
 30
0.0
 10
87.2063
 20
22.104
 30
0.0
 10
87.2063
 20
20.6583
 30
0.0
 10
85.2565
 20
19.9044
 30
0.0
 10
84.2878
 20
20.9751
 30
0.0
  0
SPLINE
  5
C1
330
1F
100
AcDbEntity
  8
Layer 1
100
AcDbSpline
210
0.0
220
0.0
230
1.0
 70
    11
 71
     3
 72
    16
 73
    12
 74
     0
 42
0.0000000001
 43
0.0000000001
 40
0.0
 40
0.0
 40
0.0
 40
0.0
 40
0.25
 40
0.25
 40
0.25
 40
0.25
 40
0.5
 40
0.5
 40
0.5
 40
0.5
 40
1.0
 40
1.0
 40
1.0
 40
1.0
 10
-38.4789
 20
22.3862
 30
0.0
 10
-39.0963
 20
23.0685
 30
0.0
 10
-39.073
 20
24.2083
 30
0.0
 10
-38.4306
 20
24.7897
 30
0.0
 10
-38.4306
 20
24.7897
 30
0.0
 10
-37.3119
 20
25.8025
 30
0.0
 10
-35.5604
 20
25.0239
 30
0.0
 10
-35.5604
 20
23.5151
 30
0.0
 10
-35.5604
 20
23.5151
 30
0.0
 10
-35.5604
 20
22.0694
 30
0.0
 10
-37.5102
 20
21.3155
 30
0.0
 10
-38.4789
 20
22.3862
 30
0.0
  0
SPLINE
  5
C2
330
1F
100
AcDbEntity
  8
Layer 1
100
AcDbSpline
210
0.0
220
0.0
230
1.0
 70
    11
 71
     3
 72
    16
 73
    12
 74
     0
 42
0.0000000001
 43
0.0000000001
 40
0.0
 40
0.0
 40
0.0
 40
0.0
 40
0.25
 40
0.25
 40
0.25
 40
0.25
 40
0.5
 40
0.5
 40
0.5
 40
0.5
 40
1.0
 40
1.0
 40
1.0
 40
1.0
 10
34.8989
 20
22.3862
 30
0.0
 10
34.2815
 20
23.0685
 30
0.0
 10
34.3048
 20
24.2083
 30
0.0
 10
34.9472
 20
24.7897
 30
0.0
 10
34.9472
 20
24.7897
 30
0.0
 10
36.0659
 20
25.8025
 30
0.0
 10
37.8174
 20
25.0239
 30
0.0
 10
37.8174
 20
23.5151
 30
0.0
 10
37.8174
 20
23.5151
 30
0.0
 10
37.8174
 20
22.0694
 30
0.0
 10
35.8676
 20
21.3155
 30
0.0
 10
34.8989
 20
22.3862
 30
0.0
  0
SPLINE
  5
C3
330
1F
100
AcDbEntity
  8
Layer 1
100
AcDbSpline
210
0.0
220
0.0
230
1.0
 70
    11
 71
     3
 72
    16
 73
    12
 74
     0
 42
0.0000000001
 43
0.0000000001
 40
0.0
 40
0.0
 40
0.0
 40
0.0
 40
0.25
 40
0.25
 40
0.25
 40
0.25
 40
0.5
 40
0.5
 40
0.5
 40
0.5
 40
1.0
 40
1.0
 40
1.0
 40
1.0
 10
-78.2726
 20
22.6688
 30
0.0
 10
-79.2854
 20
23.7878
 30
0.0
 10
-78.5068
 20
25.5393
 30
0.0
 10
-76.998
 20
25.5393
 30
0.0
 10
-76.998
 20
25.5393
 30
0.0
 10
-75.5523
 20
25.5393
 30
0.0
 10
-74.7984
 20
23.5895
 30
0.0
 10
-75.8691
 20
22.6194
 30
0.0
 10
-75.8691
 20
22.6194
 30
0.0
 10
-76.5514
 20
22.0035
 30
0.0
 10
-77.6912
 20
22.0267
 30
0.0
 10
-78.2726
 20
22.6688
 30
0.0
  0
SPLINE
  5
C4
330
1F
100
AcDbEntity
  8
Layer 1
100
AcDbSpline
210
0.0
220
0.0
230
1.0
 70
    11
 71
     3
 72
    16
 73
    12
 74
     0
 42
0.0000000001
 43
0.0000000001
 40
0.0
 40
0.0
 40
0.0
 40
0.0
 40
0.25
 40
0.25
 40
0.25
 40
0.25
 40
0.5
 40
0.5
 40
0.5
 40
0.5
 40
1.0
 40
1.0
 40
1.0
 40
1.0
 10
74.6912
 20
22.6688
 30
0.0
 10
74.0752
 20
23.3511
 30
0.0
 10
74.0985
 20
24.4905
 30
0.0
 10
74.7406
 20
25.0723
 30
0.0
 10
74.7406
 20
25.0723
 30
0.0
 10
75.8596
 20
26.0851
 30
0.0
 10
77.6111
 20
25.3065
 30
0.0
 10
77.6111
 20
23.7973
 30
0.0
 10
77.6111
 20
23.7973
 30
0.0
 10
77.6111
 20
22.352
 30
0.0
 10
75.6613
 20
21.5981
 30
0.0
 10
74.6912
 20
22.6688
 30
0.0
  0
SPLINE
  5
C5
330
1F
100
AcDbEntity
  8
Layer 1
100
AcDbSpline
210
0.0
220
0.0
230
1.0
 70
    11
 71
     3
 72
    16
 73
    12
 74
     0
 42
0.0000000001
 43
0.0000000001
 40
0.0
 40
0.0
 40
0.0
 40
0.0
 40
0.25
 40
0.25
 40
0.25
 40
0.25
 40
0.5
 40
0.5
 40
0.5
 40
0.5
 40
1.0
 40
1.0
 40
1.0
 40
1.0
 10
-6.5885
 20
22.9514
 30
0.0
 10
-7.2058
 20
23.6322
 30
0.0
 10
-7.1822
 20
24.7731
 30
0.0
 10
-6.5387
 20
25.3548
 30
0.0
 10
-6.5387
 20
25.3548
 30
0.0
 10
-5.4211
 20
26.3677
 30
0.0
 10
-3.6682
 20
25.5891
 30
0.0
 10
-3.6682
 20
24.0785
 30
0.0
 10
-3.6682
 20
24.0785
 30
0.0
 10
-3.6682
 20
22.6346
 30
0.0
 10
-5.6198
 20
21.8807
 30
0.0
 10
-6.5885
 20
22.9514
 30
0.0
  0
SPLINE
  5
C6
330
1F
100
AcDbEntity
  8
Layer 1
100
AcDbSpline
210
0.0
220
0.0
230
1.0
 70
    11
 71
     3
 72
    16
 73
    12
 74
     0
 42
0.0000000001
 43
0.0000000001
 40
0.0
 40
0.0
 40
0.0
 40
0.0
 40
0.25
 40
0.25
 40
0.25
 40
0.25
 40
0.5
 40
0.5
 40
0.5
 40
0.5
 40
1.0
 40
1.0
 40
1.0
 40
1.0
 10
3.0067
 20
22.9514
 30
0.0
 10
2.3908
 20
23.6322
 30
0.0
 10
2.413
 20
24.7731
 30
0.0
 10
3.0565
 20
25.3548
 30
0.0
 10
3.0565
 20
25.3548
 30
0.0
 10
4.1755
 20
26.3677
 30
0.0
 10
5.927
 20
25.5891
 30
0.0
 10
5.927
 20
24.0785
 30
0.0
 10
5.927
 20
24.0785
 30
0.0
 10
5.927
 20
22.6346
 30
0.0
 10
3.9758
 20
21.8807
 30
0.0
 10
3.0067
 20
22.9514
 30
0.0
  0
SPLINE
  5
C7
330
1F
100
AcDbEntity
  8
Layer 1
100
AcDbSpline
210
0.0
220
0.0
230
1.0
 70
    11
 71
     3
 72
    20
 73
    16
 74
     0
 42
0.0000000001
 43
0.0000000001
 40
0.0
 40
0.0
 40
0.0
 40
0.0
 40
0.2
 40
0.2
 40
0.2
 40
0.2
 40
0.4
 40
0.4
 40
0.4
 40
0.4
 40
0.6
 40
0.6
 40
0.6
 40
0.6
 40
1.0
 40
1.0
 40
1.0
 40
1.0
 10
-71.9667
 20
23.4364
 30
0.0
 10
-71.9667
 20
23.8912
 30
0.0
 10
-70.8657
 20
25.6275
 30
0.0
 10
-69.4697
 20
27.3734
 30
0.0
 10
-69.4697
 20
27.3734
 30
0.0
 10
-65.5077
 20
32.3317
 30
0.0
 10
-57.041
 20
39.7757
 30
0.0
 10
-56.2557
 20
38.9918
 30
0.0
 10
-56.2557
 20
38.9918
 30
0.0
 10
-55.7445
 20
38.4806
 30
0.0
 10
-59.0585
 20
34.199
 30
0.0
 10
-63.0686
 20
30.1875
 30
0.0
 10
-63.0686
 20
30.1875
 30
0.0
 10
-67.3019
 20
25.9542
 30
0.0
 10
-71.9667
 20
22.4155
 30
0.0
 10
-71.9667
 20
23.4364
 30
0.0
  0
SPLINE
  5
C8
330
1F
100
AcDbEntity
  8
Layer 1
100
AcDbSpline
210
0.0
220
0.0
230
1.0
 70
    11
 71
     3
 72
    24
 73
    20
 74
     0
 42
0.0000000001
 43
0.0000000001
 40
0.0
 40
0.0
 40
0.0
 40
0.0
 40
0.1666666666666667
 40
0.1666666666666667
 40
0.1666666666666667
 40
0.1666666666666667
 40
0.3333333333333333
 40
0.3333333333333333
 40
0.3333333333333333
 40
0.3333333333333333
 40
0.5
 40
0.5
 40
0.5
 40
0.5
 40
0.6666666666666666
 40
0.6666666666666666
 40
0.6666666666666666
 40
0.6666666666666666
 40
1.0
 40
1.0
 40
1.0
 40
1.0
 10
69.5674
 20
23.7532
 30
0.0
 10
67.1407
 20
25.0405
 30
0.0
 10
60.6143
 20
31.1341
 30
0.0
 10
57.5303
 20
34.9941
 30
0.0
 10
57.5303
 20
34.9941
 30
0.0
 10
55.9304
 20
36.9951
 30
0.0
 10
54.8792
 20
38.7438
 30
0.0
 10
55.1272
 20
38.9918
 30
0.0
 10
55.1272
 20
38.9918
 30
0.0
 10
55.2016
 20
39.0663
 30
0.0
 10
55.6877
 20
38.9117
 30
0.0
 10
56.206
 20
38.6472
 30
0.0
 10
56.206
 20
38.6472
 30
0.0
 10
59.5545
 20
36.9454
 30
0.0
 10
68.6855
 20
27.8268
 30
0.0
 10
70.3792
 20
24.4948
 30
0.0
 10
70.3792
 20
24.4948
 30
0.0
 10
71.0875
 20
23.1002
 30
0.0
 10
70.9814
 20
23.0036
 30
0.0
 10
69.5674
 20
23.7532
 30
0.0
  0
SPLINE
  5
C9
330
1F
100
AcDbEntity
  8
Layer 1
100
AcDbSpline
210
0.0
220
0.0
230
1.0
 70
    11
 71
     3
 72
    36
 73
    32
 74
     0
 42
0.0000000001
 43
0.0000000001
 40
0.0
 40
0.0
 40
0.0
 40
0.0
 40
0.1111111111111111
 40
0.1111111111111111
 40
0.1111111111111111
 40
0.1111111111111111
 40
0.2222222222222222
 40
0.2222222222222222
 40
0.2222222222222222
 40
0.2222222222222222
 40
0.3333333333333333
 40
0.3333333333333333
 40
0.3333333333333333
 40
0.3333333333333333
 40
0.4444444444444444
 40
0.4444444444444444
 40
0.4444444444444444
 40
0.4444444444444444
 40
0.5555555555555556
 40
0.5555555555555556
 40
0.5555555555555556
 40
0.5555555555555556
 40
0.6666666666666666
 40
0.6666666666666666
 40
0.6666666666666666
 40
0.6666666666666666
 40
0.7777777777777778
 40
0.7777777777777778
 40
0.7777777777777778
 40
0.7777777777777778
 40
1.0
 40
1.0
 40
1.0
 40
1.0
 10
-34.8548
 20
28.1975
 30
0.0
 10
-35.917
 20
28.6745
 30
0.0
 10
-37.4068
 20
30.2288
 30
0.0
 10
-37.8009
 20
31.2734
 30
0.0
 10
-37.8009
 20
31.2734
 30
0.0
 10
-38.22
 20
32.3854
 30
0.0
 10
-38.173
 20
34.6992
 30
0.0
 10
-37.7102
 20
35.7794
 30
0.0
 10
-37.7102
 20
35.7794
 30
0.0
 10
-37.2361
 20
36.8861
 30
0.0
 10
-35.7022
 20
38.3798
 30
0.0
 10
-34.6244
 20
38.7865
 30
0.0
 10
-34.6244
 20
38.7865
 30
0.0
 10
-33.5125
 20
39.2053
 30
0.0
 10
-31.1976
 20
39.1597
 30
0.0
 10
-30.1184
 20
38.6969
 30
0.0
 10
-30.1184
 20
38.6969
 30
0.0
 10
-29.0117
 20
38.2214
 30
0.0
 10
-27.5167
 20
36.6878
 30
0.0
 10
-27.1103
 20
35.6101
 30
0.0
 10
-27.1103
 20
35.6101
 30
0.0
 10
-26.6912
 20
34.4981
 30
0.0
 10
-26.7381
 20
32.1843
 30
0.0
 10
-27.2009
 20
31.1037
 30
0.0
 10
-27.2009
 20
31.1037
 30
0.0
 10
-27.6751
 20
29.9974
 30
0.0
 10
-29.2089
 20
28.5034
 30
0.0
 10
-30.2867
 20
28.097
 30
0.0
 10
-30.2867
 20
28.097
 30
0.0
 10
-31.3778
 20
27.6849
 30
0.0
 10
-33.8296
 20
27.74
 30
0.0
 10
-34.8548
 20
28.1975
 30
0.0
  0
SPLINE
  5
CA
330
1F
100
AcDbEntity
  8
Layer 1
100
AcDbSpline
210
0.0
220
0.0
230
1.0
 70
    11
 71
     3
 72
    36
 73
    32
 74
     0
 42
0.0000000001
 43
0.0000000001
 40
0.0
 40
0.0
 40
0.0
 40
0.0
 40
0.1111111111111111
 40
0.1111111111111111
 40
0.1111111111111111
 40
0.1111111111111111
 40
0.2222222222222222
 40
0.2222222222222222
 40
0.2222222222222222
 40
0.2222222222222222
 40
0.3333333333333333
 40
0.3333333333333333
 40
0.3333333333333333
 40
0.3333333333333333
 40
0.4444444444444444
 40
0.4444444444444444
 40
0.4444444444444444
 40
0.4444444444444444
 40
0.5555555555555556
 40
0.5555555555555556
 40
0.5555555555555556
 40
0.5555555555555556
 40
0.6666666666666666
 40
0.6666666666666666
 40
0.6666666666666666
 40
0.6666666666666666
 40
0.7777777777777778
 40
0.7777777777777778
 40
0.7777777777777778
 40
0.7777777777777778
 40
1.0
 40
1.0
 40
1.0
 40
1.0
 10
28.9278
 20
28.1975
 30
0.0
 10
27.8652
 20
28.6745
 30
0.0
 10
26.3758
 20
30.2288
 30
0.0
 10
25.9814
 20
31.2734
 30
0.0
 10
25.9814
 20
31.2734
 30
0.0
 10
25.5626
 20
32.3854
 30
0.0
 10
25.6081
 20
34.6992
 30
0.0
 10
26.0724
 20
35.7794
 30
0.0
 10
26.0724
 20
35.7794
 30
0.0
 10
26.5465
 20
36.8861
 30
0.0
 10
28.0804
 20
38.3798
 30
0.0
 10
29.1578
 20
38.7865
 30
0.0
 10
29.1578
 20
38.7865
 30
0.0
 10
30.2701
 20
39.2053
 30
0.0
 10
32.585
 20
39.1597
 30
0.0
 10
33.6642
 20
38.6969
 30
0.0
 10
33.6642
 20
38.6969
 30
0.0
 10
34.7708
 20
38.2214
 30
0.0
 10
36.2659
 20
36.6878
 30
0.0
 10
36.6709
 20
35.6101
 30
0.0
 10
36.6709
 20
35.6101
 30
0.0
 10
37.0914
 20
34.4981
 30
0.0
 10
37.0445
 20
32.1843
 30
0.0
 10
36.5813
 20
31.1037
 30
0.0
 10
36.5813
 20
31.1037
 30
0.0
 10
36.1061
 20
29.9974
 30
0.0
 10
34.5736
 20
28.5034
 30
0.0
 10
33.4959
 20
28.097
 30
0.0
 10
33.4959
 20
28.097
 30
0.0
 10
32.4044
 20
27.6849
 30
0.0
 10
29.9515
 20
27.74
 30
0.0
 10
28.9278
 20
28.1975
 30
0.0
  0
SPLINE
  5
CB
330
1F
100
AcDbEntity
  8
Layer 1
100
AcDbSpline
210
0.0
220
0.0
230
1.0
 70
    11
 71
     3
 72
    16
 73
    12
 74
     0
 42
0.0000000001
 43
0.0000000001
 40
0.0
 40
0.0
 40
0.0
 40
0.0
 40
0.25
 40
0.25
 40
0.25
 40
0.25
 40
0.5
 40
0.5
 40
0.5
 40
0.5
 40
1.0
 40
1.0
 40
1.0
 40
1.0
 10
-85.3281
 20
28.8784
 30
0.0
 10
-86.341
 20
29.996
 30
0.0
 10
-85.5624
 20
31.7489
 30
0.0
 10
-84.0535
 20
31.7489
 30
0.0
 10
-84.0535
 20
31.7489
 30
0.0
 10
-82.6079
 20
31.7489
 30
0.0
 10
-81.854
 20
29.7974
 30
0.0
 10
-82.9247
 20
28.8286
 30
0.0
 10
-82.9247
 20
28.8286
 30
0.0
 10
-83.6069
 20
28.2113
 30
0.0
 10
-84.7468
 20
28.2349
 30
0.0
 10
-85.3281
 20
28.8784
 30
0.0
  0
SPLINE
  5
CC
330
1F
100
AcDbEntity
  8
Layer 1
100
AcDbSpline
210
0.0
220
0.0
230
1.0
 70
    11
 71
     3
 72
    16
 73
    12
 74
     0
 42
0.0000000001
 43
0.0000000001
 40
0.0
 40
0.0
 40
0.0
 40
0.0
 40
0.25
 40
0.25
 40
0.25
 40
0.25
 40
0.5
 40
0.5
 40
0.5
 40
0.5
 40
1.0
 40
1.0
 40
1.0
 40
1.0
 10
81.7467
 20
28.8784
 30
0.0
 10
80.735
 20
29.996
 30
0.0
 10
81.5125
 20
31.7489
 30
0.0
 10
83.0227
 20
31.7489
 30
0.0
 10
83.0227
 20
31.7489
 30
0.0
 10
84.4684
 20
31.7489
 30
0.0
 10
85.2219
 20
29.7974
 30
0.0
 10
84.1498
 20
28.8286
 30
0.0
 10
84.1498
 20
28.8286
 30
0.0
 10
83.469
 20
28.2113
 30
0.0
 10
82.3281
 20
28.2349
 30
0.0
 10
81.7467
 20
28.8784
 30
0.0
  0
SPLINE
  5
CD
330
1F
100
AcDbEntity
  8
Layer 1
100
AcDbSpline
210
0.0
220
0.0
230
1.0
 70
    11
 71
     3
 72
    20
 73
    16
 74
     0
 42
0.0000000001
 43
0.0000000001
 40
0.0
 40
0.0
 40
0.0
 40
0.0
 40
0.2
 40
0.2
 40
0.2
 40
0.2
 40
0.4
 40
0.4
 40
0.4
 40
0.4
 40
0.6
 40
0.6
 40
0.6
 40
0.6
 40
1.0
 40
1.0
 40
1.0
 40
1.0
 10
-79.5874
 20
29.1924
 30
0.0
 10
-79.5874
 20
30.0828
 30
0.0
 10
-77.0393
 20
33.1915
 30
0.0
 10
-75.1237
 20
34.6385
 30
0.0
 10
-75.1237
 20
34.6385
 30
0.0
 10
-73.2166
 20
36.0786
 30
0.0
 10
-72.2492
 20
36.346
 30
0.0
 10
-72.2492
 20
35.4337
 30
0.0
 10
-72.2492
 20
35.4337
 30
0.0
 10
-72.2492
 20
34.5422
 30
0.0
 10
-74.796
 20
31.4332
 30
0.0
 10
-76.7126
 20
29.9861
 30
0.0
 10
-76.7126
 20
29.9861
 30
0.0
 10
-78.6183
 20
28.5475
 30
0.0
 10
-79.5874
 20
28.279
 30
0.0
 10
-79.5874
 20
29.1924
 30
0.0
  0
SPLINE
  5
CE
330
1F
100
AcDbEntity
  8
Layer 1
100
AcDbSpline
210
0.0
220
0.0
230
1.0
 70
    11
 71
     3
 72
    20
 73
    16
 74
     0
 42
0.0000000001
 43
0.0000000001
 40
0.0
 40
0.0
 40
0.0
 40
0.0
 40
0.2
 40
0.2
 40
0.2
 40
0.2
 40
0.4
 40
0.4
 40
0.4
 40
0.4
 40
0.6
 40
0.6
 40
0.6
 40
0.6
 40
1.0
 40
1.0
 40
1.0
 40
1.0
 10
-55.8793
 20
28.7983
 30
0.0
 10
-55.8793
 20
29.253
 30
0.0
 10
-54.7797
 20
30.9894
 30
0.0
 10
-53.3823
 20
32.7353
 30
0.0
 10
-53.3823
 20
32.7353
 30
0.0
 10
-49.4206
 20
37.6936
 30
0.0
 10
-40.954
 20
45.1379
 30
0.0
 10
-40.1698
 20
44.3537
 30
0.0
 10
-40.1698
 20
44.3537
 30
0.0
 10
-39.6586
 20
43.8425
 30
0.0
 10
-42.9715
 20
39.5609
 30
0.0
 10
-46.9815
 20
35.5494
 30
0.0
 10
-46.9815
 20
35.5494
 30
0.0
 10
-51.2163
 20
31.3161
 30
0.0
 10
-55.8793
 20
27.7774
 30
0.0
 10
-55.8793
 20
28.7983
 30
0.0
  0
SPLINE
  5
CF
330
1F
100
AcDbEntity
  8
Layer 1
100
AcDbSpline
210
0.0
220
0.0
230
1.0
 70
    11
 71
     3
 72
    24
 73
    20
 74
     0
 42
0.0000000001
 43
0.0000000001
 40
0.0
 40
0.0
 40
0.0
 40
0.0
 40
0.1666666666666667
 40
0.1666666666666667
 40
0.1666666666666667
 40
0.1666666666666667
 40
0.3333333333333333
 40
0.3333333333333333
 40
0.3333333333333333
 40
0.3333333333333333
 40
0.5
 40
0.5
 40
0.5
 40
0.5
 40
0.6666666666666666
 40
0.6666666666666666
 40
0.6666666666666666
 40
0.6666666666666666
 40
1.0
 40
1.0
 40
1.0
 40
1.0
 10
53.4818
 20
29.1155
 30
0.0
 10
51.0551
 20
30.4024
 30
0.0
 10
44.5287
 20
36.4963
 30
0.0
 10
41.4433
 20
40.356
 30
0.0
 10
41.4433
 20
40.356
 30
0.0
 10
39.8445
 20
42.357
 30
0.0
 10
38.7932
 20
44.1071
 30
0.0
 10
39.0412
 20
44.3537
 30
0.0
 10
39.0412
 20
44.3537
 30
0.0
 10
39.1156
 20
44.4295
 30
0.0
 10
39.6007
 20
44.2736
 30
0.0
 10
40.1204
 20
44.0104
 30
0.0
 10
40.1204
 20
44.0104
 30
0.0
 10
43.4675
 20
42.3072
 30
0.0
 10
52.5985
 20
33.189
 30
0.0
 10
54.2918
 20
29.8566
 30
0.0
 10
54.2918
 20
29.8566
 30
0.0
 10
55.0016
 20
28.4621
 30
0.0
 10
54.8954
 20
28.3658
 30
0.0
 10
53.4818
 20
29.1155
 30
0.0
  0
SPLINE
  5
D0
330
1F
100
AcDbEntity
  8
Layer 1
100
AcDbSpline
210
0.0
220
0.0
230
1.0
 70
    11
 71
     3
 72
    20
 73
    16
 74
     0
 42
0.0000000001
 43
0.0000000001
 40
0.0
 40
0.0
 40
0.0
 40
0.0
 40
0.2
 40
0.2
 40
0.2
 40
0.2
 40
0.4
 40
0.4
 40
0.4
 40
0.4
 40
0.6
 40
0.6
 40
0.6
 40
0.6
 40
1.0
 40
1.0
 40
1.0
 40
1.0
 10
75.584
 20
29.9861
 30
0.0
 10
74.6054
 20
30.7248
 30
0.0
 10
73.2014
 20
32.1292
 30
0.0
 10
72.4627
 20
33.1075
 30
0.0
 10
72.4627
 20
33.1075
 30
0.0
 10
70.1516
 20
36.1668
 30
0.0
 10
70.9344
 20
36.9496
 30
0.0
 10
73.9937
 20
34.6385
 30
0.0
 10
73.9937
 20
34.6385
 30
0.0
 10
74.9723
 20
33.8998
 30
0.0
 10
76.3764
 20
32.4958
 30
0.0
 10
77.1151
 20
31.5186
 30
0.0
 10
77.1151
 20
31.5186
 30
0.0
 10
79.4261
 20
28.4579
 30
0.0
 10
78.6433
 20
27.6754
 30
0.0
 10
75.584
 20
29.9861
 30
0.0
  0
SPLINE
  5
D1
330
1F
100
AcDbEntity
  8
Layer 1
100
AcDbSpline
210
0.0
220
0.0
230
1.0
 70
    11
 71
     3
 72
    24
 73
    20
 74
     0
 42
0.0000000001
 43
0.0000000001
 40
0.0
 40
0.0
 40
0.0
 40
0.0
 40
0.1666666666666667
 40
0.1666666666666667
 40
0.1666666666666667
 40
0.1666666666666667
 40
0.3333333333333333
 40
0.3333333333333333
 40
0.3333333333333333
 40
0.3333333333333333
 40
0.5
 40
0.5
 40
0.5
 40
0.5
 40
0.6666666666666666
 40
0.6666666666666666
 40
0.6666666666666666
 40
0.6666666666666666
 40
1.0
 40
1.0
 40
1.0
 40
1.0
 10
-115.6437
 20
29.7713
 30
0.0
 10
-116.9293
 20
30.5555
 30
0.0
 10
-117.6846
 20
31.9126
 30
0.0
 10
-117.6846
 20
33.4409
 30
0.0
 10
-117.6846
 20
33.4409
 30
0.0
 10
-117.6846
 20
34.9705
 30
0.0
 10
-116.9293
 20
36.328
 30
0.0
 10
-115.6437
 20
37.1122
 30
0.0
 10
-115.6437
 20
37.1122
 30
0.0
 10
-113.7172
 20
38.2863
 30
0.0
 10
-110.9804
 20
37.5945
 30
0.0
 10
-109.7827
 20
35.6306
 30
0.0
 10
-109.7827
 20
35.6306
 30
0.0
 10
-108.0879
 20
32.8514
 30
0.0
 10
-110.1686
 20
29.2104
 30
0.0
 10
-113.454
 20
29.2104
 30
0.0
 10
-113.454
 20
29.2104
 30
0.0
 10
-114.2242
 20
29.2104
 30
0.0
 10
-115.0856
 20
29.4308
 30
0.0
 10
-115.6437
 20
29.7713
 30
0.0
  0
SPLINE
  5
D2
330
1F
100
AcDbEntity
  8
Layer 1
100
AcDbSpline
210
0.0
220
0.0
230
1.0
 70
    11
 71
     3
 72
    16
 73
    12
 74
     0
 42
0.0000000001
 43
0.0000000001
 40
0.0
 40
0.0
 40
0.0
 40
0.0
 40
0.25
 40
0.25
 40
0.25
 40
0.25
 40
0.5
 40
0.5
 40
0.5
 40
0.5
 40
1.0
 40
1.0
 40
1.0
 40
1.0
 10
-21.5374
 20
30.0002
 30
0.0
 10
-22.5859
 20
31.0942
 30
0.0
 10
-22.5721
 20
32.5067
 30
0.0
 10
-21.5043
 20
33.5291
 30
0.0
 10
-21.5043
 20
33.5291
 30
0.0
 10
-19.8547
 20
35.1099
 30
0.0
 10
-17.2159
 20
33.9923
 30
0.0
 10
-17.2159
 20
31.7158
 30
0.0
 10
-17.2159
 20
31.7158
 30
0.0
 10
-17.2159
 20
29.4763
 30
0.0
 10
-19.9831
 20
28.3782
 30
0.0
 10
-21.5374
 20
30.0002
 30
0.0
  0
SPLINE
  5
D3
330
1F
100
AcDbEntity
  8
Layer 1
100
AcDbSpline
210
0.0
220
0.0
230
1.0
 70
    11
 71
     3
 72
    16
 73
    12
 74
     0
 42
0.0000000001
 43
0.0000000001
 40
0.0
 40
0.0
 40
0.0
 40
0.0
 40
0.25
 40
0.25
 40
0.25
 40
0.25
 40
0.5
 40
0.5
 40
0.5
 40
0.5
 40
1.0
 40
1.0
 40
1.0
 40
1.0
 10
16.8451
 20
30.0002
 30
0.0
 10
15.7963
 20
31.0942
 30
0.0
 10
15.8101
 20
32.5067
 30
0.0
 10
16.8783
 20
33.5291
 30
0.0
 10
16.8783
 20
33.5291
 30
0.0
 10
18.5279
 20
35.1099
 30
0.0
 10
21.1667
 20
33.9923
 30
0.0
 10
21.1667
 20
31.7158
 30
0.0
 10
21.1667
 20
31.7158
 30
0.0
 10
21.1667
 20
29.4763
 30
0.0
 10
18.3995
 20
28.3782
 30
0.0
 10
16.8451
 20
30.0002
 30
0.0
  0
SPLINE
  5
D4
330
1F
100
AcDbEntity
  8
Layer 1
100
AcDbSpline
210
0.0
220
0.0
230
1.0
 70
    11
 71
     3
 72
    20
 73
    16
 74
     0
 42
0.0000000001
 43
0.0000000001
 40
0.0
 40
0.0
 40
0.0
 40
0.0
 40
0.2
 40
0.2
 40
0.2
 40
0.2
 40
0.4
 40
0.4
 40
0.4
 40
0.4
 40
0.6
 40
0.6
 40
0.6
 40
0.6
 40
1.0
 40
1.0
 40
1.0
 40
1.0
 10
110.134
 20
29.7713
 30
0.0
 10
106.463
 20
32.0093
 30
0.0
 10
108.0325
 20
37.6731
 30
0.0
 10
112.3237
 20
37.6731
 30
0.0
 10
112.3237
 20
37.6731
 30
0.0
 10
114.7329
 20
37.6731
 30
0.0
 10
116.556
 20
35.85
 30
0.0
 10
116.556
 20
33.4409
 30
0.0
 10
116.556
 20
33.4409
 30
0.0
 10
116.556
 20
31.0335
 30
0.0
 10
114.7329
 20
29.2104
 30
0.0
 10
112.3237
 20
29.2104
 30
0.0
 10
112.3237
 20
29.2104
 30
0.0
 10
111.5536
 20
29.2104
 30
0.0
 10
110.6921
 20
29.4308
 30
0.0
 10
110.134
 20
29.7713
 30
0.0
  0
SPLINE
  5
D5
330
1F
100
AcDbEntity
  8
Layer 1
100
AcDbSpline
210
0.0
220
0.0
230
1.0
 70
    11
 71
     3
 72
    20
 73
    16
 74
     0
 42
0.0000000001
 43
0.0000000001
 40
0.0
 40
0.0
 40
0.0
 40
0.0
 40
0.2
 40
0.2
 40
0.2
 40
0.2
 40
0.4
 40
0.4
 40
0.4
 40
0.4
 40
0.6
 40
0.6
 40
0.6
 40
0.6
 40
1.0
 40
1.0
 40
1.0
 40
1.0
 10
-133.2096
 20
30.6024
 30
0.0
 10
-133.2096
 20
30.7485
 30
0.0
 10
-132.4405
 20
31.823
 30
0.0
 10
-131.5007
 20
32.9918
 30
0.0
 10
-131.5007
 20
32.9918
 30
0.0
 10
-128.8881
 20
36.2398
 30
0.0
 10
-123.6363
 20
40.8961
 30
0.0
 10
-123.1427
 20
40.4029
 30
0.0
 10
-123.1427
 20
40.4029
 30
0.0
 10
-122.6496
 20
39.9094
 30
0.0
 10
-127.3059
 20
34.6579
 30
0.0
 10
-130.5539
 20
32.0449
 30
0.0
 10
-130.5539
 20
32.0449
 30
0.0
 10
-132.6265
 20
30.3791
 30
0.0
 10
-133.2096
 20
30.062
 30
0.0
 10
-133.2096
 20
30.6024
 30
0.0
  0
SPLINE
  5
D6
330
1F
100
AcDbEntity
  8
Layer 1
100
AcDbSpline
210
0.0
220
0.0
230
1.0
 70
    11
 71
     3
 72
    16
 73
    12
 74
     0
 42
0.0000000001
 43
0.0000000001
 40
0.0
 40
0.0
 40
0.0
 40
0.0
 40
0.25
 40
0.25
 40
0.25
 40
0.25
 40
0.5
 40
0.5
 40
0.5
 40
0.5
 40
1.0
 40
1.0
 40
1.0
 40
1.0
 10
129.4253
 20
32.0449
 30
0.0
 10
126.1773
 20
34.6579
 30
0.0
 10
121.521
 20
39.9094
 30
0.0
 10
122.0142
 20
40.4029
 30
0.0
 10
122.0142
 20
40.4029
 30
0.0
 10
122.5077
 20
40.8961
 30
0.0
 10
127.7592
 20
36.2398
 30
0.0
 10
130.3722
 20
32.9918
 30
0.0
 10
130.3722
 20
32.9918
 30
0.0
 10
132.9753
 20
29.7561
 30
0.0
 10
132.661
 20
29.4418
 30
0.0
 10
129.4253
 20
32.0449
 30
0.0
  0
SPLINE
  5
D7
330
1F
100
AcDbEntity
  8
Layer 1
100
AcDbSpline
210
0.0
220
0.0
230
1.0
 70
    11
 71
     3
 72
    28
 73
    24
 74
     0
 42
0.0000000001
 43
0.0000000001
 40
0.0
 40
0.0
 40
0.0
 40
0.0
 40
0.1428571428571428
 40
0.1428571428571428
 40
0.1428571428571428
 40
0.1428571428571428
 40
0.2857142857142857
 40
0.2857142857142857
 40
0.2857142857142857
 40
0.2857142857142857
 40
0.4285714285714285
 40
0.4285714285714285
 40
0.4285714285714285
 40
0.4285714285714285
 40
0.5714285714285714
 40
0.5714285714285714
 40
0.5714285714285714
 40
0.5714285714285714
 40
0.7142857142857143
 40
0.7142857142857143
 40
0.7142857142857143
 40
0.7142857142857143
 40
1.0
 40
1.0
 40
1.0
 40
1.0
 10
-102.6612
 20
31.7475
 30
0.0
 10
-103.9467
 20
32.5314
 30
0.0
 10
-104.702
 20
33.8889
 30
0.0
 10
-104.702
 20
35.4171
 30
0.0
 10
-104.702
 20
35.4171
 30
0.0
 10
-104.702
 20
36.9454
 30
0.0
 10
-103.9467
 20
38.3028
 30
0.0
 10
-102.6612
 20
39.0881
 30
0.0
 10
-102.6612
 20
39.0881
 30
0.0
 10
-100.7346
 20
40.2622
 30
0.0
 10
-97.9978
 20
39.5704
 30
0.0
 10
-96.8005
 20
37.6068
 30
0.0
 10
-96.8005
 20
37.6068
 30
0.0
 10
-95.6261
 20
35.6817
 30
0.0
 10
-96.3179
 20
32.9434
 30
0.0
 10
-98.2818
 20
31.7475
 30
0.0
 10
-98.2818
 20
31.7475
 30
0.0
 10
-98.8399
 20
31.4071
 30
0.0
 10
-99.701
 20
31.1866
 30
0.0
 10
-100.4715
 20
31.1866
 30
0.0
 10
-100.4715
 20
31.1866
 30
0.0
 10
-101.2416
 20
31.1866
 30
0.0
 10
-102.1031
 20
31.4071
 30
0.0
 10
-102.6612
 20
31.7475
 30
0.0
  0
SPLINE
  5
D8
330
1F
100
AcDbEntity
  8
Layer 1
100
AcDbSpline
210
0.0
220
0.0
230
1.0
 70
    11
 71
     3
 72
    20
 73
    16
 74
     0
 42
0.0000000001
 43
0.0000000001
 40
0.0
 40
0.0
 40
0.0
 40
0.0
 40
0.2
 40
0.2
 40
0.2
 40
0.2
 40
0.4
 40
0.4
 40
0.4
 40
0.4
 40
0.6
 40
0.6
 40
0.6
 40
0.6
 40
1.0
 40
1.0
 40
1.0
 40
1.0
 10
97.1532
 20
31.7475
 30
0.0
 10
93.4819
 20
33.9852
 30
0.0
 10
95.0503
 20
39.6476
 30
0.0
 10
99.3429
 20
39.6476
 30
0.0
 10
99.3429
 20
39.6476
 30
0.0
 10
101.7503
 20
39.6476
 30
0.0
 10
103.5734
 20
37.8245
 30
0.0
 10
103.5734
 20
35.4171
 30
0.0
 10
103.5734
 20
35.4171
 30
0.0
 10
103.5734
 20
33.0098
 30
0.0
 10
101.7503
 20
31.1866
 30
0.0
 10
99.3429
 20
31.1866
 30
0.0
 10
99.3429
 20
31.1866
 30
0.0
 10
98.571
 20
31.1866
 30
0.0
 10
97.7099
 20
31.4071
 30
0.0
 10
97.1532
 20
31.7475
 30
0.0
  0
SPLINE
  5
D9
330
1F
100
AcDbEntity
  8
Layer 1
100
AcDbSpline
210
0.0
220
0.0
230
1.0
 70
    11
 71
     3
 72
    28
 73
    24
 74
     0
 42
0.0000000001
 43
0.0000000001
 40
0.0
 40
0.0
 40
0.0
 40
0.0
 40
0.1428571428571428
 40
0.1428571428571428
 40
0.1428571428571428
 40
0.1428571428571428
 40
0.2857142857142857
 40
0.2857142857142857
 40
0.2857142857142857
 40
0.2857142857142857
 40
0.4285714285714285
 40
0.4285714285714285
 40
0.4285714285714285
 40
0.4285714285714285
 40
0.5714285714285714
 40
0.5714285714285714
 40
0.5714285714285714
 40
0.5714285714285714
 40
0.7142857142857143
 40
0.7142857142857143
 40
0.7142857142857143
 40
0.7142857142857143
 40
1.0
 40
1.0
 40
1.0
 40
1.0
 10
-5.504
 20
32.6319
 30
0.0
 10
-5.038
 20
33.1957
 30
0.0
 10
-4.2125
 20
34.0226
 30
0.0
 10
-3.6682
 20
34.4664
 30
0.0
 10
-3.6682
 20
34.4664
 30
0.0
 10
-3.6682
 20
34.4664
 30
0.0
 10
-2.6818
 20
35.2767
 30
0.0
 10
-2.6818
 20
35.2767
 30
0.0
 10
-2.6818
 20
35.2767
 30
0.0
 10
-2.6818
 20
35.2767
 30
0.0
 10
-3.4907
 20
34.2886
 30
0.0
 10
-3.4907
 20
34.2886
 30
0.0
 10
-3.4907
 20
34.2886
 30
0.0
 10
-3.9356
 20
33.7457
 30
0.0
 10
-4.7611
 20
32.9202
 30
0.0
 10
-5.3248
 20
32.4545
 30
0.0
 10
-5.3248
 20
32.4545
 30
0.0
 10
-5.3248
 20
32.4545
 30
0.0
 10
-6.35
 20
31.6068
 30
0.0
 10
-6.35
 20
31.6068
 30
0.0
 10
-6.35
 20
31.6068
 30
0.0
 10
-6.35
 20
31.6068
 30
0.0
 10
-5.504
 20
32.6319
 30
0.0
 10
-5.504
 20
32.6319
 30
0.0
  0
SPLINE
  5
DA
330
1F
100
AcDbEntity
  8
Layer 1
100
AcDbSpline
210
0.0
220
0.0
230
1.0
 70
    11
 71
     3
 72
    24
 73
    20
 74
     0
 42
0.0000000001
 43
0.0000000001
 40
0.0
 40
0.0
 40
0.0
 40
0.0
 40
0.1666666666666667
 40
0.1666666666666667
 40
0.1666666666666667
 40
0.1666666666666667
 40
0.3333333333333333
 40
0.3333333333333333
 40
0.3333333333333333
 40
0.3333333333333333
 40
0.5
 40
0.5
 40
0.5
 40
0.5
 40
0.6666666666666666
 40
0.6666666666666666
 40
0.6666666666666666
 40
0.6666666666666666
 40
1.0
 40
1.0
 40
1.0
 40
1.0
 10
3.9455
 20
32.676
 30
0.0
 10
3.3997
 20
33.1752
 30
0.0
 10
2.6377
 20
33.9563
 30
0.0
 10
2.2518
 20
34.4124
 30
0.0
 10
2.2518
 20
34.4124
 30
0.0
 10
2.2518
 20
34.4124
 30
0.0
 10
1.5515
 20
35.2436
 30
0.0
 10
1.5515
 20
35.2436
 30
0.0
 10
1.5515
 20
35.2436
 30
0.0
 10
1.5515
 20
35.2436
 30
0.0
 10
2.577
 20
34.4124
 30
0.0
 10
2.577
 20
34.4124
 30
0.0
 10
2.577
 20
34.4124
 30
0.0
 10
3.4837
 20
33.6793
 30
0.0
 10
5.2874
 20
31.731
 30
0.0
 10
5.0341
 20
31.7585
 30
0.0
 10
5.0341
 20
31.7585
 30
0.0
 10
4.9816
 20
31.7652
 30
0.0
 10
4.4923
 20
32.1772
 30
0.0
 10
3.9455
 20
32.676
 30
0.0
  0
SPLINE
  5
DB
330
1F
100
AcDbEntity
  8
Layer 1
100
AcDbSpline
210
0.0
220
0.0
230
1.0
 70
    11
 71
     3
 72
    16
 73
    12
 74
     0
 42
0.0000000001
 43
0.0000000001
 40
0.0
 40
0.0
 40
0.0
 40
0.0
 40
0.25
 40
0.25
 40
0.25
 40
0.25
 40
0.5
 40
0.5
 40
0.5
 40
0.5
 40
1.0
 40
1.0
 40
1.0
 40
1.0
 10
-90.69
 20
33.9577
 30
0.0
 10
-91.7028
 20
35.0767
 30
0.0
 10
-90.9242
 20
36.8282
 30
0.0
 10
-89.4154
 20
36.8282
 30
0.0
 10
-89.4154
 20
36.8282
 30
0.0
 10
-87.9697
 20
36.8282
 30
0.0
 10
-87.2162
 20
34.8784
 30
0.0
 10
-88.2869
 20
33.9083
 30
0.0
 10
-88.2869
 20
33.9083
 30
0.0
 10
-88.9688
 20
33.2923
 30
0.0
 10
-90.1086
 20
33.3156
 30
0.0
 10
-90.69
 20
33.9577
 30
0.0
  0
SPLINE
  5
DC
330
1F
100
AcDbEntity
  8
Layer 1
100
AcDbSpline
210
0.0
220
0.0
230
1.0
 70
    11
 71
     3
 72
    16
 73
    12
 74
     0
 42
0.0000000001
 43
0.0000000001
 40
0.0
 40
0.0
 40
0.0
 40
0.0
 40
0.25
 40
0.25
 40
0.25
 40
0.25
 40
0.5
 40
0.5
 40
0.5
 40
0.5
 40
1.0
 40
1.0
 40
1.0
 40
1.0
 10
87.11
 20
33.9577
 30
0.0
 10
86.4926
 20
34.64
 30
0.0
 10
86.5159
 20
35.7794
 30
0.0
 10
87.1583
 20
36.3612
 30
0.0
 10
87.1583
 20
36.3612
 30
0.0
 10
88.277
 20
37.374
 30
0.0
 10
90.0285
 20
36.5954
 30
0.0
 10
90.0285
 20
35.0862
 30
0.0
 10
90.0285
 20
35.0862
 30
0.0
 10
90.0285
 20
33.6409
 30
0.0
 10
88.0787
 20
32.887
 30
0.0
 10
87.11
 20
33.9577
 30
0.0
  0
SPLINE
  5
DD
330
1F
100
AcDbEntity
  8
Layer 1
100
AcDbSpline
210
0.0
220
0.0
230
1.0
 70
    11
 71
     3
 72
    28
 73
    24
 74
     0
 42
0.0000000001
 43
0.0000000001
 40
0.0
 40
0.0
 40
0.0
 40
0.0
 40
0.1428571428571428
 40
0.1428571428571428
 40
0.1428571428571428
 40
0.1428571428571428
 40
0.2857142857142857
 40
0.2857142857142857
 40
0.2857142857142857
 40
0.2857142857142857
 40
0.4285714285714285
 40
0.4285714285714285
 40
0.4285714285714285
 40
0.4285714285714285
 40
0.5714285714285714
 40
0.5714285714285714
 40
0.5714285714285714
 40
0.5714285714285714
 40
0.7142857142857143
 40
0.7142857142857143
 40
0.7142857142857143
 40
0.7142857142857143
 40
1.0
 40
1.0
 40
1.0
 40
1.0
 10
-9.7374
 20
35.7367
 30
0.0
 10
-9.2714
 20
36.3005
 30
0.0
 10
-8.4459
 20
37.126
 30
0.0
 10
-7.9015
 20
37.5708
 30
0.0
 10
-7.9015
 20
37.5708
 30
0.0
 10
-7.9015
 20
37.5708
 30
0.0
 10
-6.9152
 20
38.3798
 30
0.0
 10
-6.9152
 20
38.3798
 30
0.0
 10
-6.9152
 20
38.3798
 30
0.0
 10
-6.9152
 20
38.3798
 30
0.0
 10
-7.7241
 20
37.3934
 30
0.0
 10
-7.7241
 20
37.3934
 30
0.0
 10
-7.7241
 20
37.3934
 30
0.0
 10
-8.1689
 20
36.8491
 30
0.0
 10
-8.9944
 20
36.0236
 30
0.0
 10
-9.5582
 20
35.5575
 30
0.0
 10
-9.5582
 20
35.5575
 30
0.0
 10
-9.5582
 20
35.5575
 30
0.0
 10
-10.5833
 20
34.7116
 30
0.0
 10
-10.5833
 20
34.7116
 30
0.0
 10
-10.5833
 20
34.7116
 30
0.0
 10
-10.5833
 20
34.7116
 30
0.0
 10
-9.7374
 20
35.7367
 30
0.0
 10
-9.7374
 20
35.7367
 30
0.0
  0
SPLINE
  5
DE
330
1F
100
AcDbEntity
  8
Layer 1
100
AcDbSpline
210
0.0
220
0.0
230
1.0
 70
    11
 71
     3
 72
    24
 73
    20
 74
     0
 42
0.0000000001
 43
0.0000000001
 40
0.0
 40
0.0
 40
0.0
 40
0.0
 40
0.1666666666666667
 40
0.1666666666666667
 40
0.1666666666666667
 40
0.1666666666666667
 40
0.3333333333333333
 40
0.3333333333333333
 40
0.3333333333333333
 40
0.3333333333333333
 40
0.5
 40
0.5
 40
0.5
 40
0.5
 40
0.6666666666666666
 40
0.6666666666666666
 40
0.6666666666666666
 40
0.6666666666666666
 40
1.0
 40
1.0
 40
1.0
 40
1.0
 10
8.1788
 20
35.7808
 30
0.0
 10
7.633
 20
36.2797
 30
0.0
 10
6.871
 20
37.0611
 30
0.0
 10
6.4851
 20
37.5172
 30
0.0
 10
6.4851
 20
37.5172
 30
0.0
 10
6.4851
 20
37.5172
 30
0.0
 10
5.7848
 20
38.3469
 30
0.0
 10
5.7848
 20
38.3469
 30
0.0
 10
5.7848
 20
38.3469
 30
0.0
 10
5.7848
 20
38.3469
 30
0.0
 10
6.8104
 20
37.5172
 30
0.0
 10
6.8104
 20
37.5172
 30
0.0
 10
6.8104
 20
37.5172
 30
0.0
 10
7.717
 20
36.7841
 30
0.0
 10
9.5208
 20
34.8357
 30
0.0
 10
9.2675
 20
34.8633
 30
0.0
 10
9.2675
 20
34.8633
 30
0.0
 10
9.2149
 20
34.8686
 30
0.0
 10
8.7256
 20
35.282
 30
0.0
 10
8.1788
 20
35.7808
 30
0.0
  0
SPLINE
  5
DF
330
1F
100
AcDbEntity
  8
Layer 1
100
AcDbSpline
210
0.0
220
0.0
230
1.0
 70
    11
 71
     3
 72
    28
 73
    24
 74
     0
 42
0.0000000001
 43
0.0000000001
 40
0.0
 40
0.0
 40
0.0
 40
0.0
 40
0.1428571428571428
 40
0.1428571428571428
 40
0.1428571428571428
 40
0.1428571428571428
 40
0.2857142857142857
 40
0.2857142857142857
 40
0.2857142857142857
 40
0.2857142857142857
 40
0.4285714285714285
 40
0.4285714285714285
 40
0.4285714285714285
 40
0.4285714285714285
 40
0.5714285714285714
 40
0.5714285714285714
 40
0.5714285714285714
 40
0.5714285714285714
 40
0.7142857142857143
 40
0.7142857142857143
 40
0.7142857142857143
 40
0.7142857142857143
 40
1.0
 40
1.0
 40
1.0
 40
1.0
 10
-15.9452
 20
37.1479
 30
0.0
 10
-15.4795
 20
37.7116
 30
0.0
 10
-14.654
 20
38.5371
 30
0.0
 10
-14.1111
 20
38.9819
 30
0.0
 10
-14.1111
 20
38.9819
 30
0.0
 10
-14.1111
 20
38.9819
 30
0.0
 10
-13.123
 20
39.7909
 30
0.0
 10
-13.123
 20
39.7909
 30
0.0
 10
-13.123
 20
39.7909
 30
0.0
 10
-13.123
 20
39.7909
 30
0.0
 10
-13.9319
 20
38.8045
 30
0.0
 10
-13.9319
 20
38.8045
 30
0.0
 10
-13.9319
 20
38.8045
 30
0.0
 10
-14.3771
 20
38.2602
 30
0.0
 10
-15.2026
 20
37.4347
 30
0.0
 10
-15.7674
 20
36.9686
 30
0.0
 10
-15.7674
 20
36.9686
 30
0.0
 10
-15.7674
 20
36.9686
 30
0.0
 10
-16.7929
 20
36.1227
 30
0.0
 10
-16.7929
 20
36.1227
 30
0.0
 10
-16.7929
 20
36.1227
 30
0.0
 10
-16.7929
 20
36.1227
 30
0.0
 10
-15.9452
 20
37.1479
 30
0.0
 10
-15.9452
 20
37.1479
 30
0.0
  0
SPLINE
  5
E0
330
1F
100
AcDbEntity
  8
Layer 1
100
AcDbSpline
210
0.0
220
0.0
230
1.0
 70
    11
 71
     3
 72
    24
 73
    20
 74
     0
 42
0.0000000001
 43
0.0000000001
 40
0.0
 40
0.0
 40
0.0
 40
0.0
 40
0.1666666666666667
 40
0.1666666666666667
 40
0.1666666666666667
 40
0.1666666666666667
 40
0.3333333333333333
 40
0.3333333333333333
 40
0.3333333333333333
 40
0.3333333333333333
 40
0.5
 40
0.5
 40
0.5
 40
0.5
 40
0.6666666666666666
 40
0.6666666666666666
 40
0.6666666666666666
 40
0.6666666666666666
 40
1.0
 40
1.0
 40
1.0
 40
1.0
 10
14.388
 20
37.192
 30
0.0
 10
13.8409
 20
37.6908
 30
0.0
 10
13.0789
 20
38.4722
 30
0.0
 10
12.6944
 20
38.9283
 30
0.0
 10
12.6944
 20
38.9283
 30
0.0
 10
12.6944
 20
38.9283
 30
0.0
 10
11.9944
 20
39.7581
 30
0.0
 10
11.9944
 20
39.7581
 30
0.0
 10
11.9944
 20
39.7581
 30
0.0
 10
11.9944
 20
39.7581
 30
0.0
 10
13.0196
 20
38.9283
 30
0.0
 10
13.0196
 20
38.9283
 30
0.0
 10
13.0196
 20
38.9283
 30
0.0
 10
13.9252
 20
38.1953
 30
0.0
 10
15.7289
 20
36.2469
 30
0.0
 10
15.4767
 20
36.2744
 30
0.0
 10
15.4767
 20
36.2744
 30
0.0
 10
15.4245
 20
36.2797
 30
0.0
 10
14.9338
 20
36.6931
 30
0.0
 10
14.388
 20
37.192
 30
0.0
  0
SPLINE
  5
E1
330
1F
100
AcDbEntity
  8
Layer 1
100
AcDbSpline
210
0.0
220
0.0
230
1.0
 70
    11
 71
     3
 72
    20
 73
    16
 74
     0
 42
0.0000000001
 43
0.0000000001
 40
0.0
 40
0.0
 40
0.0
 40
0.0
 40
0.2
 40
0.2
 40
0.2
 40
0.2
 40
0.4
 40
0.4
 40
0.4
 40
0.4
 40
0.6
 40
0.6
 40
0.6
 40
0.6
 40
1.0
 40
1.0
 40
1.0
 40
1.0
 10
-84.1015
 20
37.3768
 30
0.0
 10
-84.1015
 20
38.2669
 30
0.0
 10
-81.5552
 20
41.3759
 30
0.0
 10
-79.6382
 20
42.8226
 30
0.0
 10
-79.6382
 20
42.8226
 30
0.0
 10
-77.7325
 20
44.2627
 30
0.0
 10
-76.7652
 20
44.5301
 30
0.0
 10
-76.7652
 20
43.6178
 30
0.0
 10
-76.7652
 20
43.6178
 30
0.0
 10
-76.7652
 20
42.7263
 30
0.0
 10
-79.3115
 20
39.6173
 30
0.0
 10
-81.2285
 20
38.1706
 30
0.0
 10
-81.2285
 20
38.1706
 30
0.0
 10
-83.1342
 20
36.7319
 30
0.0
 10
-84.1015
 20
36.4645
 30
0.0
 10
-84.1015
 20
37.3768
 30
0.0
  0
SPLINE
  5
E2
330
1F
100
AcDbEntity
  8
Layer 1
100
AcDbSpline
210
0.0
220
0.0
230
1.0
 70
    11
 71
     3
 72
    20
 73
    16
 74
     0
 42
0.0000000001
 43
0.0000000001
 40
0.0
 40
0.0
 40
0.0
 40
0.0
 40
0.2
 40
0.2
 40
0.2
 40
0.2
 40
0.4
 40
0.4
 40
0.4
 40
0.4
 40
0.6
 40
0.6
 40
0.6
 40
0.6
 40
1.0
 40
1.0
 40
1.0
 40
1.0
 10
80.0985
 20
38.1706
 30
0.0
 10
79.1213
 20
38.9089
 30
0.0
 10
77.7173
 20
40.3133
 30
0.0
 10
76.9786
 20
41.2916
 30
0.0
 10
76.9786
 20
41.2916
 30
0.0
 10
74.6675
 20
44.3509
 30
0.0
 10
75.4503
 20
45.1337
 30
0.0
 10
78.5096
 20
42.8226
 30
0.0
 10
78.5096
 20
42.8226
 30
0.0
 10
79.4879
 20
42.0839
 30
0.0
 10
80.8923
 20
40.6799
 30
0.0
 10
81.631
 20
39.7027
 30
0.0
 10
81.631
 20
39.7027
 30
0.0
 10
83.9417
 20
36.6423
 30
0.0
 10
83.1592
 20
35.8609
 30
0.0
 10
80.0985
 20
38.1706
 30
0.0
  0
SPLINE
  5
E3
330
1F
100
AcDbEntity
  8
Layer 1
100
AcDbSpline
210
0.0
220
0.0
230
1.0
 70
    11
 71
     3
 72
    20
 73
    16
 74
     0
 42
0.0000000001
 43
0.0000000001
 40
0.0
 40
0.0
 40
0.0
 40
0.0
 40
0.2
 40
0.2
 40
0.2
 40
0.2
 40
0.4
 40
0.4
 40
0.4
 40
0.4
 40
0.6
 40
0.6
 40
0.6
 40
0.6
 40
1.0
 40
1.0
 40
1.0
 40
1.0
 10
-69.427
 20
38.1127
 30
0.0
 10
-69.427
 20
38.5674
 30
0.0
 10
-68.326
 20
40.3024
 30
0.0
 10
-66.9301
 20
42.0497
 30
0.0
 10
-66.9301
 20
42.0497
 30
0.0
 10
-62.968
 20
47.0066
 30
0.0
 10
-54.4999
 20
54.452
 30
0.0
 10
-53.7161
 20
53.6677
 30
0.0
 10
-53.7161
 20
53.6677
 30
0.0
 10
-53.2045
 20
53.1566
 30
0.0
 10
-56.5175
 20
48.8738
 30
0.0
 10
-60.5289
 20
44.8635
 30
0.0
 10
-60.5289
 20
44.8635
 30
0.0
 10
-64.7622
 20
40.6287
 30
0.0
 10
-69.427
 20
37.09
 30
0.0
 10
-69.427
 20
38.1127
 30
0.0
  0
SPLINE
  5
E4
330
1F
100
AcDbEntity
  8
Layer 1
100
AcDbSpline
210
0.0
220
0.0
230
1.0
 70
    11
 71
     3
 72
    24
 73
    20
 74
     0
 42
0.0000000001
 43
0.0000000001
 40
0.0
 40
0.0
 40
0.0
 40
0.0
 40
0.1666666666666667
 40
0.1666666666666667
 40
0.1666666666666667
 40
0.1666666666666667
 40
0.3333333333333333
 40
0.3333333333333333
 40
0.3333333333333333
 40
0.3333333333333333
 40
0.5
 40
0.5
 40
0.5
 40
0.5
 40
0.6666666666666666
 40
0.6666666666666666
 40
0.6666666666666666
 40
0.6666666666666666
 40
1.0
 40
1.0
 40
1.0
 40
1.0
 10
67.0278
 20
38.4281
 30
0.0
 10
64.601
 20
39.7154
 30
0.0
 10
58.0746
 20
45.8103
 30
0.0
 10
54.9906
 20
49.6686
 30
0.0
 10
54.9906
 20
49.6686
 30
0.0
 10
53.3908
 20
51.6696
 30
0.0
 10
52.3392
 20
53.4197
 30
0.0
 10
52.5872
 20
53.6677
 30
0.0
 10
52.5872
 20
53.6677
 30
0.0
 10
52.6616
 20
53.7422
 30
0.0
 10
53.1481
 20
53.588
 30
0.0
 10
53.6663
 20
53.3234
 30
0.0
 10
53.6663
 20
53.3234
 30
0.0
 10
57.0149
 20
51.6202
 30
0.0
 10
66.1458
 20
42.5016
 30
0.0
 10
67.8381
 20
39.171
 30
0.0
 10
67.8381
 20
39.171
 30
0.0
 10
68.5479
 20
37.7762
 30
0.0
 10
68.4417
 20
37.6784
 30
0.0
 10
67.0278
 20
38.4281
 30
0.0
  0
SPLINE
  5
E5
330
1F
100
AcDbEntity
  8
Layer 1
100
AcDbSpline
210
0.0
220
0.0
230
1.0
 70
    11
 71
     3
 72
    20
 73
    16
 74
     0
 42
0.0000000001
 43
0.0000000001
 40
0.0
 40
0.0
 40
0.0
 40
0.0
 40
0.2
 40
0.2
 40
0.2
 40
0.2
 40
0.4
 40
0.4
 40
0.4
 40
0.4
 40
0.6
 40
0.6
 40
0.6
 40
0.6
 40
1.0
 40
1.0
 40
1.0
 40
1.0
 10
-138.0063
 20
39.0691
 30
0.0
 10
-138.0063
 20
39.2151
 30
0.0
 10
-137.2376
 20
40.2897
 30
0.0
 10
-136.2975
 20
41.4584
 30
0.0
 10
-136.2975
 20
41.4584
 30
0.0
 10
-133.6862
 20
44.7065
 30
0.0
 10
-128.4344
 20
49.3628
 30
0.0
 10
-127.9412
 20
48.8696
 30
0.0
 10
-127.9412
 20
48.8696
 30
0.0
 10
-127.448
 20
48.3761
 30
0.0
 10
-132.1043
 20
43.1246
 30
0.0
 10
-135.3524
 20
40.5116
 30
0.0
 10
-135.3524
 20
40.5116
 30
0.0
 10
-137.4235
 20
38.8458
 30
0.0
 10
-138.0063
 20
38.5286
 30
0.0
 10
-138.0063
 20
39.0691
 30
0.0
  0
SPLINE
  5
E6
330
1F
100
AcDbEntity
  8
Layer 1
100
AcDbSpline
210
0.0
220
0.0
230
1.0
 70
    11
 71
     3
 72
    16
 73
    12
 74
     0
 42
0.0000000001
 43
0.0000000001
 40
0.0
 40
0.0
 40
0.0
 40
0.0
 40
0.25
 40
0.25
 40
0.25
 40
0.25
 40
0.5
 40
0.5
 40
0.5
 40
0.5
 40
1.0
 40
1.0
 40
1.0
 40
1.0
 10
134.2224
 20
40.5116
 30
0.0
 10
130.9758
 20
43.1246
 30
0.0
 10
126.3177
 20
48.3761
 30
0.0
 10
126.8113
 20
48.8696
 30
0.0
 10
126.8113
 20
48.8696
 30
0.0
 10
127.3044
 20
49.3628
 30
0.0
 10
132.5562
 20
44.7065
 30
0.0
 10
135.1689
 20
41.4584
 30
0.0
 10
135.1689
 20
41.4584
 30
0.0
 10
137.7721
 20
38.2228
 30
0.0
 10
137.4592
 20
37.9084
 30
0.0
 10
134.2224
 20
40.5116
 30
0.0
  0
SPLINE
  5
E7
330
1F
100
AcDbEntity
  8
Layer 1
100
AcDbSpline
210
0.0
220
0.0
230
1.0
 70
    11
 71
     3
 72
    28
 73
    24
 74
     0
 42
0.0000000001
 43
0.0000000001
 40
0.0
 40
0.0
 40
0.0
 40
0.0
 40
0.1428571428571428
 40
0.1428571428571428
 40
0.1428571428571428
 40
0.1428571428571428
 40
0.2857142857142857
 40
0.2857142857142857
 40
0.2857142857142857
 40
0.2857142857142857
 40
0.4285714285714285
 40
0.4285714285714285
 40
0.4285714285714285
 40
0.4285714285714285
 40
0.5714285714285714
 40
0.5714285714285714
 40
0.5714285714285714
 40
0.5714285714285714
 40
0.7142857142857143
 40
0.7142857142857143
 40
0.7142857142857143
 40
0.7142857142857143
 40
1.0
 40
1.0
 40
1.0
 40
1.0
 10
-20.1785
 20
41.9463
 30
0.0
 10
-19.7129
 20
42.5097
 30
0.0
 10
-18.8874
 20
43.3352
 30
0.0
 10
-18.3445
 20
43.7804
 30
0.0
 10
-18.3445
 20
43.7804
 30
0.0
 10
-18.3445
 20
43.7804
 30
0.0
 10
-17.3563
 20
44.5893
 30
0.0
 10
-17.3563
 20
44.5893
 30
0.0
 10
-17.3563
 20
44.5893
 30
0.0
 10
-17.3563
 20
44.5893
 30
0.0
 10
-18.1652
 20
43.6012
 30
0.0
 10
-18.1652
 20
43.6012
 30
0.0
 10
-18.1652
 20
43.6012
 30
0.0
 10
-18.6104
 20
43.0583
 30
0.0
 10
-19.4359
 20
42.2328
 30
0.0
 10
-20.0007
 20
41.7671
 30
0.0
 10
-20.0007
 20
41.7671
 30
0.0
 10
-20.0007
 20
41.7671
 30
0.0
 10
-21.0263
 20
40.9212
 30
0.0
 10
-21.0263
 20
40.9212
 30
0.0
 10
-21.0263
 20
40.9212
 30
0.0
 10
-21.0263
 20
40.9212
 30
0.0
 10
-20.1785
 20
41.9463
 30
0.0
 10
-20.1785
 20
41.9463
 30
0.0
  0
SPLINE
  5
E8
330
1F
100
AcDbEntity
  8
Layer 1
100
AcDbSpline
210
0.0
220
0.0
230
1.0
 70
    11
 71
     3
 72
    24
 73
    20
 74
     0
 42
0.0000000001
 43
0.0000000001
 40
0.0
 40
0.0
 40
0.0
 40
0.0
 40
0.1666666666666667
 40
0.1666666666666667
 40
0.1666666666666667
 40
0.1666666666666667
 40
0.3333333333333333
 40
0.3333333333333333
 40
0.3333333333333333
 40
0.3333333333333333
 40
0.5
 40
0.5
 40
0.5
 40
0.5
 40
0.6666666666666666
 40
0.6666666666666666
 40
0.6666666666666666
 40
0.6666666666666666
 40
1.0
 40
1.0
 40
1.0
 40
1.0
 10
18.6214
 20
41.989
 30
0.0
 10
18.0742
 20
42.4879
 30
0.0
 10
17.3122
 20
43.2693
 30
0.0
 10
16.9277
 20
43.7268
 30
0.0
 10
16.9277
 20
43.7268
 30
0.0
 10
16.9277
 20
43.7268
 30
0.0
 10
16.2278
 20
44.5562
 30
0.0
 10
16.2278
 20
44.5562
 30
0.0
 10
16.2278
 20
44.5562
 30
0.0
 10
16.2278
 20
44.5562
 30
0.0
 10
17.2529
 20
43.7268
 30
0.0
 10
17.2529
 20
43.7268
 30
0.0
 10
17.2529
 20
43.7268
 30
0.0
 10
18.1585
 20
42.9923
 30
0.0
 10
19.9623
 20
41.0436
 30
0.0
 10
19.71
 20
41.0725
 30
0.0
 10
19.71
 20
41.0725
 30
0.0
 10
19.6578
 20
41.0782
 30
0.0
 10
19.1671
 20
41.4902
 30
0.0
 10
18.6214
 20
41.989
 30
0.0
  0
SPLINE
  5
E9
330
1F
100
AcDbEntity
  8
Layer 1
100
AcDbSpline
210
0.0
220
0.0
230
1.0
 70
    11
 71
     3
 72
    16
 73
    12
 74
     0
 42
0.0000000001
 43
0.0000000001
 40
0.0
 40
0.0
 40
0.0
 40
0.0
 40
0.25
 40
0.25
 40
0.25
 40
0.25
 40
0.5
 40
0.5
 40
0.5
 40
0.5
 40
1.0
 40
1.0
 40
1.0
 40
1.0
 10
-4.6122
 20
41.8596
 30
0.0
 10
-5.2296
 20
42.5415
 30
0.0
 10
-5.2063
 20
43.6813
 30
0.0
 10
-4.5639
 20
44.2627
 30
0.0
 10
-4.5639
 20
44.2627
 30
0.0
 10
-3.4452
 20
45.2755
 30
0.0
 10
-1.6937
 20
44.4983
 30
0.0
 10
-1.6937
 20
42.9881
 30
0.0
 10
-1.6937
 20
42.9881
 30
0.0
 10
-1.6937
 20
41.5424
 30
0.0
 10
-3.6435
 20
40.7889
 30
0.0
 10
-4.6122
 20
41.8596
 30
0.0
  0
SPLINE
  5
EA
330
1F
100
AcDbEntity
  8
Layer 1
100
AcDbSpline
210
0.0
220
0.0
230
1.0
 70
    11
 71
     3
 72
    16
 73
    12
 74
     0
 42
0.0000000001
 43
0.0000000001
 40
0.0
 40
0.0
 40
0.0
 40
0.0
 40
0.25
 40
0.25
 40
0.25
 40
0.25
 40
0.5
 40
0.5
 40
0.5
 40
0.5
 40
1.0
 40
1.0
 40
1.0
 40
1.0
 10
1.0322
 20
41.8596
 30
0.0
 10
0.4149
 20
42.5415
 30
0.0
 10
0.4381
 20
43.6813
 30
0.0
 10
1.0806
 20
44.2627
 30
0.0
 10
1.0806
 20
44.2627
 30
0.0
 10
2.1992
 20
45.2755
 30
0.0
 10
3.9508
 20
44.4983
 30
0.0
 10
3.9508
 20
42.9881
 30
0.0
 10
3.9508
 20
42.9881
 30
0.0
 10
3.9508
 20
41.5424
 30
0.0
 10
2.001
 20
40.7889
 30
0.0
 10
1.0322
 20
41.8596
 30
0.0
  0
SPLINE
  5
EB
330
1F
100
AcDbEntity
  8
Layer 1
100
AcDbSpline
210
0.0
220
0.0
230
1.0
 70
    11
 71
     3
 72
    20
 73
    16
 74
     0
 42
0.0000000001
 43
0.0000000001
 40
0.0
 40
0.0
 40
0.0
 40
0.0
 40
0.2
 40
0.2
 40
0.2
 40
0.2
 40
0.4
 40
0.4
 40
0.4
 40
0.4
 40
0.6
 40
0.6
 40
0.6
 40
0.6
 40
1.0
 40
1.0
 40
1.0
 40
1.0
 10
144.6858
 20
41.5315
 30
0.0
 10
144.5824
 20
41.6348
 30
0.0
 10
144.5024
 20
41.9848
 30
0.0
 10
144.5066
 20
42.3086
 30
0.0
 10
144.5066
 20
42.3086
 30
0.0
 10
144.5147
 20
42.8861
 30
0.0
 10
144.5232
 20
42.8861
 30
0.0
 10
144.9296
 20
42.3485
 30
0.0
 10
144.9296
 20
42.3485
 30
0.0
 10
145.1585
 20
42.0469
 30
0.0
 10
145.3444
 20
41.6983
 30
0.0
 10
145.3444
 20
41.5713
 30
0.0
 10
145.3444
 20
41.5713
 30
0.0
 10
145.3444
 20
41.2958
 30
0.0
 10
144.9462
 20
41.2711
 30
0.0
 10
144.6858
 20
41.5315
 30
0.0
  0
SPLINE
  5
EC
330
1F
100
AcDbEntity
  8
Layer 1
100
AcDbSpline
210
0.0
220
0.0
230
1.0
 70
    11
 71
     3
 72
    16
 73
    12
 74
     0
 42
0.0000000001
 43
0.0000000001
 40
0.0
 40
0.0
 40
0.0
 40
0.0
 40
0.25
 40
0.25
 40
0.25
 40
0.25
 40
0.5
 40
0.5
 40
0.5
 40
0.5
 40
1.0
 40
1.0
 40
1.0
 40
1.0
 10
-91.2552
 20
42.1418
 30
0.0
 10
-92.268
 20
43.2608
 30
0.0
 10
-91.4894
 20
45.0123
 30
0.0
 10
-89.9802
 20
45.0123
 30
0.0
 10
-89.9802
 20
45.0123
 30
0.0
 10
-88.5349
 20
45.0123
 30
0.0
 10
-87.781
 20
43.0625
 30
0.0
 10
-88.8517
 20
42.0938
 30
0.0
 10
-88.8517
 20
42.0938
 30
0.0
 10
-89.5339
 20
41.4764
 30
0.0
 10
-90.6734
 20
41.4997
 30
0.0
 10
-91.2552
 20
42.1418
 30
0.0
  0
SPLINE
  5
ED
330
1F
100
AcDbEntity
  8
Layer 1
100
AcDbSpline
210
0.0
220
0.0
230
1.0
 70
    11
 71
     3
 72
    16
 73
    12
 74
     0
 42
0.0000000001
 43
0.0000000001
 40
0.0
 40
0.0
 40
0.0
 40
0.0
 40
0.25
 40
0.25
 40
0.25
 40
0.25
 40
0.5
 40
0.5
 40
0.5
 40
0.5
 40
1.0
 40
1.0
 40
1.0
 40
1.0
 10
87.6734
 20
42.1418
 30
0.0
 10
87.0574
 20
42.824
 30
0.0
 10
87.0797
 20
43.9639
 30
0.0
 10
87.7231
 20
44.5453
 30
0.0
 10
87.7231
 20
44.5453
 30
0.0
 10
88.8421
 20
45.5581
 30
0.0
 10
90.5937
 20
44.7795
 30
0.0
 10
90.5937
 20
43.2707
 30
0.0
 10
90.5937
 20
43.2707
 30
0.0
 10
90.5937
 20
41.825
 30
0.0
 10
88.6425
 20
41.0711
 30
0.0
 10
87.6734
 20
42.1418
 30
0.0
  0
SPLINE
  5
EE
330
1F
100
AcDbEntity
  8
Layer 1
100
AcDbSpline
210
0.0
220
0.0
230
1.0
 70
    11
 71
     3
 72
    16
 73
    12
 74
     0
 42
0.0000000001
 43
0.0000000001
 40
0.0
 40
0.0
 40
0.0
 40
0.0
 40
0.25
 40
0.25
 40
0.25
 40
0.25
 40
0.5
 40
0.5
 40
0.5
 40
0.5
 40
1.0
 40
1.0
 40
1.0
 40
1.0
 10
-53.1552
 20
42.7069
 30
0.0
 10
-54.168
 20
43.8259
 30
0.0
 10
-53.3894
 20
45.5775
 30
0.0
 10
-51.8802
 20
45.5775
 30
0.0
 10
-51.8802
 20
45.5775
 30
0.0
 10
-50.4349
 20
45.5775
 30
0.0
 10
-49.681
 20
43.6263
 30
0.0
 10
-50.7517
 20
42.6572
 30
0.0
 10
-50.7517
 20
42.6572
 30
0.0
 10
-51.4339
 20
42.0412
 30
0.0
 10
-52.5734
 20
42.0635
 30
0.0
 10
-53.1552
 20
42.7069
 30
0.0
  0
SPLINE
  5
EF
330
1F
100
AcDbEntity
  8
Layer 1
100
AcDbSpline
210
0.0
220
0.0
230
1.0
 70
    11
 71
     3
 72
    16
 73
    12
 74
     0
 42
0.0000000001
 43
0.0000000001
 40
0.0
 40
0.0
 40
0.0
 40
0.0
 40
0.25
 40
0.25
 40
0.25
 40
0.25
 40
0.5
 40
0.5
 40
0.5
 40
0.5
 40
1.0
 40
1.0
 40
1.0
 40
1.0
 10
49.5734
 20
42.7069
 30
0.0
 10
48.9574
 20
43.3878
 30
0.0
 10
48.9797
 20
44.5287
 30
0.0
 10
49.6231
 20
45.1104
 30
0.0
 10
49.6231
 20
45.1104
 30
0.0
 10
50.7421
 20
46.1232
 30
0.0
 10
52.4937
 20
45.3446
 30
0.0
 10
52.4937
 20
43.8341
 30
0.0
 10
52.4937
 20
43.8341
 30
0.0
 10
52.4937
 20
42.3901
 30
0.0
 10
50.5425
 20
41.6362
 30
0.0
 10
49.5734
 20
42.7069
 30
0.0
  0
SPLINE
  5
F0
330
1F
100
AcDbEntity
  8
Layer 1
100
AcDbSpline
210
0.0
220
0.0
230
1.0
 70
    11
 71
     3
 72
    16
 73
    12
 74
     0
 42
0.0000000001
 43
0.0000000001
 40
0.0
 40
0.0
 40
0.0
 40
0.0
 40
0.25
 40
0.25
 40
0.25
 40
0.25
 40
0.5
 40
0.5
 40
0.5
 40
0.5
 40
1.0
 40
1.0
 40
1.0
 40
1.0
 10
-72.6281
 20
43.2707
 30
0.0
 10
-73.641
 20
44.3897
 30
0.0
 10
-72.8624
 20
46.1409
 30
0.0
 10
-71.3535
 20
46.1409
 30
0.0
 10
-71.3535
 20
46.1409
 30
0.0
 10
-69.9079
 20
46.1409
 30
0.0
 10
-69.154
 20
44.1911
 30
0.0
 10
-70.2247
 20
43.2223
 30
0.0
 10
-70.2247
 20
43.2223
 30
0.0
 10
-70.9069
 20
42.605
 30
0.0
 10
-72.0468
 20
42.6283
 30
0.0
 10
-72.6281
 20
43.2707
 30
0.0
  0
SPLINE
  5
F1
330
1F
100
AcDbEntity
  8
Layer 1
100
AcDbSpline
210
0.0
220
0.0
230
1.0
 70
    11
 71
     3
 72
    16
 73
    12
 74
     0
 42
0.0000000001
 43
0.0000000001
 40
0.0
 40
0.0
 40
0.0
 40
0.0
 40
0.25
 40
0.25
 40
0.25
 40
0.25
 40
0.5
 40
0.5
 40
0.5
 40
0.5
 40
1.0
 40
1.0
 40
1.0
 40
1.0
 10
69.0467
 20
43.2707
 30
0.0
 10
68.4308
 20
43.9526
 30
0.0
 10
68.4541
 20
45.0924
 30
0.0
 10
69.0961
 20
45.6738
 30
0.0
 10
69.0961
 20
45.6738
 30
0.0
 10
70.2151
 20
46.6866
 30
0.0
 10
71.9667
 20
45.9094
 30
0.0
 10
71.9667
 20
44.3992
 30
0.0
 10
71.9667
 20
44.3992
 30
0.0
 10
71.9667
 20
42.9535
 30
0.0
 10
70.0169
 20
42.2
 30
0.0
 10
69.0467
 20
43.2707
 30
0.0
  0
SPLINE
  5
F2
330
1F
100
AcDbEntity
  8
Layer 1
100
AcDbSpline
210
0.0
220
0.0
230
1.0
 70
    11
 71
     3
 72
    16
 73
    12
 74
     0
 42
0.0000000001
 43
0.0000000001
 40
0.0
 40
0.0
 40
0.0
 40
0.0
 40
0.25
 40
0.25
 40
0.25
 40
0.25
 40
0.5
 40
0.5
 40
0.5
 40
0.5
 40
1.0
 40
1.0
 40
1.0
 40
1.0
 10
-32.5438
 20
43.8288
 30
0.0
 10
-33.5926
 20
44.9227
 30
0.0
 10
-33.5788
 20
46.3352
 30
0.0
 10
-32.5106
 20
47.3594
 30
0.0
 10
-32.5106
 20
47.3594
 30
0.0
 10
-30.861
 20
48.9384
 30
0.0
 10
-28.2222
 20
47.8222
 30
0.0
 10
-28.2222
 20
45.5443
 30
0.0
 10
-28.2222
 20
45.5443
 30
0.0
 10
-28.2222
 20
43.3049
 30
0.0
 10
-30.9894
 20
42.2067
 30
0.0
 10
-32.5438
 20
43.8288
 30
0.0
  0
SPLINE
  5
F3
330
1F
100
AcDbEntity
  8
Layer 1
100
AcDbSpline
210
0.0
220
0.0
230
1.0
 70
    11
 71
     3
 72
    16
 73
    12
 74
     0
 42
0.0000000001
 43
0.0000000001
 40
0.0
 40
0.0
 40
0.0
 40
0.0
 40
0.25
 40
0.25
 40
0.25
 40
0.25
 40
0.5
 40
0.5
 40
0.5
 40
0.5
 40
1.0
 40
1.0
 40
1.0
 40
1.0
 10
27.8514
 20
43.8288
 30
0.0
 10
26.803
 20
44.9227
 30
0.0
 10
26.8168
 20
46.3352
 30
0.0
 10
27.8846
 20
47.3594
 30
0.0
 10
27.8846
 20
47.3594
 30
0.0
 10
29.5342
 20
48.9384
 30
0.0
 10
32.173
 20
47.8222
 30
0.0
 10
32.173
 20
45.5443
 30
0.0
 10
32.173
 20
45.5443
 30
0.0
 10
32.173
 20
43.3049
 30
0.0
 10
29.4058
 20
42.2067
 30
0.0
 10
27.8514
 20
43.8288
 30
0.0
  0
SPLINE
  5
F4
330
1F
100
AcDbEntity
  8
Layer 1
100
AcDbSpline
210
0.0
220
0.0
230
1.0
 70
    11
 71
     3
 72
    28
 73
    24
 74
     0
 42
0.0000000001
 43
0.0000000001
 40
0.0
 40
0.0
 40
0.0
 40
0.0
 40
0.1428571428571428
 40
0.1428571428571428
 40
0.1428571428571428
 40
0.1428571428571428
 40
0.2857142857142857
 40
0.2857142857142857
 40
0.2857142857142857
 40
0.2857142857142857
 40
0.4285714285714285
 40
0.4285714285714285
 40
0.4285714285714285
 40
0.4285714285714285
 40
0.5714285714285714
 40
0.5714285714285714
 40
0.5714285714285714
 40
0.5714285714285714
 40
0.7142857142857143
 40
0.7142857142857143
 40
0.7142857142857143
 40
0.7142857142857143
 40
1.0
 40
1.0
 40
1.0
 40
1.0
 10
-111.4033
 20
46.1479
 30
0.0
 10
-113.4992
 20
47.3495
 30
0.0
 10
-114.5769
 20
49.2651
 30
0.0
 10
-114.5769
 20
51.7853
 30
0.0
 10
-114.5769
 20
51.7853
 30
0.0
 10
-114.5769
 20
53.3083
 30
0.0
 10
-114.4323
 20
53.8716
 30
0.0
 10
-113.7296
 20
55.0982
 30
0.0
 10
-113.7296
 20
55.0982
 30
0.0
 10
-111.2644
 20
59.3979
 30
0.0
 10
-104.9182
 20
59.3979
 30
0.0
 10
-102.453
 20
55.0982
 30
0.0
 10
-102.453
 20
55.0982
 30
0.0
 10
-100.627
 20
51.9151
 30
0.0
 10
-101.6621
 20
47.9351
 30
0.0
 10
-104.7792
 20
46.1479
 30
0.0
 10
-104.7792
 20
46.1479
 30
0.0
 10
-106.0055
 20
45.4438
 30
0.0
 10
-106.5692
 20
45.3005
 30
0.0
 10
-108.0904
 20
45.3005
 30
0.0
 10
-108.0904
 20
45.3005
 30
0.0
 10
-109.6134
 20
45.3005
 30
0.0
 10
-110.1767
 20
45.4438
 30
0.0
 10
-111.4033
 20
46.1479
 30
0.0
  0
SPLINE
  5
F5
330
1F
100
AcDbEntity
  8
Layer 1
100
AcDbSpline
210
0.0
220
0.0
230
1.0
 70
    11
 71
     3
 72
    28
 73
    24
 74
     0
 42
0.0000000001
 43
0.0000000001
 40
0.0
 40
0.0
 40
0.0
 40
0.0
 40
0.1428571428571428
 40
0.1428571428571428
 40
0.1428571428571428
 40
0.1428571428571428
 40
0.2857142857142857
 40
0.2857142857142857
 40
0.2857142857142857
 40
0.2857142857142857
 40
0.4285714285714285
 40
0.4285714285714285
 40
0.4285714285714285
 40
0.4285714285714285
 40
0.5714285714285714
 40
0.5714285714285714
 40
0.5714285714285714
 40
0.5714285714285714
 40
0.7142857142857143
 40
0.7142857142857143
 40
0.7142857142857143
 40
0.7142857142857143
 40
1.0
 40
1.0
 40
1.0
 40
1.0
 10
-23.2833
 20
46.1797
 30
0.0
 10
-22.8177
 20
46.7431
 30
0.0
 10
-21.9922
 20
47.5686
 30
0.0
 10
-21.4492
 20
48.0138
 30
0.0
 10
-21.4492
 20
48.0138
 30
0.0
 10
-21.4492
 20
48.0138
 30
0.0
 10
-20.4611
 20
48.8227
 30
0.0
 10
-20.4611
 20
48.8227
 30
0.0
 10
-20.4611
 20
48.8227
 30
0.0
 10
-20.4611
 20
48.8227
 30
0.0
 10
-21.27
 20
47.8346
 30
0.0
 10
-21.27
 20
47.8346
 30
0.0
 10
-21.27
 20
47.8346
 30
0.0
 10
-21.7152
 20
47.2916
 30
0.0
 10
-22.5407
 20
46.4661
 30
0.0
 10
-23.1041
 20
46.0005
 30
0.0
 10
-23.1041
 20
46.0005
 30
0.0
 10
-23.1041
 20
46.0005
 30
0.0
 10
-24.1293
 20
45.1545
 30
0.0
 10
-24.1293
 20
45.1545
 30
0.0
 10
-24.1293
 20
45.1545
 30
0.0
 10
-24.1293
 20
45.1545
 30
0.0
 10
-23.2833
 20
46.1797
 30
0.0
 10
-23.2833
 20
46.1797
 30
0.0
  0
SPLINE
  5
F6
330
1F
100
AcDbEntity
  8
Layer 1
100
AcDbSpline
210
0.0
220
0.0
230
1.0
 70
    11
 71
     3
 72
    16
 73
    12
 74
     0
 42
0.0000000001
 43
0.0000000001
 40
0.0
 40
0.0
 40
0.0
 40
0.0
 40
0.25
 40
0.25
 40
0.25
 40
0.25
 40
0.5
 40
0.5
 40
0.5
 40
0.5
 40
1.0
 40
1.0
 40
1.0
 40
1.0
 10
-14.2088
 20
45.8117
 30
0.0
 10
-14.8248
 20
46.4926
 30
0.0
 10
-14.8015
 20
47.6335
 30
0.0
 10
-14.1594
 20
48.2148
 30
0.0
 10
-14.1594
 20
48.2148
 30
0.0
 10
-13.0404
 20
49.2266
 30
0.0
 10
-11.2889
 20
48.4491
 30
0.0
 10
-11.2889
 20
46.9388
 30
0.0
 10
-11.2889
 20
46.9388
 30
0.0
 10
-11.2889
 20
45.4932
 30
0.0
 10
-13.2387
 20
44.7396
 30
0.0
 10
-14.2088
 20
45.8117
 30
0.0
  0
SPLINE
  5
F7
330
1F
100
AcDbEntity
  8
Layer 1
100
AcDbSpline
210
0.0
220
0.0
230
1.0
 70
    11
 71
     3
 72
    16
 73
    12
 74
     0
 42
0.0000000001
 43
0.0000000001
 40
0.0
 40
0.0
 40
0.0
 40
0.0
 40
0.25
 40
0.25
 40
0.25
 40
0.25
 40
0.5
 40
0.5
 40
0.5
 40
0.5
 40
1.0
 40
1.0
 40
1.0
 40
1.0
 10
10.6274
 20
45.8117
 30
0.0
 10
10.0101
 20
46.4926
 30
0.0
 10
10.0333
 20
47.6335
 30
0.0
 10
10.6758
 20
48.2148
 30
0.0
 10
10.6758
 20
48.2148
 30
0.0
 10
11.7948
 20
49.2266
 30
0.0
 10
13.546
 20
48.4491
 30
0.0
 10
13.546
 20
46.9388
 30
0.0
 10
13.546
 20
46.9388
 30
0.0
 10
13.546
 20
45.4932
 30
0.0
 10
11.5962
 20
44.7396
 30
0.0
 10
10.6274
 20
45.8117
 30
0.0
  0
SPLINE
  5
F8
330
1F
100
AcDbEntity
  8
Layer 1
100
AcDbSpline
210
0.0
220
0.0
230
1.0
 70
    11
 71
     3
 72
    24
 73
    20
 74
     0
 42
0.0000000001
 43
0.0000000001
 40
0.0
 40
0.0
 40
0.0
 40
0.0
 40
0.1666666666666667
 40
0.1666666666666667
 40
0.1666666666666667
 40
0.1666666666666667
 40
0.3333333333333333
 40
0.3333333333333333
 40
0.3333333333333333
 40
0.3333333333333333
 40
0.5
 40
0.5
 40
0.5
 40
0.5
 40
0.6666666666666666
 40
0.6666666666666666
 40
0.6666666666666666
 40
0.6666666666666666
 40
1.0
 40
1.0
 40
1.0
 40
1.0
 10
21.7262
 20
46.2224
 30
0.0
 10
21.179
 20
46.7212
 30
0.0
 10
20.417
 20
47.5026
 30
0.0
 10
20.0325
 20
47.9601
 30
0.0
 10
20.0325
 20
47.9601
 30
0.0
 10
20.0325
 20
47.9601
 30
0.0
 10
19.3326
 20
48.7895
 30
0.0
 10
19.3326
 20
48.7895
 30
0.0
 10
19.3326
 20
48.7895
 30
0.0
 10
19.3326
 20
48.7895
 30
0.0
 10
20.3577
 20
47.9601
 30
0.0
 10
20.3577
 20
47.9601
 30
0.0
 10
20.3577
 20
47.9601
 30
0.0
 10
21.263
 20
47.2257
 30
0.0
 10
23.0671
 20
45.2769
 30
0.0
 10
22.8148
 20
45.3058
 30
0.0
 10
22.8148
 20
45.3058
 30
0.0
 10
22.7623
 20
45.3115
 30
0.0
 10
22.2719
 20
45.7235
 30
0.0
 10
21.7262
 20
46.2224
 30
0.0
  0
SPLINE
  5
F9
330
1F
100
AcDbEntity
  8
Layer 1
100
AcDbSpline
210
0.0
220
0.0
230
1.0
 70
    11
 71
     3
 72
    24
 73
    20
 74
     0
 42
0.0000000001
 43
0.0000000001
 40
0.0
 40
0.0
 40
0.0
 40
0.0
 40
0.1666666666666667
 40
0.1666666666666667
 40
0.1666666666666667
 40
0.1666666666666667
 40
0.3333333333333333
 40
0.3333333333333333
 40
0.3333333333333333
 40
0.3333333333333333
 40
0.5
 40
0.5
 40
0.5
 40
0.5
 40
0.6666666666666666
 40
0.6666666666666666
 40
0.6666666666666666
 40
0.6666666666666666
 40
1.0
 40
1.0
 40
1.0
 40
1.0
 10
103.6493
 20
46.1479
 30
0.0
 10
101.5545
 20
47.3495
 30
0.0
 10
100.4768
 20
49.2651
 30
0.0
 10
100.4768
 20
51.7853
 30
0.0
 10
100.4768
 20
51.7853
 30
0.0
 10
100.4768
 20
55.5833
 30
0.0
 10
103.1642
 20
58.2718
 30
0.0
 10
106.9619
 20
58.2718
 30
0.0
 10
106.9619
 20
58.2718
 30
0.0
 10
110.7599
 20
58.2718
 30
0.0
 10
113.4484
 20
55.5833
 30
0.0
 10
113.4484
 20
51.7853
 30
0.0
 10
113.4484
 20
51.7853
 30
0.0
 10
113.4484
 20
47.9891
 30
0.0
 10
110.7599
 20
45.3005
 30
0.0
 10
106.9619
 20
45.3005
 30
0.0
 10
106.9619
 20
45.3005
 30
0.0
 10
105.4393
 20
45.3005
 30
0.0
 10
104.8769
 20
45.4438
 30
0.0
 10
103.6493
 20
46.1479
 30
0.0
  0
SPLINE
  5
FA
330
1F
100
AcDbEntity
  8
Layer 1
100
AcDbSpline
210
0.0
220
0.0
230
1.0
 70
    11
 71
     3
 72
    16
 73
    12
 74
     0
 42
0.0000000001
 43
0.0000000001
 40
0.0
 40
0.0
 40
0.0
 40
0.0
 40
0.25
 40
0.25
 40
0.25
 40
0.25
 40
0.5
 40
0.5
 40
0.5
 40
0.5
 40
1.0
 40
1.0
 40
1.0
 40
1.0
 10
-7.717
 20
47.504
 30
0.0
 10
-8.3344
 20
48.1859
 30
0.0
 10
-8.3111
 20
49.3257
 30
0.0
 10
-7.6687
 20
49.9071
 30
0.0
 10
-7.6687
 20
49.9071
 30
0.0
 10
-6.5497
 20
50.9199
 30
0.0
 10
-4.7985
 20
50.1428
 30
0.0
 10
-4.7985
 20
48.6325
 30
0.0
 10
-4.7985
 20
48.6325
 30
0.0
 10
-4.7985
 20
47.1869
 30
0.0
 10
-6.7483
 20
46.4333
 30
0.0
 10
-7.717
 20
47.504
 30
0.0
  0
SPLINE
  5
FB
330
1F
100
AcDbEntity
  8
Layer 1
100
AcDbSpline
210
0.0
220
0.0
230
1.0
 70
    11
 71
     3
 72
    16
 73
    12
 74
     0
 42
0.0000000001
 43
0.0000000001
 40
0.0
 40
0.0
 40
0.0
 40
0.0
 40
0.25
 40
0.25
 40
0.25
 40
0.25
 40
0.5
 40
0.5
 40
0.5
 40
0.5
 40
1.0
 40
1.0
 40
1.0
 40
1.0
 10
4.1356
 20
47.504
 30
0.0
 10
3.5197
 20
48.1859
 30
0.0
 10
3.5429
 20
49.3257
 30
0.0
 10
4.185
 20
49.9071
 30
0.0
 10
4.185
 20
49.9071
 30
0.0
 10
5.304
 20
50.9199
 30
0.0
 10
7.0556
 20
50.1428
 30
0.0
 10
7.0556
 20
48.6325
 30
0.0
 10
7.0556
 20
48.6325
 30
0.0
 10
7.0556
 20
47.1869
 30
0.0
 10
5.1057
 20
46.4333
 30
0.0
 10
4.1356
 20
47.504
 30
0.0
  0
SPLINE
  5
FC
330
1F
100
AcDbEntity
  8
Layer 1
100
AcDbSpline
210
0.0
220
0.0
230
1.0
 70
    11
 71
     3
 72
    20
 73
    16
 74
     0
 42
0.0000000001
 43
0.0000000001
 40
0.0
 40
0.0
 40
0.0
 40
0.0
 40
0.2
 40
0.2
 40
0.2
 40
0.2
 40
0.4
 40
0.4
 40
0.4
 40
0.4
 40
0.6
 40
0.6
 40
0.6
 40
0.6
 40
1.0
 40
1.0
 40
1.0
 40
1.0
 10
-75.6349
 20
47.4253
 30
0.0
 10
-75.6349
 20
47.8801
 30
0.0
 10
-74.5352
 20
49.6164
 30
0.0
 10
-73.1379
 20
51.3623
 30
0.0
 10
-73.1379
 20
51.3623
 30
0.0
 10
-69.1762
 20
56.3206
 30
0.0
 10
-60.7095
 20
63.7646
 30
0.0
 10
-59.9253
 20
62.9807
 30
0.0
 10
-59.9253
 20
62.9807
 30
0.0
 10
-59.4141
 20
62.4695
 30
0.0
 10
-62.7271
 20
58.1879
 30
0.0
 10
-66.7371
 20
54.1764
 30
0.0
 10
-66.7371
 20
54.1764
 30
0.0
 10
-70.9718
 20
49.9431
 30
0.0
 10
-75.6349
 20
46.4044
 30
0.0
 10
-75.6349
 20
47.4253
 30
0.0
  0
SPLINE
  5
FD
330
1F
100
AcDbEntity
  8
Layer 1
100
AcDbSpline
210
0.0
220
0.0
230
1.0
 70
    11
 71
     3
 72
    24
 73
    20
 74
     0
 42
0.0000000001
 43
0.0000000001
 40
0.0
 40
0.0
 40
0.0
 40
0.0
 40
0.1666666666666667
 40
0.1666666666666667
 40
0.1666666666666667
 40
0.1666666666666667
 40
0.3333333333333333
 40
0.3333333333333333
 40
0.3333333333333333
 40
0.3333333333333333
 40
0.5
 40
0.5
 40
0.5
 40
0.5
 40
0.6666666666666666
 40
0.6666666666666666
 40
0.6666666666666666
 40
0.6666666666666666
 40
1.0
 40
1.0
 40
1.0
 40
1.0
 10
73.2374
 20
47.7421
 30
0.0
 10
70.8106
 20
49.0294
 30
0.0
 10
64.2842
 20
55.1229
 30
0.0
 10
61.1988
 20
58.983
 30
0.0
 10
61.1988
 20
58.983
 30
0.0
 10
59.6
 20
60.984
 30
0.0
 10
58.5488
 20
62.7327
 30
0.0
 10
58.7968
 20
62.9807
 30
0.0
 10
58.7968
 20
62.9807
 30
0.0
 10
58.8712
 20
63.0551
 30
0.0
 10
59.3563
 20
62.9006
 30
0.0
 10
59.8759
 20
62.636
 30
0.0
 10
59.8759
 20
62.636
 30
0.0
 10
63.2231
 20
60.9342
 30
0.0
 10
72.354
 20
51.8156
 30
0.0
 10
74.0473
 20
48.4837
 30
0.0
 10
74.0473
 20
48.4837
 30
0.0
 10
74.7571
 20
47.0891
 30
0.0
 10
74.6509
 20
46.9925
 30
0.0
 10
73.2374
 20
47.7421
 30
0.0
  0
SPLINE
  5
FE
330
1F
100
AcDbEntity
  8
Layer 1
100
AcDbSpline
210
0.0
220
0.0
230
1.0
 70
    11
 71
     3
 72
    20
 73
    16
 74
     0
 42
0.0000000001
 43
0.0000000001
 40
0.0
 40
0.0
 40
0.0
 40
0.0
 40
0.2
 40
0.2
 40
0.2
 40
0.2
 40
0.4
 40
0.4
 40
0.4
 40
0.4
 40
0.6
 40
0.6
 40
0.6
 40
0.6
 40
1.0
 40
1.0
 40
1.0
 40
1.0
 10
-86.6429
 20
47.7079
 30
0.0
 10
-86.6429
 20
48.1626
 30
0.0
 10
-85.5416
 20
49.8976
 30
0.0
 10
-84.1456
 20
51.6449
 30
0.0
 10
-84.1456
 20
51.6449
 30
0.0
 10
-80.1825
 20
56.6032
 30
0.0
 10
-71.7158
 20
64.0472
 30
0.0
 10
-70.9316
 20
63.2633
 30
0.0
 10
-70.9316
 20
63.2633
 30
0.0
 10
-70.4204
 20
62.7518
 30
0.0
 10
-73.7334
 20
58.469
 30
0.0
 10
-77.7434
 20
54.459
 30
0.0
 10
-77.7434
 20
54.459
 30
0.0
 10
-81.9782
 20
50.2243
 30
0.0
 10
-86.6429
 20
46.6866
 30
0.0
 10
-86.6429
 20
47.7079
 30
0.0
  0
SPLINE
  5
FF
330
1F
100
AcDbEntity
  8
Layer 1
100
AcDbSpline
210
0.0
220
0.0
230
1.0
 70
    11
 71
     3
 72
    36
 73
    32
 74
     0
 42
0.0000000001
 43
0.0000000001
 40
0.0
 40
0.0
 40
0.0
 40
0.0
 40
0.1111111111111111
 40
0.1111111111111111
 40
0.1111111111111111
 40
0.1111111111111111
 40
0.2222222222222222
 40
0.2222222222222222
 40
0.2222222222222222
 40
0.2222222222222222
 40
0.3333333333333333
 40
0.3333333333333333
 40
0.3333333333333333
 40
0.3333333333333333
 40
0.4444444444444444
 40
0.4444444444444444
 40
0.4444444444444444
 40
0.4444444444444444
 40
0.5555555555555556
 40
0.5555555555555556
 40
0.5555555555555556
 40
0.5555555555555556
 40
0.6666666666666666
 40
0.6666666666666666
 40
0.6666666666666666
 40
0.6666666666666666
 40
0.7777777777777778
 40
0.7777777777777778
 40
0.7777777777777778
 40
0.7777777777777778
 40
1.0
 40
1.0
 40
1.0
 40
1.0
 10
-44.45
 20
47.9545
 30
0.0
 10
-45.5126
 20
48.43
 30
0.0
 10
-47.002
 20
49.9844
 30
0.0
 10
-47.3964
 20
51.029
 30
0.0
 10
-47.3964
 20
51.029
 30
0.0
 10
-47.8152
 20
52.1409
 30
0.0
 10
-47.7696
 20
54.4548
 30
0.0
 10
-47.3054
 20
55.535
 30
0.0
 10
-47.3054
 20
55.535
 30
0.0
 10
-46.8313
 20
56.6416
 30
0.0
 10
-45.2974
 20
58.1353
 30
0.0
 10
-44.22
 20
58.5421
 30
0.0
 10
-44.22
 20
58.5421
 30
0.0
 10
-43.1077
 20
58.9608
 30
0.0
 10
-40.7928
 20
58.9153
 30
0.0
 10
-39.7136
 20
58.4525
 30
0.0
 10
-39.7136
 20
58.4525
 30
0.0
 10
-38.6069
 20
57.9769
 30
0.0
 10
-37.1119
 20
56.4434
 30
0.0
 10
-36.7069
 20
55.3657
 30
0.0
 10
-36.7069
 20
55.3657
 30
0.0
 10
-36.2864
 20
54.2537
 30
0.0
 10
-36.3333
 20
51.9398
 30
0.0
 10
-36.7965
 20
50.8593
 30
0.0
 10
-36.7965
 20
50.8593
 30
0.0
 10
-37.2717
 20
49.753
 30
0.0
 10
-38.8042
 20
48.2589
 30
0.0
 10
-39.8819
 20
47.8525
 30
0.0
 10
-39.8819
 20
47.8525
 30
0.0
 10
-40.9734
 20
47.4405
 30
0.0
 10
-43.4262
 20
47.4955
 30
0.0
 10
-44.45
 20
47.9545
 30
0.0
  0
SPLINE
  5
100
330
1F
100
AcDbEntity
  8
Layer 1
100
AcDbSpline
210
0.0
220
0.0
230
1.0
 70
    11
 71
     3
 72
    36
 73
    32
 74
     0
 42
0.0000000001
 43
0.0000000001
 40
0.0
 40
0.0
 40
0.0
 40
0.0
 40
0.1111111111111111
 40
0.1111111111111111
 40
0.1111111111111111
 40
0.1111111111111111
 40
0.2222222222222222
 40
0.2222222222222222
 40
0.2222222222222222
 40
0.2222222222222222
 40
0.3333333333333333
 40
0.3333333333333333
 40
0.3333333333333333
 40
0.3333333333333333
 40
0.4444444444444444
 40
0.4444444444444444
 40
0.4444444444444444
 40
0.4444444444444444
 40
0.5555555555555556
 40
0.5555555555555556
 40
0.5555555555555556
 40
0.5555555555555556
 40
0.6666666666666666
 40
0.6666666666666666
 40
0.6666666666666666
 40
0.6666666666666666
 40
0.7777777777777778
 40
0.7777777777777778
 40
0.7777777777777778
 40
0.7777777777777778
 40
1.0
 40
1.0
 40
1.0
 40
1.0
 10
38.523
 20
47.9545
 30
0.0
 10
37.4608
 20
48.43
 30
0.0
 10
35.971
 20
49.9844
 30
0.0
 10
35.5769
 20
51.029
 30
0.0
 10
35.5769
 20
51.029
 30
0.0
 10
35.1578
 20
52.1409
 30
0.0
 10
35.2047
 20
54.4548
 30
0.0
 10
35.6676
 20
55.535
 30
0.0
 10
35.6676
 20
55.535
 30
0.0
 10
36.1417
 20
56.6416
 30
0.0
 10
37.6756
 20
58.1353
 30
0.0
 10
38.7533
 20
58.5421
 30
0.0
 10
38.7533
 20
58.5421
 30
0.0
 10
39.8653
 20
58.9608
 30
0.0
 10
42.1802
 20
58.9153
 30
0.0
 10
43.2594
 20
58.4525
 30
0.0
 10
43.2594
 20
58.4525
 30
0.0
 10
44.366
 20
57.9769
 30
0.0
 10
45.8611
 20
56.4434
 30
0.0
 10
46.2675
 20
55.3657
 30
0.0
 10
46.2675
 20
55.3657
 30
0.0
 10
46.6866
 20
54.2537
 30
0.0
 10
46.6397
 20
51.9398
 30
0.0
 10
46.1768
 20
50.8593
 30
0.0
 10
46.1768
 20
50.8593
 30
0.0
 10
45.7027
 20
49.753
 30
0.0
 10
44.1688
 20
48.2589
 30
0.0
 10
43.0911
 20
47.8525
 30
0.0
 10
43.0911
 20
47.8525
 30
0.0
 10
42.0
 20
47.4405
 30
0.0
 10
39.5481
 20
47.4955
 30
0.0
 10
38.523
 20
47.9545
 30
0.0
  0
SPLINE
  5
101
330
1F
100
AcDbEntity
  8
Layer 1
100
AcDbSpline
210
0.0
220
0.0
230
1.0
 70
    11
 71
     3
 72
    24
 73
    20
 74
     0
 42
0.0000000001
 43
0.0000000001
 40
0.0
 40
0.0
 40
0.0
 40
0.0
 40
0.1666666666666667
 40
0.1666666666666667
 40
0.1666666666666667
 40
0.1666666666666667
 40
0.3333333333333333
 40
0.3333333333333333
 40
0.3333333333333333
 40
0.3333333333333333
 40
0.5
 40
0.5
 40
0.5
 40
0.5
 40
0.6666666666666666
 40
0.6666666666666666
 40
0.6666666666666666
 40
0.6666666666666666
 40
1.0
 40
1.0
 40
1.0
 40
1.0
 10
84.2437
 20
48.0247
 30
0.0
 10
81.8169
 20
49.3106
 30
0.0
 10
75.2905
 20
55.4055
 30
0.0
 10
72.2066
 20
59.2656
 30
0.0
 10
72.2066
 20
59.2656
 30
0.0
 10
70.6067
 20
61.2662
 30
0.0
 10
69.5551
 20
63.0149
 30
0.0
 10
69.8031
 20
63.2633
 30
0.0
 10
69.8031
 20
63.2633
 30
0.0
 10
69.8775
 20
63.3377
 30
0.0
 10
70.3626
 20
63.1832
 30
0.0
 10
70.8822
 20
62.9186
 30
0.0
 10
70.8822
 20
62.9186
 30
0.0
 10
74.2308
 20
61.2168
 30
0.0
 10
83.3617
 20
52.0982
 30
0.0
 10
85.054
 20
48.7662
 30
0.0
 10
85.054
 20
48.7662
 30
0.0
 10
85.7634
 20
47.3717
 30
0.0
 10
85.6576
 20
47.2736
 30
0.0
 10
84.2437
 20
48.0247
 30
0.0
  0
SPLINE
  5
102
330
1F
100
AcDbEntity
  8
Layer 1
100
AcDbSpline
210
0.0
220
0.0
230
1.0
 70
    11
 71
     3
 72
    28
 73
    24
 74
     0
 42
0.0000000001
 43
0.0000000001
 40
0.0
 40
0.0
 40
0.0
 40
0.0
 40
0.1428571428571428
 40
0.1428571428571428
 40
0.1428571428571428
 40
0.1428571428571428
 40
0.2857142857142857
 40
0.2857142857142857
 40
0.2857142857142857
 40
0.2857142857142857
 40
0.4285714285714285
 40
0.4285714285714285
 40
0.4285714285714285
 40
0.4285714285714285
 40
0.5714285714285714
 40
0.5714285714285714
 40
0.5714285714285714
 40
0.5714285714285714
 40
0.7142857142857143
 40
0.7142857142857143
 40
0.7142857142857143
 40
0.7142857142857143
 40
1.0
 40
1.0
 40
1.0
 40
1.0
 10
-26.9515
 20
49.0019
 30
0.0
 10
-26.4859
 20
49.5653
 30
0.0
 10
-25.6604
 20
50.3908
 30
0.0
 10
-25.1174
 20
50.836
 30
0.0
 10
-25.1174
 20
50.836
 30
0.0
 10
-25.1174
 20
50.836
 30
0.0
 10
-24.1293
 20
51.6449
 30
0.0
 10
-24.1293
 20
51.6449
 30
0.0
 10
-24.1293
 20
51.6449
 30
0.0
 10
-24.1293
 20
51.6449
 30
0.0
 10
-24.9396
 20
50.6568
 30
0.0
 10
-24.9396
 20
50.6568
 30
0.0
 10
-24.9396
 20
50.6568
 30
0.0
 10
-25.3848
 20
50.1138
 30
0.0
 10
-26.2103
 20
49.2883
 30
0.0
 10
-26.7741
 20
48.8227
 30
0.0
 10
-26.7741
 20
48.8227
 30
0.0
 10
-26.7741
 20
48.8227
 30
0.0
 10
-27.7992
 20
47.9767
 30
0.0
 10
-27.7992
 20
47.9767
 30
0.0
 10
-27.7992
 20
47.9767
 30
0.0
 10
-27.7992
 20
47.9767
 30
0.0
 10
-26.9515
 20
49.0019
 30
0.0
 10
-26.9515
 20
49.0019
 30
0.0
  0
SPLINE
  5
103
330
1F
100
AcDbEntity
  8
Layer 1
100
AcDbSpline
210
0.0
220
0.0
230
1.0
 70
    11
 71
     3
 72
    24
 73
    20
 74
     0
 42
0.0000000001
 43
0.0000000001
 40
0.0
 40
0.0
 40
0.0
 40
0.0
 40
0.1666666666666667
 40
0.1666666666666667
 40
0.1666666666666667
 40
0.1666666666666667
 40
0.3333333333333333
 40
0.3333333333333333
 40
0.3333333333333333
 40
0.3333333333333333
 40
0.5
 40
0.5
 40
0.5
 40
0.5
 40
0.6666666666666666
 40
0.6666666666666666
 40
0.6666666666666666
 40
0.6666666666666666
 40
1.0
 40
1.0
 40
1.0
 40
1.0
 10
25.3944
 20
49.0446
 30
0.0
 10
24.8475
 20
49.5434
 30
0.0
 10
24.0852
 20
50.3248
 30
0.0
 10
23.701
 20
50.7824
 30
0.0
 10
23.701
 20
50.7824
 30
0.0
 10
23.701
 20
50.7824
 30
0.0
 10
23.0008
 20
51.6117
 30
0.0
 10
23.0008
 20
51.6117
 30
0.0
 10
23.0008
 20
51.6117
 30
0.0
 10
23.0008
 20
51.6117
 30
0.0
 10
24.0259
 20
50.7824
 30
0.0
 10
24.0259
 20
50.7824
 30
0.0
 10
24.0259
 20
50.7824
 30
0.0
 10
24.9329
 20
50.0479
 30
0.0
 10
26.7367
 20
48.0991
 30
0.0
 10
26.483
 20
48.1281
 30
0.0
 10
26.483
 20
48.1281
 30
0.0
 10
26.4308
 20
48.1337
 30
0.0
 10
25.9401
 20
48.5458
 30
0.0
 10
25.3944
 20
49.0446
 30
0.0
  0
SPLINE
  5
104
330
1F
100
AcDbEntity
  8
Layer 1
100
AcDbSpline
210
0.0
220
0.0
230
1.0
 70
    11
 71
     3
 72
    16
 73
    12
 74
     0
 42
0.0000000001
 43
0.0000000001
 40
0.0
 40
0.0
 40
0.0
 40
0.0
 40
0.25
 40
0.25
 40
0.25
 40
0.25
 40
0.5
 40
0.5
 40
0.5
 40
0.5
 40
1.0
 40
1.0
 40
1.0
 40
1.0
 10
-94.9233
 20
49.1973
 30
0.0
 10
-95.9362
 20
50.3163
 30
0.0
 10
-95.1576
 20
52.0679
 30
0.0
 10
-93.6487
 20
52.0679
 30
0.0
 10
-93.6487
 20
52.0679
 30
0.0
 10
-92.2031
 20
52.0679
 30
0.0
 10
-91.4495
 20
50.1181
 30
0.0
 10
-92.5202
 20
49.1494
 30
0.0
 10
-92.5202
 20
49.1494
 30
0.0
 10
-93.2021
 20
48.532
 30
0.0
 10
-94.342
 20
48.5553
 30
0.0
 10
-94.9233
 20
49.1973
 30
0.0
  0
SPLINE
  5
105
330
1F
100
AcDbEntity
  8
Layer 1
100
AcDbSpline
210
0.0
220
0.0
230
1.0
 70
    11
 71
     3
 72
    16
 73
    12
 74
     0
 42
0.0000000001
 43
0.0000000001
 40
0.0
 40
0.0
 40
0.0
 40
0.0
 40
0.25
 40
0.25
 40
0.25
 40
0.25
 40
0.5
 40
0.5
 40
0.5
 40
0.5
 40
1.0
 40
1.0
 40
1.0
 40
1.0
 10
91.3433
 20
49.1973
 30
0.0
 10
90.726
 20
49.8796
 30
0.0
 10
90.7493
 20
51.0194
 30
0.0
 10
91.3917
 20
51.6008
 30
0.0
 10
91.3917
 20
51.6008
 30
0.0
 10
92.5103
 20
52.6136
 30
0.0
 10
94.2619
 20
51.8351
 30
0.0
 10
94.2619
 20
50.3262
 30
0.0
 10
94.2619
 20
50.3262
 30
0.0
 10
94.2619
 20
48.8805
 30
0.0
 10
92.3121
 20
48.1267
 30
0.0
 10
91.3433
 20
49.1973
 30
0.0
  0
SPLINE
  5
106
330
1F
100
AcDbEntity
  8
Layer 1
100
AcDbSpline
210
0.0
220
0.0
230
1.0
 70
    11
 71
     3
 72
    16
 73
    12
 74
     0
 42
0.0000000001
 43
0.0000000001
 40
0.0
 40
0.0
 40
0.0
 40
0.0
 40
0.25
 40
0.25
 40
0.25
 40
0.25
 40
0.5
 40
0.5
 40
0.5
 40
0.5
 40
1.0
 40
1.0
 40
1.0
 40
1.0
 10
-20.6996
 20
52.3021
 30
0.0
 10
-21.317
 20
52.9844
 30
0.0
 10
-21.2933
 20
54.1239
 30
0.0
 10
-20.6499
 20
54.7056
 30
0.0
 10
-20.6499
 20
54.7056
 30
0.0
 10
-19.5323
 20
55.7184
 30
0.0
 10
-17.7793
 20
54.9398
 30
0.0
 10
-17.7793
 20
53.4307
 30
0.0
 10
-17.7793
 20
53.4307
 30
0.0
 10
-17.7793
 20
51.9853
 30
0.0
 10
-19.7309
 20
51.2314
 30
0.0
 10
-20.6996
 20
52.3021
 30
0.0
  0
SPLINE
  5
107
330
1F
100
AcDbEntity
  8
Layer 1
100
AcDbSpline
210
0.0
220
0.0
230
1.0
 70
    11
 71
     3
 72
    16
 73
    12
 74
     0
 42
0.0000000001
 43
0.0000000001
 40
0.0
 40
0.0
 40
0.0
 40
0.0
 40
0.25
 40
0.25
 40
0.25
 40
0.25
 40
0.5
 40
0.5
 40
0.5
 40
0.5
 40
1.0
 40
1.0
 40
1.0
 40
1.0
 10
-14.2088
 20
52.3021
 30
0.0
 10
-14.8248
 20
52.9844
 30
0.0
 10
-14.8015
 20
54.1239
 30
0.0
 10
-14.1594
 20
54.7056
 30
0.0
 10
-14.1594
 20
54.7056
 30
0.0
 10
-13.0404
 20
55.7184
 30
0.0
 10
-11.2889
 20
54.9398
 30
0.0
 10
-11.2889
 20
53.4307
 30
0.0
 10
-11.2889
 20
53.4307
 30
0.0
 10
-11.2889
 20
51.9853
 30
0.0
 10
-13.2387
 20
51.2314
 30
0.0
 10
-14.2088
 20
52.3021
 30
0.0
  0
SPLINE
  5
108
330
1F
100
AcDbEntity
  8
Layer 1
100
AcDbSpline
210
0.0
220
0.0
230
1.0
 70
    11
 71
     3
 72
    16
 73
    12
 74
     0
 42
0.0000000001
 43
0.0000000001
 40
0.0
 40
0.0
 40
0.0
 40
0.0
 40
0.25
 40
0.25
 40
0.25
 40
0.25
 40
0.5
 40
0.5
 40
0.5
 40
0.5
 40
1.0
 40
1.0
 40
1.0
 40
1.0
 10
10.6274
 20
52.3021
 30
0.0
 10
10.0101
 20
52.9844
 30
0.0
 10
10.0333
 20
54.1239
 30
0.0
 10
10.6758
 20
54.7056
 30
0.0
 10
10.6758
 20
54.7056
 30
0.0
 10
11.7948
 20
55.7184
 30
0.0
 10
13.546
 20
54.9398
 30
0.0
 10
13.546
 20
53.4307
 30
0.0
 10
13.546
 20
53.4307
 30
0.0
 10
13.546
 20
51.9853
 30
0.0
 10
11.5962
 20
51.2314
 30
0.0
 10
10.6274
 20
52.3021
 30
0.0
  0
SPLINE
  5
109
330
1F
100
AcDbEntity
  8
Layer 1
100
AcDbSpline
210
0.0
220
0.0
230
1.0
 70
    11
 71
     3
 72
    16
 73
    12
 74
     0
 42
0.0000000001
 43
0.0000000001
 40
0.0
 40
0.0
 40
0.0
 40
0.0
 40
0.25
 40
0.25
 40
0.25
 40
0.25
 40
0.5
 40
0.5
 40
0.5
 40
0.5
 40
1.0
 40
1.0
 40
1.0
 40
1.0
 10
17.1178
 20
52.3021
 30
0.0
 10
16.5019
 20
52.9844
 30
0.0
 10
16.5241
 20
54.1239
 30
0.0
 10
17.1676
 20
54.7056
 30
0.0
 10
17.1676
 20
54.7056
 30
0.0
 10
18.2866
 20
55.7184
 30
0.0
 10
20.0381
 20
54.9398
 30
0.0
 10
20.0381
 20
53.4307
 30
0.0
 10
20.0381
 20
53.4307
 30
0.0
 10
20.0381
 20
51.9853
 30
0.0
 10
18.0869
 20
51.2314
 30
0.0
 10
17.1178
 20
52.3021
 30
0.0
  0
SPLINE
  5
10A
330
1F
100
AcDbEntity
  8
Layer 1
100
AcDbSpline
210
0.0
220
0.0
230
1.0
 70
    11
 71
     3
 72
    44
 73
    40
 74
     0
 42
0.0000000001
 43
0.0000000001
 40
0.0
 40
0.0
 40
0.0
 40
0.0
 40
0.0909090909090909
 40
0.0909090909090909
 40
0.0909090909090909
 40
0.0909090909090909
 40
0.1818181818181818
 40
0.1818181818181818
 40
0.1818181818181818
 40
0.1818181818181818
 40
0.2727272727272727
 40
0.2727272727272727
 40
0.2727272727272727
 40
0.2727272727272727
 40
0.3636363636363636
 40
0.3636363636363636
 40
0.3636363636363636
 40
0.3636363636363636
 40
0.4545454545454545
 40
0.4545454545454545
 40
0.4545454545454545
 40
0.4545454545454545
 40
0.5454545454545454
 40
0.5454545454545454
 40
0.5454545454545454
 40
0.5454545454545454
 40
0.6363636363636364
 40
0.6363636363636364
 40
0.6363636363636364
 40
0.6363636363636364
 40
0.7272727272727273
 40
0.7272727272727273
 40
0.7272727272727273
 40
0.7272727272727273
 40
0.8181818181818182
 40
0.8181818181818182
 40
0.8181818181818182
 40
0.8181818181818182
 40
1.0
 40
1.0
 40
1.0
 40
1.0
 10
-3.0152
 20
52.3628
 30
0.0
 10
-6.3278
 20
53.019
 30
0.0
 10
-10.1424
 20
56.0532
 30
0.0
 10
-11.6886
 20
59.2656
 30
0.0
 10
-11.6886
 20
59.2656
 30
0.0
 10
-12.1405
 20
60.2012
 30
0.0
 10
-12.6365
 20
61.8726
 30
0.0
 10
-12.7991
 20
63.004
 30
0.0
 10
-12.7991
 20
63.004
 30
0.0
 10
-13.1837
 20
65.6721
 30
0.0
 10
-12.7702
 20
68.5906
 30
0.0
 10
-11.6886
 20
70.8353
 30
0.0
 10
-11.6886
 20
70.8353
 30
0.0
 10
-10.6356
 20
73.0239
 30
0.0
 10
-7.9887
 20
75.6793
 30
0.0
 10
-5.8208
 20
76.7225
 30
0.0
 10
-5.8208
 20
76.7225
 30
0.0
 10
-4.115
 20
77.5435
 30
0.0
 10
-2.35
 20
77.9507
 30
0.0
 10
-0.6101
 20
77.9599
 30
0.0
 10
-0.6101
 20
77.9599
 30
0.0
 10
-0.6101
 20
77.9599
 30
0.0
 10
-0.5238
 20
77.9599
 30
0.0
 10
-0.5238
 20
77.9599
 30
0.0
 10
-0.5238
 20
77.9599
 30
0.0
 10
2.5777
 20
77.9529
 30
0.0
 10
5.5947
 20
76.6801
 30
0.0
 10
8.0479
 20
74.2269
 30
0.0
 10
8.0479
 20
74.2269
 30
0.0
 10
10.1078
 20
72.1667
 30
0.0
 10
11.2695
 20
69.8789
 30
0.0
 10
11.6706
 20
67.0969
 30
0.0
 10
11.6706
 20
67.0969
 30
0.0
 10
12.2975
 20
62.7518
 30
0.0
 10
11.0437
 20
58.8712
 30
0.0
 10
8.0479
 20
55.874
 30
0.0
 10
8.0479
 20
55.874
 30
0.0
 10
4.9569
 20
52.7844
 30
0.0
 10
1.0806
 20
51.5539
 30
0.0
 10
-3.0152
 20
52.3628
 30
0.0
  0
SPLINE
  5
10B
330
1F
100
AcDbEntity
  8
Layer 1
100
AcDbSpline
210
0.0
220
0.0
230
1.0
 70
    11
 71
     3
 72
    20
 73
    16
 74
     0
 42
0.0000000001
 43
0.0000000001
 40
0.0
 40
0.0
 40
0.0
 40
0.0
 40
0.2
 40
0.2
 40
0.2
 40
0.2
 40
0.4
 40
0.4
 40
0.4
 40
0.4
 40
0.6
 40
0.6
 40
0.6
 40
0.6
 40
1.0
 40
1.0
 40
1.0
 40
1.0
 10
-145.3445
 20
53.4624
 30
0.0
 10
-145.3445
 20
53.6085
 30
0.0
 10
-144.5754
 20
54.6834
 30
0.0
 10
-143.6356
 20
55.8521
 30
0.0
 10
-143.6356
 20
55.8521
 30
0.0
 10
-141.0229
 20
59.1002
 30
0.0
 10
-135.7711
 20
63.7565
 30
0.0
 10
-135.2779
 20
63.2633
 30
0.0
 10
-135.2779
 20
63.2633
 30
0.0
 10
-134.7844
 20
62.7698
 30
0.0
 10
-139.4425
 20
57.5179
 30
0.0
 10
-142.6891
 20
54.9053
 30
0.0
 10
-142.6891
 20
54.9053
 30
0.0
 10
-144.7617
 20
53.2395
 30
0.0
 10
-145.3445
 20
52.9223
 30
0.0
 10
-145.3445
 20
53.4624
 30
0.0
  0
SPLINE
  5
10C
330
1F
100
AcDbEntity
  8
Layer 1
100
AcDbSpline
210
0.0
220
0.0
230
1.0
 70
    11
 71
     3
 72
    20
 73
    16
 74
     0
 42
0.0000000001
 43
0.0000000001
 40
0.0
 40
0.0
 40
0.0
 40
0.0
 40
0.2
 40
0.2
 40
0.2
 40
0.2
 40
0.4
 40
0.4
 40
0.4
 40
0.4
 40
0.6
 40
0.6
 40
0.6
 40
0.6
 40
1.0
 40
1.0
 40
1.0
 40
1.0
 10
140.9471
 20
55.4221
 30
0.0
 10
137.7199
 20
58.1699
 30
0.0
 10
133.6947
 20
62.8086
 30
0.0
 10
134.1452
 20
63.2591
 30
0.0
 10
134.1452
 20
63.2591
 30
0.0
 10
134.4909
 20
63.6048
 30
0.0
 10
136.7483
 20
61.7954
 30
0.0
 10
139.9025
 20
58.644
 30
0.0
 10
139.9025
 20
58.644
 30
0.0
 10
142.7854
 20
55.7653
 30
0.0
 10
143.6028
 20
54.6022
 30
0.0
 10
143.3255
 20
53.7739
 30
0.0
 10
143.3255
 20
53.7739
 30
0.0
 10
143.2719
 20
53.6113
 30
0.0
 10
142.2012
 20
54.3542
 30
0.0
 10
140.9471
 20
55.4221
 30
0.0
  0
SPLINE
  5
10D
330
1F
100
AcDbEntity
  8
Layer 1
100
AcDbSpline
210
0.0
220
0.0
230
1.0
 70
    11
 71
     3
 72
    28
 73
    24
 74
     0
 42
0.0000000001
 43
0.0000000001
 40
0.0
 40
0.0
 40
0.0
 40
0.0
 40
0.1428571428571428
 40
0.1428571428571428
 40
0.1428571428571428
 40
0.1428571428571428
 40
0.2857142857142857
 40
0.2857142857142857
 40
0.2857142857142857
 40
0.2857142857142857
 40
0.4285714285714285
 40
0.4285714285714285
 40
0.4285714285714285
 40
0.4285714285714285
 40
0.5714285714285714
 40
0.5714285714285714
 40
0.5714285714285714
 40
0.5714285714285714
 40
0.7142857142857143
 40
0.7142857142857143
 40
0.7142857142857143
 40
0.7142857142857143
 40
1.0
 40
1.0
 40
1.0
 40
1.0
 10
-126.3675
 20
54.3253
 30
0.0
 10
-127.6534
 20
55.1092
 30
0.0
 10
-128.4083
 20
56.4667
 30
0.0
 10
-128.4083
 20
57.9949
 30
0.0
 10
-128.4083
 20
57.9949
 30
0.0
 10
-128.4083
 20
59.5231
 30
0.0
 10
-127.6534
 20
60.8806
 30
0.0
 10
-126.3675
 20
61.6659
 30
0.0
 10
-126.3675
 20
61.6659
 30
0.0
 10
-124.4424
 20
62.84
 30
0.0
 10
-121.7041
 20
62.1482
 30
0.0
 10
-120.5068
 20
60.1846
 30
0.0
 10
-120.5068
 20
60.1846
 30
0.0
 10
-119.3327
 20
58.2595
 30
0.0
 10
-120.0245
 20
55.5212
 30
0.0
 10
-121.9881
 20
54.3253
 30
0.0
 10
-121.9881
 20
54.3253
 30
0.0
 10
-122.5462
 20
53.9849
 30
0.0
 10
-123.4073
 20
53.7644
 30
0.0
 10
-124.1778
 20
53.7644
 30
0.0
 10
-124.1778
 20
53.7644
 30
0.0
 10
-124.9483
 20
53.7644
 30
0.0
 10
-125.8094
 20
53.9849
 30
0.0
 10
-126.3675
 20
54.3253
 30
0.0
  0
SPLINE
  5
10E
330
1F
100
AcDbEntity
  8
Layer 1
100
AcDbSpline
210
0.0
220
0.0
230
1.0
 70
    11
 71
     3
 72
    28
 73
    24
 74
     0
 42
0.0000000001
 43
0.0000000001
 40
0.0
 40
0.0
 40
0.0
 40
0.0
 40
0.1428571428571428
 40
0.1428571428571428
 40
0.1428571428571428
 40
0.1428571428571428
 40
0.2857142857142857
 40
0.2857142857142857
 40
0.2857142857142857
 40
0.2857142857142857
 40
0.4285714285714285
 40
0.4285714285714285
 40
0.4285714285714285
 40
0.4285714285714285
 40
0.5714285714285714
 40
0.5714285714285714
 40
0.5714285714285714
 40
0.5714285714285714
 40
0.7142857142857143
 40
0.7142857142857143
 40
0.7142857142857143
 40
0.7142857142857143
 40
1.0
 40
1.0
 40
1.0
 40
1.0
 10
-28.0818
 20
54.6463
 30
0.0
 10
-27.6158
 20
55.2097
 30
0.0
 10
-26.7903
 20
56.0352
 30
0.0
 10
-26.246
 20
56.4804
 30
0.0
 10
-26.246
 20
56.4804
 30
0.0
 10
-26.246
 20
56.4804
 30
0.0
 10
-25.2596
 20
57.2893
 30
0.0
 10
-25.2596
 20
57.2893
 30
0.0
 10
-25.2596
 20
57.2893
 30
0.0
 10
-25.2596
 20
57.2893
 30
0.0
 10
-26.0685
 20
56.3012
 30
0.0
 10
-26.0685
 20
56.3012
 30
0.0
 10
-26.0685
 20
56.3012
 30
0.0
 10
-26.5134
 20
55.7583
 30
0.0
 10
-27.3389
 20
54.9328
 30
0.0
 10
-27.9026
 20
54.4671
 30
0.0
 10
-27.9026
 20
54.4671
 30
0.0
 10
-27.9026
 20
54.4671
 30
0.0
 10
-28.9278
 20
53.6212
 30
0.0
 10
-28.9278
 20
53.6212
 30
0.0
 10
-28.9278
 20
53.6212
 30
0.0
 10
-28.9278
 20
53.6212
 30
0.0
 10
-28.0818
 20
54.6463
 30
0.0
 10
-28.0818
 20
54.6463
 30
0.0
  0
SPLINE
  5
10F
330
1F
100
AcDbEntity
  8
Layer 1
100
AcDbSpline
210
0.0
220
0.0
230
1.0
 70
    11
 71
     3
 72
    24
 73
    20
 74
     0
 42
0.0000000001
 43
0.0000000001
 40
0.0
 40
0.0
 40
0.0
 40
0.0
 40
0.1666666666666667
 40
0.1666666666666667
 40
0.1666666666666667
 40
0.1666666666666667
 40
0.3333333333333333
 40
0.3333333333333333
 40
0.3333333333333333
 40
0.3333333333333333
 40
0.5
 40
0.5
 40
0.5
 40
0.5
 40
0.6666666666666666
 40
0.6666666666666666
 40
0.6666666666666666
 40
0.6666666666666666
 40
1.0
 40
1.0
 40
1.0
 40
1.0
 10
26.5232
 20
54.689
 30
0.0
 10
25.9775
 20
55.1879
 30
0.0
 10
25.2155
 20
55.9693
 30
0.0
 10
24.8296
 20
56.4268
 30
0.0
 10
24.8296
 20
56.4268
 30
0.0
 10
24.8296
 20
56.4268
 30
0.0
 10
24.1293
 20
57.2562
 30
0.0
 10
24.1293
 20
57.2562
 30
0.0
 10
24.1293
 20
57.2562
 30
0.0
 10
24.1293
 20
57.2562
 30
0.0
 10
25.1548
 20
56.4268
 30
0.0
 10
25.1548
 20
56.4268
 30
0.0
 10
25.1548
 20
56.4268
 30
0.0
 10
26.0615
 20
55.6923
 30
0.0
 10
27.8652
 20
53.7436
 30
0.0
 10
27.6119
 20
53.7725
 30
0.0
 10
27.6119
 20
53.7725
 30
0.0
 10
27.5593
 20
53.7782
 30
0.0
 10
27.07
 20
54.1902
 30
0.0
 10
26.5232
 20
54.689
 30
0.0
  0
SPLINE
  5
110
330
1F
100
AcDbEntity
  8
Layer 1
100
AcDbSpline
210
0.0
220
0.0
230
1.0
 70
    11
 71
     3
 72
    20
 73
    16
 74
     0
 42
0.0000000001
 43
0.0000000001
 40
0.0
 40
0.0
 40
0.0
 40
0.0
 40
0.2
 40
0.2
 40
0.2
 40
0.2
 40
0.4
 40
0.4
 40
0.4
 40
0.4
 40
0.6
 40
0.6
 40
0.6
 40
0.6
 40
1.0
 40
1.0
 40
1.0
 40
1.0
 10
120.8595
 20
54.3253
 30
0.0
 10
117.1885
 20
56.563
 30
0.0
 10
118.758
 20
62.2254
 30
0.0
 10
123.0492
 20
62.2254
 30
0.0
 10
123.0492
 20
62.2254
 30
0.0
 10
125.4566
 20
62.2254
 30
0.0
 10
127.2797
 20
60.4023
 30
0.0
 10
127.2797
 20
57.9949
 30
0.0
 10
127.2797
 20
57.9949
 30
0.0
 10
127.2797
 20
55.5875
 30
0.0
 10
125.4566
 20
53.7644
 30
0.0
 10
123.0492
 20
53.7644
 30
0.0
 10
123.0492
 20
53.7644
 30
0.0
 10
122.2788
 20
53.7644
 30
0.0
 10
121.4176
 20
53.9849
 30
0.0
 10
120.8595
 20
54.3253
 30
0.0
  0
SPLINE
  5
111
330
1F
100
AcDbEntity
  8
Layer 1
100
AcDbSpline
210
0.0
220
0.0
230
1.0
 70
    11
 71
     3
 72
    20
 73
    16
 74
     0
 42
0.0000000001
 43
0.0000000001
 40
0.0
 40
0.0
 40
0.0
 40
0.0
 40
0.2
 40
0.2
 40
0.2
 40
0.2
 40
0.4
 40
0.4
 40
0.4
 40
0.4
 40
0.6
 40
0.6
 40
0.6
 40
0.6
 40
1.0
 40
1.0
 40
1.0
 40
1.0
 10
-90.3111
 20
54.8735
 30
0.0
 10
-90.3111
 20
55.7653
 30
0.0
 10
-87.763
 20
58.874
 30
0.0
 10
-85.8478
 20
60.3211
 30
0.0
 10
-85.8478
 20
60.3211
 30
0.0
 10
-83.9417
 20
61.7612
 30
0.0
 10
-82.973
 20
62.0286
 30
0.0
 10
-82.973
 20
61.1163
 30
0.0
 10
-82.973
 20
61.1163
 30
0.0
 10
-82.973
 20
60.2245
 30
0.0
 10
-85.5211
 20
57.1158
 30
0.0
 10
-87.4367
 20
55.6687
 30
0.0
 10
-87.4367
 20
55.6687
 30
0.0
 10
-89.3424
 20
54.2286
 30
0.0
 10
-90.3111
 20
53.9612
 30
0.0
 10
-90.3111
 20
54.8735
 30
0.0
  0
SPLINE
  5
112
330
1F
100
AcDbEntity
  8
Layer 1
100
AcDbSpline
210
0.0
220
0.0
230
1.0
 70
    11
 71
     3
 72
    20
 73
    16
 74
     0
 42
0.0000000001
 43
0.0000000001
 40
0.0
 40
0.0
 40
0.0
 40
0.0
 40
0.2
 40
0.2
 40
0.2
 40
0.2
 40
0.4
 40
0.4
 40
0.4
 40
0.4
 40
0.6
 40
0.6
 40
0.6
 40
0.6
 40
1.0
 40
1.0
 40
1.0
 40
1.0
 10
86.3078
 20
55.6687
 30
0.0
 10
85.3295
 20
56.4074
 30
0.0
 10
83.9251
 20
57.8115
 30
0.0
 10
83.1868
 20
58.7901
 30
0.0
 10
83.1868
 20
58.7901
 30
0.0
 10
80.8757
 20
61.8494
 30
0.0
 10
81.6585
 20
62.6322
 30
0.0
 10
84.7189
 20
60.3211
 30
0.0
 10
84.7189
 20
60.3211
 30
0.0
 10
85.6961
 20
59.5824
 30
0.0
 10
87.1001
 20
58.1783
 30
0.0
 10
87.8388
 20
57.1997
 30
0.0
 10
87.8388
 20
57.1997
 30
0.0
 10
90.1499
 20
54.1405
 30
0.0
 10
89.3671
 20
53.3576
 30
0.0
 10
86.3078
 20
55.6687
 30
0.0
  0
SPLINE
  5
113
330
1F
100
AcDbEntity
  8
Layer 1
100
AcDbSpline
210
0.0
220
0.0
230
1.0
 70
    11
 71
     3
 72
    16
 73
    12
 74
     0
 42
0.0000000001
 43
0.0000000001
 40
0.0
 40
0.0
 40
0.0
 40
0.0
 40
0.25
 40
0.25
 40
0.25
 40
0.25
 40
0.5
 40
0.5
 40
0.5
 40
0.5
 40
1.0
 40
1.0
 40
1.0
 40
1.0
 10
-59.3644
 20
55.9707
 30
0.0
 10
-60.3762
 20
57.0897
 30
0.0
 10
-59.5986
 20
58.8409
 30
0.0
 10
-58.0884
 20
58.8409
 30
0.0
 10
-58.0884
 20
58.8409
 30
0.0
 10
-56.6427
 20
58.8409
 30
0.0
 10
-55.8892
 20
56.8911
 30
0.0
 10
-56.9613
 20
55.9223
 30
0.0
 10
-56.9613
 20
55.9223
 30
0.0
 10
-57.6421
 20
55.305
 30
0.0
 10
-58.783
 20
55.3283
 30
0.0
 10
-59.3644
 20
55.9707
 30
0.0
  0
SPLINE
  5
114
330
1F
100
AcDbEntity
  8
Layer 1
100
AcDbSpline
210
0.0
220
0.0
230
1.0
 70
    11
 71
     3
 72
    16
 73
    12
 74
     0
 42
0.0000000001
 43
0.0000000001
 40
0.0
 40
0.0
 40
0.0
 40
0.0
 40
0.25
 40
0.25
 40
0.25
 40
0.25
 40
0.5
 40
0.5
 40
0.5
 40
0.5
 40
1.0
 40
1.0
 40
1.0
 40
1.0
 10
55.783
 20
55.9707
 30
0.0
 10
55.1656
 20
56.6526
 30
0.0
 10
55.1889
 20
57.7924
 30
0.0
 10
55.8313
 20
58.3738
 30
0.0
 10
55.8313
 20
58.3738
 30
0.0
 10
56.9503
 20
59.3866
 30
0.0
 10
58.7015
 20
58.6094
 30
0.0
 10
58.7015
 20
57.0992
 30
0.0
 10
58.7015
 20
57.0992
 30
0.0
 10
58.7015
 20
55.6535
 30
0.0
 10
56.7517
 20
54.9
 30
0.0
 10
55.783
 20
55.9707
 30
0.0
  0
SPLINE
  5
115
330
1F
100
AcDbEntity
  8
Layer 1
100
AcDbSpline
210
0.0
220
0.0
230
1.0
 70
    11
 71
     3
 72
    16
 73
    12
 74
     0
 42
0.0000000001
 43
0.0000000001
 40
0.0
 40
0.0
 40
0.0
 40
0.0
 40
0.25
 40
0.25
 40
0.25
 40
0.25
 40
0.5
 40
0.5
 40
0.5
 40
0.5
 40
1.0
 40
1.0
 40
1.0
 40
1.0
 10
-18.1599
 20
58.2291
 30
0.0
 10
-18.7759
 20
58.91
 30
0.0
 10
-18.7537
 20
60.0509
 30
0.0
 10
-18.1102
 20
60.6326
 30
0.0
 10
-18.1102
 20
60.6326
 30
0.0
 10
-16.9912
 20
61.6454
 30
0.0
 10
-15.2397
 20
60.8669
 30
0.0
 10
-15.2397
 20
59.3563
 30
0.0
 10
-15.2397
 20
59.3563
 30
0.0
 10
-15.2397
 20
57.9124
 30
0.0
 10
-17.1909
 20
57.1585
 30
0.0
 10
-18.1599
 20
58.2291
 30
0.0
  0
SPLINE
  5
116
330
1F
100
AcDbEntity
  8
Layer 1
100
AcDbSpline
210
0.0
220
0.0
230
1.0
 70
    11
 71
     3
 72
    16
 73
    12
 74
     0
 42
0.0000000001
 43
0.0000000001
 40
0.0
 40
0.0
 40
0.0
 40
0.0
 40
0.25
 40
0.25
 40
0.25
 40
0.25
 40
0.5
 40
0.5
 40
0.5
 40
0.5
 40
1.0
 40
1.0
 40
1.0
 40
1.0
 10
14.5782
 20
58.2291
 30
0.0
 10
13.9608
 20
58.91
 30
0.0
 10
13.9845
 20
60.0509
 30
0.0
 10
14.6279
 20
60.6326
 30
0.0
 10
14.6279
 20
60.6326
 30
0.0
 10
15.7455
 20
61.6454
 30
0.0
 10
17.4985
 20
60.8669
 30
0.0
 10
17.4985
 20
59.3563
 30
0.0
 10
17.4985
 20
59.3563
 30
0.0
 10
17.4985
 20
57.9124
 30
0.0
 10
15.5469
 20
57.1585
 30
0.0
 10
14.5782
 20
58.2291
 30
0.0
  0
SPLINE
  5
117
330
1F
100
AcDbEntity
  8
Layer 1
100
AcDbSpline
210
0.0
220
0.0
230
1.0
 70
    11
 71
     3
 72
    16
 73
    12
 74
     0
 42
0.0000000001
 43
0.0000000001
 40
0.0
 40
0.0
 40
0.0
 40
0.0
 40
0.25
 40
0.25
 40
0.25
 40
0.25
 40
0.5
 40
0.5
 40
0.5
 40
0.5
 40
1.0
 40
1.0
 40
1.0
 40
1.0
 10
-52.5819
 20
59.0684
 30
0.0
 10
-54.1609
 20
60.718
 30
0.0
 10
-53.0447
 20
63.3568
 30
0.0
 10
-50.7668
 20
63.3568
 30
0.0
 10
-50.7668
 20
63.3568
 30
0.0
 10
-48.5278
 20
63.3568
 30
0.0
 10
-47.4292
 20
60.5896
 30
0.0
 10
-49.0513
 20
59.0352
 30
0.0
 10
-49.0513
 20
59.0352
 30
0.0
 10
-50.1456
 20
57.9868
 30
0.0
 10
-51.5578
 20
58.0005
 30
0.0
 10
-52.5819
 20
59.0684
 30
0.0
  0
SPLINE
  5
118
330
1F
100
AcDbEntity
  8
Layer 1
100
AcDbSpline
210
0.0
220
0.0
230
1.0
 70
    11
 71
     3
 72
    16
 73
    12
 74
     0
 42
0.0000000001
 43
0.0000000001
 40
0.0
 40
0.0
 40
0.0
 40
0.0
 40
0.25
 40
0.25
 40
0.25
 40
0.25
 40
0.5
 40
0.5
 40
0.5
 40
0.5
 40
1.0
 40
1.0
 40
1.0
 40
1.0
 10
47.8896
 20
59.0684
 30
0.0
 10
46.8408
 20
60.1627
 30
0.0
 10
46.8545
 20
61.5749
 30
0.0
 10
47.9227
 20
62.599
 30
0.0
 10
47.9227
 20
62.599
 30
0.0
 10
49.5723
 20
64.178
 30
0.0
 10
52.2111
 20
63.0619
 30
0.0
 10
52.2111
 20
60.784
 30
0.0
 10
52.2111
 20
60.784
 30
0.0
 10
52.2111
 20
58.5449
 30
0.0
 10
49.4439
 20
57.4463
 30
0.0
 10
47.8896
 20
59.0684
 30
0.0
  0
SPLINE
  5
119
330
1F
100
AcDbEntity
  8
Layer 1
100
AcDbSpline
210
0.0
220
0.0
230
1.0
 70
    11
 71
     3
 72
    16
 73
    12
 74
     0
 42
0.0000000001
 43
0.0000000001
 40
0.0
 40
0.0
 40
0.0
 40
0.0
 40
0.25
 40
0.25
 40
0.25
 40
0.25
 40
0.5
 40
0.5
 40
0.5
 40
0.5
 40
1.0
 40
1.0
 40
1.0
 40
1.0
 10
-94.9233
 20
59.0751
 30
0.0
 10
-95.9362
 20
60.1941
 30
0.0
 10
-95.1576
 20
61.9457
 30
0.0
 10
-93.6487
 20
61.9457
 30
0.0
 10
-93.6487
 20
61.9457
 30
0.0
 10
-92.2031
 20
61.9457
 30
0.0
 10
-91.4495
 20
59.9959
 30
0.0
 10
-92.5202
 20
59.0271
 30
0.0
 10
-92.5202
 20
59.0271
 30
0.0
 10
-93.2021
 20
58.4098
 30
0.0
 10
-94.342
 20
58.4331
 30
0.0
 10
-94.9233
 20
59.0751
 30
0.0
  0
SPLINE
  5
11A
330
1F
100
AcDbEntity
  8
Layer 1
100
AcDbSpline
210
0.0
220
0.0
230
1.0
 70
    11
 71
     3
 72
    16
 73
    12
 74
     0
 42
0.0000000001
 43
0.0000000001
 40
0.0
 40
0.0
 40
0.0
 40
0.0
 40
0.25
 40
0.25
 40
0.25
 40
0.25
 40
0.5
 40
0.5
 40
0.5
 40
0.5
 40
1.0
 40
1.0
 40
1.0
 40
1.0
 10
91.3433
 20
59.0751
 30
0.0
 10
90.726
 20
59.7574
 30
0.0
 10
90.7493
 20
60.8972
 30
0.0
 10
91.3917
 20
61.4786
 30
0.0
 10
91.3917
 20
61.4786
 30
0.0
 10
92.5103
 20
62.4914
 30
0.0
 10
94.2619
 20
61.7128
 30
0.0
 10
94.2619
 20
60.204
 30
0.0
 10
94.2619
 20
60.204
 30
0.0
 10
94.2619
 20
58.7583
 30
0.0
 10
92.3121
 20
58.0044
 30
0.0
 10
91.3433
 20
59.0751
 30
0.0
  0
SPLINE
  5
11B
330
1F
100
AcDbEntity
  8
Layer 1
100
AcDbSpline
210
0.0
220
0.0
230
1.0
 70
    11
 71
     3
 72
    28
 73
    24
 74
     0
 42
0.0000000001
 43
0.0000000001
 40
0.0
 40
0.0
 40
0.0
 40
0.0
 40
0.1428571428571428
 40
0.1428571428571428
 40
0.1428571428571428
 40
0.1428571428571428
 40
0.2857142857142857
 40
0.2857142857142857
 40
0.2857142857142857
 40
0.2857142857142857
 40
0.4285714285714285
 40
0.4285714285714285
 40
0.4285714285714285
 40
0.4285714285714285
 40
0.5714285714285714
 40
0.5714285714285714
 40
0.5714285714285714
 40
0.5714285714285714
 40
0.7142857142857143
 40
0.7142857142857143
 40
0.7142857142857143
 40
0.7142857142857143
 40
1.0
 40
1.0
 40
1.0
 40
1.0
 10
-30.0563
 20
59.7256
 30
0.0
 10
-29.5907
 20
60.2894
 30
0.0
 10
-28.7652
 20
61.1149
 30
0.0
 10
-28.2222
 20
61.5597
 30
0.0
 10
-28.2222
 20
61.5597
 30
0.0
 10
-28.2222
 20
61.5597
 30
0.0
 10
-27.2341
 20
62.3686
 30
0.0
 10
-27.2341
 20
62.3686
 30
0.0
 10
-27.2341
 20
62.3686
 30
0.0
 10
-27.2341
 20
62.3686
 30
0.0
 10
-28.043
 20
61.3823
 30
0.0
 10
-28.043
 20
61.3823
 30
0.0
 10
-28.043
 20
61.3823
 30
0.0
 10
-28.4882
 20
60.8379
 30
0.0
 10
-29.3137
 20
60.0124
 30
0.0
 10
-29.8785
 20
59.5464
 30
0.0
 10
-29.8785
 20
59.5464
 30
0.0
 10
-29.8785
 20
59.5464
 30
0.0
 10
-30.904
 20
58.7005
 30
0.0
 10
-30.904
 20
58.7005
 30
0.0
 10
-30.904
 20
58.7005
 30
0.0
 10
-30.904
 20
58.7005
 30
0.0
 10
-30.0563
 20
59.7256
 30
0.0
 10
-30.0563
 20
59.7256
 30
0.0
  0
SPLINE
  5
11C
330
1F
100
AcDbEntity
  8
Layer 1
100
AcDbSpline
210
0.0
220
0.0
230
1.0
 70
    11
 71
     3
 72
    24
 73
    20
 74
     0
 42
0.0000000001
 43
0.0000000001
 40
0.0
 40
0.0
 40
0.0
 40
0.0
 40
0.1666666666666667
 40
0.1666666666666667
 40
0.1666666666666667
 40
0.1666666666666667
 40
0.3333333333333333
 40
0.3333333333333333
 40
0.3333333333333333
 40
0.3333333333333333
 40
0.5
 40
0.5
 40
0.5
 40
0.5
 40
0.6666666666666666
 40
0.6666666666666666
 40
0.6666666666666666
 40
0.6666666666666666
 40
1.0
 40
1.0
 40
1.0
 40
1.0
 10
28.4991
 20
59.7697
 30
0.0
 10
27.952
 20
60.2686
 30
0.0
 10
27.19
 20
61.05
 30
0.0
 10
26.8055
 20
61.5061
 30
0.0
 10
26.8055
 20
61.5061
 30
0.0
 10
26.8055
 20
61.5061
 30
0.0
 10
26.1056
 20
62.3358
 30
0.0
 10
26.1056
 20
62.3358
 30
0.0
 10
26.1056
 20
62.3358
 30
0.0
 10
26.1056
 20
62.3358
 30
0.0
 10
27.1307
 20
61.5061
 30
0.0
 10
27.1307
 20
61.5061
 30
0.0
 10
27.1307
 20
61.5061
 30
0.0
 10
28.0363
 20
60.773
 30
0.0
 10
29.8401
 20
58.8246
 30
0.0
 10
29.5878
 20
58.8522
 30
0.0
 10
29.5878
 20
58.8522
 30
0.0
 10
29.5356
 20
58.8574
 30
0.0
 10
29.0449
 20
59.2709
 30
0.0
 10
28.4991
 20
59.7697
 30
0.0
  0
SPLINE
  5
11D
330
1F
100
AcDbEntity
  8
Layer 1
100
AcDbSpline
210
0.0
220
0.0
230
1.0
 70
    11
 71
     3
 72
    16
 73
    12
 74
     0
 42
0.0000000001
 43
0.0000000001
 40
0.0
 40
0.0
 40
0.0
 40
0.0
 40
0.25
 40
0.25
 40
0.25
 40
0.25
 40
0.5
 40
0.5
 40
0.5
 40
0.5
 40
1.0
 40
1.0
 40
1.0
 40
1.0
 10
-24.3678
 20
59.9228
 30
0.0
 10
-24.9851
 20
60.6037
 30
0.0
 10
-24.9619
 20
61.7446
 30
0.0
 10
-24.3194
 20
62.326
 30
0.0
 10
-24.3194
 20
62.326
 30
0.0
 10
-23.2008
 20
63.3377
 30
0.0
 10
-21.4492
 20
62.5602
 30
0.0
 10
-21.4492
 20
61.05
 30
0.0
 10
-21.4492
 20
61.05
 30
0.0
 10
-21.4492
 20
59.6043
 30
0.0
 10
-23.3991
 20
58.8507
 30
0.0
 10
-24.3678
 20
59.9228
 30
0.0
  0
SPLINE
  5
11E
330
1F
100
AcDbEntity
  8
Layer 1
100
AcDbSpline
210
0.0
220
0.0
230
1.0
 70
    11
 71
     3
 72
    16
 73
    12
 74
     0
 42
0.0000000001
 43
0.0000000001
 40
0.0
 40
0.0
 40
0.0
 40
0.0
 40
0.25
 40
0.25
 40
0.25
 40
0.25
 40
0.5
 40
0.5
 40
0.5
 40
0.5
 40
1.0
 40
1.0
 40
1.0
 40
1.0
 10
20.7878
 20
59.9228
 30
0.0
 10
20.1704
 20
60.6037
 30
0.0
 10
20.1937
 20
61.7446
 30
0.0
 10
20.8361
 20
62.326
 30
0.0
 10
20.8361
 20
62.326
 30
0.0
 10
21.9548
 20
63.3377
 30
0.0
 10
23.7063
 20
62.5602
 30
0.0
 10
23.7063
 20
61.05
 30
0.0
 10
23.7063
 20
61.05
 30
0.0
 10
23.7063
 20
59.6043
 30
0.0
 10
21.7565
 20
58.8507
 30
0.0
 10
20.7878
 20
59.9228
 30
0.0
  0
SPLINE
  5
11F
330
1F
100
AcDbEntity
  8
Layer 1
100
AcDbSpline
210
0.0
220
0.0
230
1.0
 70
    11
 71
     3
 72
    16
 73
    12
 74
     0
 42
0.0000000001
 43
0.0000000001
 40
0.0
 40
0.0
 40
0.0
 40
0.0
 40
0.25
 40
0.25
 40
0.25
 40
0.25
 40
0.5
 40
0.5
 40
0.5
 40
0.5
 40
1.0
 40
1.0
 40
1.0
 40
1.0
 10
-39.044
 20
61.0514
 30
0.0
 10
-39.6614
 20
61.7322
 30
0.0
 10
-39.6378
 20
62.8731
 30
0.0
 10
-38.9943
 20
63.4548
 30
0.0
 10
-38.9943
 20
63.4548
 30
0.0
 10
-37.8767
 20
64.4677
 30
0.0
 10
-36.1237
 20
63.6891
 30
0.0
 10
-36.1237
 20
62.1785
 30
0.0
 10
-36.1237
 20
62.1785
 30
0.0
 10
-36.1237
 20
60.7346
 30
0.0
 10
-38.0753
 20
59.9807
 30
0.0
 10
-39.044
 20
61.0514
 30
0.0
  0
SPLINE
  5
120
330
1F
100
AcDbEntity
  8
Layer 1
100
AcDbSpline
210
0.0
220
0.0
230
1.0
 70
    11
 71
     3
 72
    16
 73
    12
 74
     0
 42
0.0000000001
 43
0.0000000001
 40
0.0
 40
0.0
 40
0.0
 40
0.0
 40
0.25
 40
0.25
 40
0.25
 40
0.25
 40
0.5
 40
0.5
 40
0.5
 40
0.5
 40
1.0
 40
1.0
 40
1.0
 40
1.0
 10
35.4623
 20
61.0514
 30
0.0
 10
34.8463
 20
61.7322
 30
0.0
 10
34.8686
 20
62.8731
 30
0.0
 10
35.512
 20
63.4548
 30
0.0
 10
35.512
 20
63.4548
 30
0.0
 10
36.631
 20
64.4677
 30
0.0
 10
38.3826
 20
63.6891
 30
0.0
 10
38.3826
 20
62.1785
 30
0.0
 10
38.3826
 20
62.1785
 30
0.0
 10
38.3826
 20
60.7346
 30
0.0
 10
36.4314
 20
59.9807
 30
0.0
 10
35.4623
 20
61.0514
 30
0.0
  0
SPLINE
  5
121
330
1F
100
AcDbEntity
  8
Layer 1
100
AcDbSpline
210
0.0
220
0.0
230
1.0
 70
    11
 71
     3
 72
    52
 73
    48
 74
     0
 42
0.0000000001
 43
0.0000000001
 40
0.0
 40
0.0
 40
0.0
 40
0.0
 40
0.0769230769230769
 40
0.0769230769230769
 40
0.0769230769230769
 40
0.0769230769230769
 40
0.1538461538461539
 40
0.1538461538461539
 40
0.1538461538461539
 40
0.1538461538461539
 40
0.2307692307692308
 40
0.2307692307692308
 40
0.2307692307692308
 40
0.2307692307692308
 40
0.3076923076923077
 40
0.3076923076923077
 40
0.3076923076923077
 40
0.3076923076923077
 40
0.3846153846153846
 40
0.3846153846153846
 40
0.3846153846153846
 40
0.3846153846153846
 40
0.4615384615384616
 40
0.4615384615384616
 40
0.4615384615384616
 40
0.4615384615384616
 40
0.5384615384615384
 40
0.5384615384615384
 40
0.5384615384615384
 40
0.5384615384615384
 40
0.6153846153846154
 40
0.6153846153846154
 40
0.6153846153846154
 40
0.6153846153846154
 40
0.6923076923076923
 40
0.6923076923076923
 40
0.6923076923076923
 40
0.6923076923076923
 40
0.7692307692307693
 40
0.7692307692307693
 40
0.7692307692307693
 40
0.7692307692307693
 40
0.8461538461538461
 40
0.8461538461538461
 40
0.8461538461538461
 40
0.8461538461538461
 40
1.0
 40
1.0
 40
1.0
 40
1.0
 10
-32.1786
 20
62.3852
 30
0.0
 10
-31.7941
 20
62.8428
 30
0.0
 10
-31.0321
 20
63.6284
 30
0.0
 10
-30.4849
 20
64.1325
 30
0.0
 10
-30.4849
 20
64.1325
 30
0.0
 10
-30.4849
 20
64.1325
 30
0.0
 10
-29.4929
 20
65.0505
 30
0.0
 10
-29.4929
 20
65.0505
 30
0.0
 10
-29.4929
 20
65.0505
 30
0.0
 10
-29.4929
 20
65.0505
 30
0.0
 10
-30.4849
 20
65.9684
 30
0.0
 10
-30.4849
 20
65.9684
 30
0.0
 10
-30.4849
 20
65.9684
 30
0.0
 10
-31.0321
 20
66.4725
 30
0.0
 10
-31.7941
 20
67.2596
 30
0.0
 10
-32.1786
 20
67.7182
 30
0.0
 10
-32.1786
 20
67.7182
 30
0.0
 10
-32.1786
 20
67.7182
 30
0.0
 10
-32.8785
 20
68.5507
 30
0.0
 10
-32.8785
 20
68.5507
 30
0.0
 10
-32.8785
 20
68.5507
 30
0.0
 10
-32.8785
 20
68.5507
 30
0.0
 10
-31.8904
 20
67.7556
 30
0.0
 10
-31.8904
 20
67.7556
 30
0.0
 10
-31.8904
 20
67.7556
 30
0.0
 10
-31.3475
 20
67.3174
 30
0.0
 10
-30.5442
 20
66.529
 30
0.0
 10
-30.1047
 20
66.0026
 30
0.0
 10
-30.1047
 20
66.0026
 30
0.0
 10
-30.1047
 20
66.0026
 30
0.0
 10
-29.3053
 20
65.0448
 30
0.0
 10
-29.3053
 20
65.0448
 30
0.0
 10
-29.3053
 20
65.0448
 30
0.0
 10
-29.3053
 20
65.0448
 30
0.0
 10
-30.0673
 20
64.1301
 30
0.0
 10
-30.0673
 20
64.1301
 30
0.0
 10
-30.0673
 20
64.1301
 30
0.0
 10
-30.4864
 20
63.627
 30
0.0
 10
-31.2896
 20
62.8428
 30
0.0
 10
-31.8534
 20
62.3852
 30
0.0
 10
-31.8534
 20
62.3852
 30
0.0
 10
-31.8534
 20
62.3852
 30
0.0
 10
-32.8785
 20
61.5558
 30
0.0
 10
-32.8785
 20
61.5558
 30
0.0
 10
-32.8785
 20
61.5558
 30
0.0
 10
-32.8785
 20
61.5558
 30
0.0
 10
-32.1786
 20
62.3852
 30
0.0
 10
-32.1786
 20
62.3852
 30
0.0
  0
SPLINE
  5
122
330
1F
100
AcDbEntity
  8
Layer 1
100
AcDbSpline
210
0.0
220
0.0
230
1.0
 70
    11
 71
     3
 72
    48
 73
    44
 74
     0
 42
0.0000000001
 43
0.0000000001
 40
0.0
 40
0.0
 40
0.0
 40
0.0
 40
0.0833333333333333
 40
0.0833333333333333
 40
0.0833333333333333
 40
0.0833333333333333
 40
0.1666666666666667
 40
0.1666666666666667
 40
0.1666666666666667
 40
0.1666666666666667
 40
0.25
 40
0.25
 40
0.25
 40
0.25
 40
0.3333333333333333
 40
0.3333333333333333
 40
0.3333333333333333
 40
0.3333333333333333
 40
0.4166666666666667
 40
0.4166666666666667
 40
0.4166666666666667
 40
0.4166666666666667
 40
0.5
 40
0.5
 40
0.5
 40
0.5
 40
0.5833333333333334
 40
0.5833333333333334
 40
0.5833333333333334
 40
0.5833333333333334
 40
0.6666666666666666
 40
0.6666666666666666
 40
0.6666666666666666
 40
0.6666666666666666
 40
0.75
 40
0.75
 40
0.75
 40
0.75
 40
0.8333333333333334
 40
0.8333333333333334
 40
0.8333333333333334
 40
0.8333333333333334
 40
1.0
 40
1.0
 40
1.0
 40
1.0
 10
30.474
 20
62.592
 30
0.0
 10
29.9283
 20
63.0908
 30
0.0
 10
29.1828
 20
63.8404
 30
0.0
 10
28.8177
 20
64.2581
 30
0.0
 10
28.8177
 20
64.2581
 30
0.0
 10
28.8177
 20
64.2581
 30
0.0
 10
28.1548
 20
65.0173
 30
0.0
 10
28.1548
 20
65.0173
 30
0.0
 10
28.1548
 20
65.0173
 30
0.0
 10
28.1548
 20
65.0173
 30
0.0
 10
28.9648
 20
65.9888
 30
0.0
 10
28.9648
 20
65.9888
 30
0.0
 10
28.9648
 20
65.9888
 30
0.0
 10
29.41
 20
66.5237
 30
0.0
 10
30.2189
 20
67.3174
 30
0.0
 10
30.7619
 20
67.7556
 30
0.0
 10
30.7619
 20
67.7556
 30
0.0
 10
30.7619
 20
67.7556
 30
0.0
 10
31.75
 20
68.5507
 30
0.0
 10
31.75
 20
68.5507
 30
0.0
 10
31.75
 20
68.5507
 30
0.0
 10
31.75
 20
68.5507
 30
0.0
 10
31.0501
 20
67.7182
 30
0.0
 10
31.0501
 20
67.7182
 30
0.0
 10
31.0501
 20
67.7182
 30
0.0
 10
30.6656
 20
67.2596
 30
0.0
 10
29.9036
 20
66.4725
 30
0.0
 10
29.3564
 20
65.9684
 30
0.0
 10
29.3564
 20
65.9684
 30
0.0
 10
29.3564
 20
65.9684
 30
0.0
 10
28.3626
 20
65.0505
 30
0.0
 10
28.3626
 20
65.0505
 30
0.0
 10
28.3626
 20
65.0505
 30
0.0
 10
28.3626
 20
65.0505
 30
0.0
 10
29.3564
 20
64.1325
 30
0.0
 10
29.3564
 20
64.1325
 30
0.0
 10
29.3564
 20
64.1325
 30
0.0
 10
30.4408
 20
63.1321
 30
0.0
 10
31.7789
 20
61.6578
 30
0.0
 10
31.5874
 20
61.6744
 30
0.0
 10
31.5874
 20
61.6744
 30
0.0
 10
31.5214
 20
61.6797
 30
0.0
 10
31.0212
 20
62.0931
 30
0.0
 10
30.474
 20
62.592
 30
0.0
  0
SPLINE
  5
123
330
1F
100
AcDbEntity
  8
Layer 1
100
AcDbSpline
210
0.0
220
0.0
230
1.0
 70
    11
 71
     3
 72
    16
 73
    12
 74
     0
 42
0.0000000001
 43
0.0000000001
 40
0.0
 40
0.0
 40
0.0
 40
0.0
 40
0.25
 40
0.25
 40
0.25
 40
0.25
 40
0.5
 40
0.5
 40
0.5
 40
0.5
 40
1.0
 40
1.0
 40
1.0
 40
1.0
 10
-19.5711
 20
63.8736
 30
0.0
 10
-20.187
 20
64.5545
 30
0.0
 10
-20.1648
 20
65.6953
 30
0.0
 10
-19.5213
 20
66.2771
 30
0.0
 10
-19.5213
 20
66.2771
 30
0.0
 10
-18.4023
 20
67.2899
 30
0.0
 10
-16.6508
 20
66.5113
 30
0.0
 10
-16.6508
 20
65.0007
 30
0.0
 10
-16.6508
 20
65.0007
 30
0.0
 10
-16.6508
 20
63.5568
 30
0.0
 10
-18.602
 20
62.8029
 30
0.0
 10
-19.5711
 20
63.8736
 30
0.0
  0
SPLINE
  5
124
330
1F
100
AcDbEntity
  8
Layer 1
100
AcDbSpline
210
0.0
220
0.0
230
1.0
 70
    11
 71
     3
 72
    16
 73
    12
 74
     0
 42
0.0000000001
 43
0.0000000001
 40
0.0
 40
0.0
 40
0.0
 40
0.0
 40
0.25
 40
0.25
 40
0.25
 40
0.25
 40
0.5
 40
0.5
 40
0.5
 40
0.5
 40
1.0
 40
1.0
 40
1.0
 40
1.0
 10
15.9893
 20
63.8736
 30
0.0
 10
15.3719
 20
64.5545
 30
0.0
 10
15.3956
 20
65.6953
 30
0.0
 10
16.039
 20
66.2771
 30
0.0
 10
16.039
 20
66.2771
 30
0.0
 10
17.1566
 20
67.2899
 30
0.0
 10
18.9096
 20
66.5113
 30
0.0
 10
18.9096
 20
65.0007
 30
0.0
 10
18.9096
 20
65.0007
 30
0.0
 10
18.9096
 20
63.5568
 30
0.0
 10
16.958
 20
62.8029
 30
0.0
 10
15.9893
 20
63.8736
 30
0.0
  0
SPLINE
  5
125
330
1F
100
AcDbEntity
  8
Layer 1
100
AcDbSpline
210
0.0
220
0.0
230
1.0
 70
    11
 71
     3
 72
    16
 73
    12
 74
     0
 42
0.0000000001
 43
0.0000000001
 40
0.0
 40
0.0
 40
0.0
 40
0.0
 40
0.25
 40
0.25
 40
0.25
 40
0.25
 40
0.5
 40
0.5
 40
0.5
 40
0.5
 40
1.0
 40
1.0
 40
1.0
 40
1.0
 10
-39.044
 20
66.6958
 30
0.0
 10
-39.6614
 20
67.3767
 30
0.0
 10
-39.6378
 20
68.5176
 30
0.0
 10
-38.9943
 20
69.0993
 30
0.0
 10
-38.9943
 20
69.0993
 30
0.0
 10
-37.8767
 20
70.1121
 30
0.0
 10
-36.1237
 20
69.3335
 30
0.0
 10
-36.1237
 20
67.8229
 30
0.0
 10
-36.1237
 20
67.8229
 30
0.0
 10
-36.1237
 20
66.379
 30
0.0
 10
-38.0753
 20
65.6251
 30
0.0
 10
-39.044
 20
66.6958
 30
0.0
  0
SPLINE
  5
126
330
1F
100
AcDbEntity
  8
Layer 1
100
AcDbSpline
210
0.0
220
0.0
230
1.0
 70
    11
 71
     3
 72
    16
 73
    12
 74
     0
 42
0.0000000001
 43
0.0000000001
 40
0.0
 40
0.0
 40
0.0
 40
0.0
 40
0.25
 40
0.25
 40
0.25
 40
0.25
 40
0.5
 40
0.5
 40
0.5
 40
0.5
 40
1.0
 40
1.0
 40
1.0
 40
1.0
 10
35.4623
 20
66.6958
 30
0.0
 10
34.8463
 20
67.3767
 30
0.0
 10
34.8686
 20
68.5176
 30
0.0
 10
35.512
 20
69.0993
 30
0.0
 10
35.512
 20
69.0993
 30
0.0
 10
36.631
 20
70.1121
 30
0.0
 10
38.3826
 20
69.3335
 30
0.0
 10
38.3826
 20
67.8229
 30
0.0
 10
38.3826
 20
67.8229
 30
0.0
 10
38.3826
 20
66.379
 30
0.0
 10
36.4314
 20
65.6251
 30
0.0
 10
35.4623
 20
66.6958
 30
0.0
  0
ENDSEC
  0
SECTION
  2
OBJECTS
  0
DICTIONARY
  5
C
330
0
100
AcDbDictionary
281
     1
  3
ACAD_GROUP
350
D
  3
ACAD_LAYOUT
350
1A
  3
ACAD_MATERIAL
350
3B
  3
ACAD_MLEADERSTYLE
350
14E
  3
ACAD_MLINESTYLE
350
17
  3
ACAD_PLOTSETTINGS
350
19
  3
ACAD_PLOTSTYLENAME
350
E
  3
ACAD_TABLESTYLE
350
14D
  3
ACAD_VISUALSTYLE
350
2A
  0
DICTIONARY
  5
D
102
{ACAD_REACTORS
330
C
102
}
330
C
100
AcDbDictionary
281
     1
  0
DICTIONARY
  5
1A
102
{ACAD_REACTORS
330
C
102
}
330
C
100
AcDbDictionary
281
     1
  3
Layout1
350
1E
  3
Layout2
350
26
  3
Model
350
22
  0
DICTIONARY
  5
3B
102
{ACAD_REACTORS
330
C
102
}
330
C
100
AcDbDictionary
281
     1
  3
ByBlock
350
3D
  3
ByLayer
350
3C
  3
Global
350
3E
  0
DICTIONARY
  5
14E
102
{ACAD_REACTORS
330
C
102
}
330
C
100
AcDbDictionary
281
     1
  0
DICTIONARY
  5
17
102
{ACAD_REACTORS
330
C
102
}
330
C
100
AcDbDictionary
281
     1
  3
Standard
350
18
  0
DICTIONARY
  5
19
102
{ACAD_REACTORS
330
C
102
}
330
C
100
AcDbDictionary
281
     1
  0
ACDBDICTIONARYWDFLT
  5
E
102
{ACAD_REACTORS
330
C
102
}
330
C
100
AcDbDictionary
281
     1
  3
Normal
350
F
100
AcDbDictionaryWithDefault
340
F
  0
DICTIONARY
  5
14D
102
{ACAD_REACTORS
330
C
102
}
330
C
100
AcDbDictionary
281
     1
  0
DICTIONARY
  5
2A
102
{ACAD_REACTORS
330
C
102
}
330
C
100
AcDbDictionary
281
     1
  3
2dWireframe
350
2F
  3
3D Hidden
350
31
  3
3dWireframe
350
30
  3
Basic
350
32
  3
Brighten
350
36
  3
ColorChange
350
3A
  3
Conceptual
350
34
  3
Dim
350
35
  3
Facepattern
350
39
  3
Flat
350
2B
  3
FlatWithEdges
350
2C
  3
Gouraud
350
2D
  3
GouraudWithEdges
350
2E
  3
Linepattern
350
38
  3
Realistic
350
33
  3
Thicken
350
37
  0
LAYOUT
  5
1E
102
{ACAD_REACTORS
330
1A
102
}
330
1A
100
AcDbPlotSettings
  1

  2
none_device
  4

  6

 40
0.0
 41
0.0
 42
0.0
 43
0.0
 44
0.0
 45
0.0
 46
0.0
 47
0.0
 48
0.0
 49
0.0
140
0.0
141
0.0
142
1.0
143
1.0
 70
   688
 72
     0
 73
     0
 74
     5
  7

 75
    16
 76
     0
 77
     2
 78
   300
147
1.0
148
0.0
149
0.0
100
AcDbLayout
  1
Layout1
 70
     1
 71
     1
 10
0.0
 20
0.0
 11
12.0
 21
9.0
 12
0.0
 22
0.0
 32
0.0
 14
1.000000000000000E+20
 24
1.000000000000000E+20
 34
1.000000000000000E+20
 15
-1.000000000000000E+20
 25
-1.000000000000000E+20
 35
-1.000000000000000E+20
146
0.0
 13
0.0
 23
0.0
 33
0.0
 16
1.0
 26
0.0
 36
0.0
 17
0.0
 27
1.0
 37
0.0
 76
     0
330
1B
  0
LAYOUT
  5
26
102
{ACAD_REACTORS
330
1A
102
}
330
1A
100
AcDbPlotSettings
  1

  2
none_device
  4

  6

 40
0.0
 41
0.0
 42
0.0
 43
0.0
 44
0.0
 45
0.0
 46
0.0
 47
0.0
 48
0.0
 49
0.0
140
0.0
141
0.0
142
1.0
143
1.0
 70
   688
 72
     0
 73
     0
 74
     5
  7

 75
    16
 76
     0
 77
     2
 78
   300
147
1.0
148
0.0
149
0.0
100
AcDbLayout
  1
Layout2
 70
     1
 71
     2
 10
0.0
 20
0.0
 11
0.0
 21
0.0
 12
0.0
 22
0.0
 32
0.0
 14
0.0
 24
0.0
 34
0.0
 15
0.0
 25
0.0
 35
0.0
146
0.0
 13
0.0
 23
0.0
 33
0.0
 16
1.0
 26
0.0
 36
0.0
 17
0.0
 27
1.0
 37
0.0
 76
     0
330
23
  0
LAYOUT
  5
22
102
{ACAD_REACTORS
330
1A
102
}
330
1A
100
AcDbPlotSettings
  1

  2
none_device
  4

  6

 40
0.0
 41
0.0
 42
0.0
 43
0.0
 44
0.0
 45
0.0
 46
0.0
 47
0.0
 48
0.0
 49
0.0
140
0.0
141
0.0
142
1.0
143
1.0
 70
  1712
 72
     0
 73
     0
 74
     0
  7

 75
     0
 76
     0
 77
     2
 78
   300
147
1.0
148
0.0
149
0.0
100
AcDbLayout
  1
Model
 70
     1
 71
     0
 10
0.0
 20
0.0
 11
12.0
 21
9.0
 12
0.0
 22
0.0
 32
0.0
 14
-145.3445
 24
-77.7877
 34
0.0
 15
145.3444
 25
77.9599
 35
0.0
146
0.0
 13
0.0
 23
0.0
 33
0.0
 16
1.0
 26
0.0
 36
0.0
 17
0.0
 27
1.0
 37
0.0
 76
     0
330
1F
331
29
  0
MATERIAL
  5
3D
102
{ACAD_REACTORS
330
3B
102
}
102
{ACAD_XDICTIONARY
360
149
102
}
330
3B
100
AcDbMaterial
  1
ByBlock
  0
MATERIAL
  5
3C
102
{ACAD_REACTORS
330
3B
102
}
102
{ACAD_XDICTIONARY
360
147
102
}
330
3B
100
AcDbMaterial
  1
ByLayer
  0
MATERIAL
  5
3E
102
{ACAD_REACTORS
330
3B
102
}
102
{ACAD_XDICTIONARY
360
14B
102
}
330
3B
100
AcDbMaterial
  1
Global
  0
MLINESTYLE
  5
18
102
{ACAD_REACTORS
330
17
102
}
330
17
100
AcDbMlineStyle
  2
Standard
 70
     0
  3

 62
   256
 51
90.0
 52
90.0
 71
     2
 49
0.5
 62
   256
  6
BYLAYER
 49
-0.5
 62
   256
  6
BYLAYER
  0
ACDBPLACEHOLDER
  5
F
102
{ACAD_REACTORS
330
E
102
}
330
E
  0
VISUALSTYLE
  5
2F
102
{ACAD_REACTORS
330
2A
102
}
102
{ACAD_XDICTIONARY
360
12F
102
}
330
2A
100
AcDbVisualStyle
  2
2dWireframe
 70
     4
 71
     0
 72
     2
 73
     0
 90
        0
 40
-0.6
 41
-30.0
 62
     5
 63
     7
421
 16777215
 74
     1
 91
        4
 64
     7
 65
   257
 75
     1
175
     1
 42
1.0
 92
        0
 66
   257
 43
1.0
 76
     1
 77
     6
 78
     2
 67
     7
 79
     5
170
     0
171
     0
290
     0
174
     0
 93
        1
 44
0.0
173
     0
291
     0
 45
0.0
1001
ACAD
1000
AcDbSavedByObjectVersion
1070
     0
  0
VISUALSTYLE
  5
31
102
{ACAD_REACTORS
330
2A
102
}
102
{ACAD_XDICTIONARY
360
133
102
}
330
2A
100
AcDbVisualStyle
  2
3D Hidden
 70
     6
 71
     1
 72
     2
 73
     2
 90
        0
 40
-0.6
 41
-30.0
 62
     5
 63
     7
421
 16777215
 74
     2
 91
        2
 64
     7
 65
   257
 75
     2
175
     1
 42
40.0
 92
        0
 66
   257
 43
1.0
 76
     1
 77
     6
 78
     2
 67
     7
 79
     3
170
     0
171
     0
290
     0
174
     0
 93
        1
 44
0.0
173
     0
291
     0
 45
0.0
1001
ACAD
1000
AcDbSavedByObjectVersion
1070
     0
  0
VISUALSTYLE
  5
30
102
{ACAD_REACTORS
330
2A
102
}
102
{ACAD_XDICTIONARY
360
131
102
}
330
2A
100
AcDbVisualStyle
  2
3dWireframe
 70
     5
 71
     0
 72
     2
 73
     0
 90
        0
 40
-0.6
 41
-30.0
 62
     5
 63
     7
421
 16777215
 74
     1
 91
        4
 64
     7
 65
   257
 75
     1
175
     1
 42
1.0
 92
        0
 66
   257
 43
1.0
 76
     1
 77
     6
 78
     2
 67
     7
 79
     5
170
     0
171
     0
290
     0
174
     0
 93
        1
 44
0.0
173
     0
291
     0
 45
0.0
1001
ACAD
1000
AcDbSavedByObjectVersion
1070
     0
  0
VISUALSTYLE
  5
32
102
{ACAD_REACTORS
330
2A
102
}
102
{ACAD_XDICTIONARY
360
135
102
}
330
2A
100
AcDbVisualStyle
  2
Basic
 70
     7
 71
     1
 72
     0
 73
     1
 90
        0
 40
-0.6
 41
-30.0
 62
     5
 63
     7
421
 16777215
 74
     0
 91
        4
 64
     7
 65
   257
 75
     1
175
     1
 42
1.0
 92
        8
 66
     7
 43
1.0
 76
     1
 77
     6
 78
     2
 67
     7
 79
     5
170
     0
171
     0
290
     0
174
     0
 93
        1
 44
0.0
173
     0
291
     1
 45
0.0
1001
ACAD
1000
AcDbSavedByObjectVersion
1070
     0
  0
VISUALSTYLE
  5
36
102
{ACAD_REACTORS
330
2A
102
}
102
{ACAD_XDICTIONARY
360
13D
102
}
330
2A
100
AcDbVisualStyle
  2
Brighten
 70
    12
 71
     2
 72
     2
 73
     0
 90
        0
 40
-0.6
 41
-30.0
 62
     5
 63
     7
421
 16777215
 74
     1
 91
        4
 64
     7
 65
   257
 75
     1
175
     1
 42
1.0
 92
        8
 66
     7
 43
1.0
 76
     1
 77
     6
 78
     2
 67
     7
 79
     5
170
     0
171
     0
290
     0
174
     0
 93
        1
 44
50.0
173
     0
291
     1
 45
0.0
1001
ACAD
1000
AcDbSavedByObjectVersion
1070
     0
  0
VISUALSTYLE
  5
3A
102
{ACAD_REACTORS
330
2A
102
}
102
{ACAD_XDICTIONARY
360
145
102
}
330
2A
100
AcDbVisualStyle
  2
ColorChange
 70
    16
 71
     2
 72
     2
 73
     3
 90
        0
 40
-0.6
 41
-30.0
 62
     5
 63
     8
421
  8421504
 74
     1
 91
        4
 64
     7
 65
   257
 75
     1
175
     1
 42
1.0
 92
        8
 66
     8
424
  8421504
 43
1.0
 76
     1
 77
     6
 78
     2
 67
     7
 79
     5
170
     0
171
     0
290
     0
174
     0
 93
        1
 44
0.0
173
     0
291
     1
 45
0.0
1001
ACAD
1000
AcDbSavedByObjectVersion
1070
     0
  0
VISUALSTYLE
  5
34
102
{ACAD_REACTORS
330
2A
102
}
102
{ACAD_XDICTIONARY
360
139
102
}
330
2A
100
AcDbVisualStyle
  2
Conceptual
 70
     9
 71
     3
 72
     2
 73
     0
 90
        0
 40
-0.6
 41
-30.0
 62
     5
 63
     7
421
 16777215
 74
     2
 91
        2
 64
     7
 65
   257
 75
     1
175
     1
 42
40.0
 92
        8
 66
     7
 43
1.0
 76
     1
 77
     6
 78
     2
 67
     7
 79
     3
170
     0
171
     0
290
     0
174
     0
 93
        1
 44
0.0
173
     0
291
     0
 45
0.0
1001
ACAD
1000
AcDbSavedByObjectVersion
1070
     0
  0
VISUALSTYLE
  5
35
102
{ACAD_REACTORS
330
2A
102
}
102
{ACAD_XDICTIONARY
360
13B
102
}
330
2A
100
AcDbVisualStyle
  2
Dim
 70
    11
 71
     2
 72
     2
 73
     0
 90
        0
 40
-0.6
 41
-30.0
 62
     5
 63
     7
421
 16777215
 74
     1
 91
        4
 64
     7
 65
   257
 75
     1
175
     1
 42
1.0
 92
        8
 66
     7
 43
1.0
 76
     1
 77
     6
 78
     2
 67
     7
 79
     5
170
     0
171
     0
290
     0
174
     0
 93
        1
 44
-50.0
173
     0
291
     1
 45
0.0
1001
ACAD
1000
AcDbSavedByObjectVersion
1070
     0
  0
VISUALSTYLE
  5
39
102
{ACAD_REACTORS
330
2A
102
}
102
{ACAD_XDICTIONARY
360
143
102
}
330
2A
100
AcDbVisualStyle
  2
Facepattern
 70
    15
 71
     2
 72
     2
 73
     0
 90
        0
 40
-0.6
 41
-30.0
 62
     5
 63
     7
421
 16777215
 74
     1
 91
        4
 64
     7
 65
   257
 75
     1
175
     1
 42
1.0
 92
        8
 66
     7
 43
1.0
 76
     1
 77
     6
 78
     2
 67
     7
 79
     5
170
     0
171
     0
290
     0
174
     0
 93
        1
 44
0.0
173
     0
291
     1
 45
0.0
1001
ACAD
1000
AcDbSavedByObjectVersion
1070
     0
  0
VISUALSTYLE
  5
2B
102
{ACAD_REACTORS
330
2A
102
}
102
{ACAD_XDICTIONARY
360
127
102
}
330
2A
100
AcDbVisualStyle
  2
Flat
 70
     0
 71
     2
 72
     1
 73
     1
 90
        2
 40
-0.6
 41
30.0
 62
     5
 63
     7
421
 16777215
 74
     0
 91
        4
 64
     7
 65
   257
 75
     1
175
     1
 42
1.0
 92
        8
 66
     7
 43
1.0
 76
     1
 77
     6
 78
     2
 67
     7
 79
     5
170
     0
171
     0
290
     0
174
     0
 93
       13
 44
0.0
173
     0
291
     1
 45
0.0
1001
ACAD
1000
AcDbSavedByObjectVersion
1070
     0
  0
VISUALSTYLE
  5
2C
102
{ACAD_REACTORS
330
2A
102
}
102
{ACAD_XDICTIONARY
360
129
102
}
330
2A
100
AcDbVisualStyle
  2
FlatWithEdges
 70
     1
 71
     2
 72
     1
 73
     1
 90
        2
 40
-0.6
 41
30.0
 62
     5
 63
     7
421
 16777215
 74
     1
 91
        4
 64
     7
 65
   257
 75
     1
175
     1
 42
1.0
 92
        0
 66
   257
 43
1.0
 76
     1
 77
     6
 78
     2
 67
     7
 79
     5
170
     0
171
     0
290
     0
174
     0
 93
       13
 44
0.0
173
     0
291
     1
 45
0.0
1001
ACAD
1000
AcDbSavedByObjectVersion
1070
     0
  0
VISUALSTYLE
  5
2D
102
{ACAD_REACTORS
330
2A
102
}
102
{ACAD_XDICTIONARY
360
12B
102
}
330
2A
100
AcDbVisualStyle
  2
Gouraud
 70
     2
 71
     2
 72
     2
 73
     1
 90
        2
 40
-0.6
 41
30.0
 62
     5
 63
     7
421
 16777215
 74
     0
 91
        4
 64
     7
 65
   257
 75
     1
175
     1
 42
1.0
 92
        0
 66
     7
 43
1.0
 76
     1
 77
     6
 78
     2
 67
     7
 79
     5
170
     0
171
     0
290
     0
174
     0
 93
       13
 44
0.0
173
     0
291
     1
 45
0.0
1001
ACAD
1000
AcDbSavedByObjectVersion
1070
     0
  0
VISUALSTYLE
  5
2E
102
{ACAD_REACTORS
330
2A
102
}
102
{ACAD_XDICTIONARY
360
12D
102
}
330
2A
100
AcDbVisualStyle
  2
GouraudWithEdges
 70
     3
 71
     2
 72
     2
 73
     1
 90
        2
 40
-0.6
 41
30.0
 62
     5
 63
     7
421
 16777215
 74
     1
 91
        4
 64
     7
 65
   257
 75
     1
175
     1
 42
1.0
 92
        0
 66
   257
 43
1.0
 76
     1
 77
     6
 78
     2
 67
     7
 79
     5
170
     0
171
     0
290
     0
174
     0
 93
       13
 44
0.0
173
     0
291
     1
 45
0.0
1001
ACAD
1000
AcDbSavedByObjectVersion
1070
     0
  0
VISUALSTYLE
  5
38
102
{ACAD_REACTORS
330
2A
102
}
102
{ACAD_XDICTIONARY
360
141
102
}
330
2A
100
AcDbVisualStyle
  2
Linepattern
 70
    14
 71
     2
 72
     2
 73
     0
 90
        0
 40
-0.6
 41
-30.0
 62
     5
 63
     7
421
 16777215
 74
     1
 91
        4
 64
     7
 65
   257
 75
     7
175
     7
 42
1.0
 92
        8
 66
     7
 43
1.0
 76
     1
 77
     6
 78
     2
 67
     7
 79
     5
170
     0
171
     0
290
     0
174
     0
 93
        1
 44
0.0
173
     0
291
     1
 45
0.0
1001
ACAD
1000
AcDbSavedByObjectVersion
1070
     0
  0
VISUALSTYLE
  5
33
102
{ACAD_REACTORS
330
2A
102
}
102
{ACAD_XDICTIONARY
360
137
102
}
330
2A
100
AcDbVisualStyle
  2
Realistic
 70
     8
 71
     2
 72
     2
 73
     0
 90
        0
 40
-0.6
 41
-30.0
 62
     5
 63
     7
421
 16777215
 74
     1
 91
        0
 64
     7
 65
   257
 75
     1
175
     1
 42
1.0
 92
        8
 66
     8
424
  7895160
 43
1.0
 76
     1
 77
     6
 78
     2
 67
     7
 79
     5
170
     0
171
     0
290
     0
174
     0
 93
       13
 44
0.0
173
     0
291
     0
 45
0.0
1001
ACAD
1000
AcDbSavedByObjectVersion
1070
     0
  0
VISUALSTYLE
  5
37
102
{ACAD_REACTORS
330
2A
102
}
102
{ACAD_XDICTIONARY
360
13F
102
}
330
2A
100
AcDbVisualStyle
  2
Thicken
 70
    13
 71
     2
 72
     2
 73
     0
 90
        0
 40
-0.6
 41
-30.0
 62
     5
 63
     7
421
 16777215
 74
     1
 91
        4
 64
     7
 65
   257
 75
     1
175
     1
 42
1.0
 92
       12
 66
     7
 43
1.0
 76
     1
 77
     6
 78
     2
 67
     7
 79
     5
170
     0
171
     0
290
     0
174
     0
 93
        1
 44
0.0
173
     0
291
     1
 45
0.0
1001
ACAD
1000
AcDbSavedByObjectVersion
1070
     0
  0
DICTIONARY
  5
149
330
3D
100
AcDbDictionary
280
     1
281
     1
  3
ACAD_XREC_ROUNDTRIP
360
14A
  0
DICTIONARY
  5
147
330
3C
100
AcDbDictionary
280
     1
281
     1
  3
ACAD_XREC_ROUNDTRIP
360
148
  0
DICTIONARY
  5
14B
330
3E
100
AcDbDictionary
280
     1
281
     1
  3
ACAD_XREC_ROUNDTRIP
360
14C
  0
DICTIONARY
  5
12F
330
2F
100
AcDbDictionary
280
     1
281
     1
  3
ACAD_XREC_ROUNDTRIP
360
130
  0
DICTIONARY
  5
133
330
31
100
AcDbDictionary
280
     1
281
     1
  3
ACAD_XREC_ROUNDTRIP
360
134
  0
DICTIONARY
  5
131
330
30
100
AcDbDictionary
280
     1
281
     1
  3
ACAD_XREC_ROUNDTRIP
360
132
  0
DICTIONARY
  5
135
330
32
100
AcDbDictionary
280
     1
281
     1
  3
ACAD_XREC_ROUNDTRIP
360
136
  0
DICTIONARY
  5
13D
330
36
100
AcDbDictionary
280
     1
281
     1
  3
ACAD_XREC_ROUNDTRIP
360
13E
  0
DICTIONARY
  5
145
330
3A
100
AcDbDictionary
280
     1
281
     1
  3
ACAD_XREC_ROUNDTRIP
360
146
  0
DICTIONARY
  5
139
330
34
100
AcDbDictionary
280
     1
281
     1
  3
ACAD_XREC_ROUNDTRIP
360
13A
  0
DICTIONARY
  5
13B
330
35
100
AcDbDictionary
280
     1
281
     1
  3
ACAD_XREC_ROUNDTRIP
360
13C
  0
DICTIONARY
  5
143
330
39
100
AcDbDictionary
280
     1
281
     1
  3
ACAD_XREC_ROUNDTRIP
360
144
  0
DICTIONARY
  5
127
330
2B
100
AcDbDictionary
280
     1
281
     1
  3
ACAD_XREC_ROUNDTRIP
360
128
  0
DICTIONARY
  5
129
330
2C
100
AcDbDictionary
280
     1
281
     1
  3
ACAD_XREC_ROUNDTRIP
360
12A
  0
DICTIONARY
  5
12B
330
2D
100
AcDbDictionary
280
     1
281
     1
  3
ACAD_XREC_ROUNDTRIP
360
12C
  0
DICTIONARY
  5
12D
330
2E
100
AcDbDictionary
280
     1
281
     1
  3
ACAD_XREC_ROUNDTRIP
360
12E
  0
DICTIONARY
  5
141
330
38
100
AcDbDictionary
280
     1
281
     1
  3
ACAD_XREC_ROUNDTRIP
360
142
  0
DICTIONARY
  5
137
330
33
100
AcDbDictionary
280
     1
281
     1
  3
ACAD_XREC_ROUNDTRIP
360
138
  0
DICTIONARY
  5
13F
330
37
100
AcDbDictionary
280
     1
281
     1
  3
ACAD_XREC_ROUNDTRIP
360
140
  0
XRECORD
  5
14A
102
{ACAD_REACTORS
330
149
102
}
330
149
100
AcDbXrecord
280
     1
102
MATERIAL
148
0.0
149
0.0
149
0.0
 93
        0
 94
      127
282
     0
 72
     1
 77
     1
171
     1
175
     1
179
     1
273
     0
  0
XRECORD
  5
148
102
{ACAD_REACTORS
330
147
102
}
330
147
100
AcDbXrecord
280
     1
102
MATERIAL
148
0.0
149
0.0
149
0.0
 93
        0
 94
      127
282
     0
 72
     1
 77
     1
171
     1
175
     1
179
     1
273
     0
  0
XRECORD
  5
14C
102
{ACAD_REACTORS
330
14B
102
}
330
14B
100
AcDbXrecord
280
     1
102
MATERIAL
148
0.0
149
0.0
149
0.0
 93
        0
 94
      127
282
     0
 72
     1
 77
     1
171
     1
175
     1
179
     1
273
     0
  0
XRECORD
  5
130
102
{ACAD_REACTORS
330
12F
102
}
330
12F
100
AcDbXrecord
280
     1
102
RTVSPropertyOp0
 70
     1
102
RTVSPropertyOp1
 70
     1
102
RTVSPropertyOp2
 70
     1
102
RTVSPropertyOp3
 70
     1
102
RTVSPropertyOp4
 70
     1
102
RTVSPropertyOp5
 70
     1
102
RTVSPropertyOp6
 70
     1
102
RTVSPropertyOp7
 70
     1
102
RTVSPropertyOp8
 70
     1
102
RTVSPropertyOp9
 70
     1
102
RTVSPropertyOp10
 70
     1
102
RTVSPropertyOp11
 70
     1
102
RTVSPropertyOp12
 70
     1
102
RTVSPropertyOp13
 70
     1
102
RTVSPropertyOp14
 70
     1
102
RTVSPropertyOp15
 70
     1
102
RTVSPropertyOp16
 70
     1
102
RTVSPropertyOp17
 70
     1
102
RTVSPropertyOp18
 70
     1
102
RTVSPropertyOp19
 70
     1
102
RTVSPropertyOp20
 70
     1
102
RTVSPropertyOp21
 70
     1
102
RTVSPropertyOp22
 70
     1
102
RTVSPropertyOp23
 70
     1
102
RTVSPropertyOp24
 70
     1
102
RTVSPropertyOp25
 70
     1
102
RTVSPropertyOp26
 70
     1
102
RTVSPropertyOp27
 70
     1
  0
XRECORD
  5
134
102
{ACAD_REACTORS
330
133
102
}
330
133
100
AcDbXrecord
280
     1
102
RTVSPropertyOp0
 70
     1
102
RTVSPropertyOp1
 70
     1
102
RTVSPropertyOp2
 70
     1
102
RTVSPropertyOp3
 70
     1
102
RTVSPropertyOp4
 70
     1
102
RTVSPropertyOp5
 70
     1
102
RTVSPropertyOp6
 70
     1
102
RTVSPropertyOp7
 70
     1
102
RTVSPropertyOp8
 70
     1
102
RTVSPropertyOp9
 70
     1
102
RTVSPropertyOp10
 70
     1
102
RTVSPropertyOp11
 70
     1
102
RTVSPropertyOp12
 70
     1
102
RTVSPropertyOp13
 70
     1
102
RTVSPropertyOp14
 70
     1
102
RTVSPropertyOp15
 70
     1
102
RTVSPropertyOp16
 70
     1
102
RTVSPropertyOp17
 70
     1
102
RTVSPropertyOp18
 70
     1
102
RTVSPropertyOp19
 70
     1
102
RTVSPropertyOp20
 70
     1
102
RTVSPropertyOp21
 70
     1
102
RTVSPropertyOp22
 70
     1
102
RTVSPropertyOp23
 70
     1
102
RTVSPropertyOp24
 70
     1
102
RTVSPropertyOp25
 70
     1
102
RTVSPropertyOp26
 70
     1
102
RTVSPropertyOp27
 70
     1
  0
XRECORD
  5
132
102
{ACAD_REACTORS
330
131
102
}
330
131
100
AcDbXrecord
280
     1
102
RTVSPropertyOp0
 70
     1
102
RTVSPropertyOp1
 70
     1
102
RTVSPropertyOp2
 70
     1
102
RTVSPropertyOp3
 70
     1
102
RTVSPropertyOp4
 70
     1
102
RTVSPropertyOp5
 70
     1
102
RTVSPropertyOp6
 70
     1
102
RTVSPropertyOp7
 70
     1
102
RTVSPropertyOp8
 70
     1
102
RTVSPropertyOp9
 70
     1
102
RTVSPropertyOp10
 70
     1
102
RTVSPropertyOp11
 70
     1
102
RTVSPropertyOp12
 70
     1
102
RTVSPropertyOp13
 70
     1
102
RTVSPropertyOp14
 70
     1
102
RTVSPropertyOp15
 70
     1
102
RTVSPropertyOp16
 70
     1
102
RTVSPropertyOp17
 70
     1
102
RTVSPropertyOp18
 70
     1
102
RTVSPropertyOp19
 70
     1
102
RTVSPropertyOp20
 70
     1
102
RTVSPropertyOp21
 70
     1
102
RTVSPropertyOp22
 70
     1
102
RTVSPropertyOp23
 70
     1
102
RTVSPropertyOp24
 70
     1
102
RTVSPropertyOp25
 70
     1
102
RTVSPropertyOp26
 70
     1
102
RTVSPropertyOp27
 70
     1
  0
XRECORD
  5
136
102
{ACAD_REACTORS
330
135
102
}
330
135
100
AcDbXrecord
280
     1
102
RTVSPropertyOp0
 70
     1
102
RTVSPropertyOp1
 70
     1
102
RTVSPropertyOp2
 70
     1
102
RTVSPropertyOp3
 70
     1
102
RTVSPropertyOp4
 70
     1
102
RTVSPropertyOp5
 70
     1
102
RTVSPropertyOp6
 70
     1
102
RTVSPropertyOp7
 70
     1
102
RTVSPropertyOp8
 70
     1
102
RTVSPropertyOp9
 70
     1
102
RTVSPropertyOp10
 70
     1
102
RTVSPropertyOp11
 70
     1
102
RTVSPropertyOp12
 70
     1
102
RTVSPropertyOp13
 70
     1
102
RTVSPropertyOp14
 70
     1
102
RTVSPropertyOp15
 70
     1
102
RTVSPropertyOp16
 70
     1
102
RTVSPropertyOp17
 70
     1
102
RTVSPropertyOp18
 70
     1
102
RTVSPropertyOp19
 70
     1
102
RTVSPropertyOp20
 70
     1
102
RTVSPropertyOp21
 70
     1
102
RTVSPropertyOp22
 70
     1
102
RTVSPropertyOp23
 70
     1
102
RTVSPropertyOp24
 70
     1
102
RTVSPropertyOp25
 70
     1
102
RTVSPropertyOp26
 70
     1
102
RTVSPropertyOp27
 70
     1
  0
XRECORD
  5
13E
102
{ACAD_REACTORS
330
13D
102
}
330
13D
100
AcDbXrecord
280
     1
102
RTVSPropertyOp0
 70
     1
102
RTVSPropertyOp1
 70
     1
102
RTVSPropertyOp2
 70
     1
102
RTVSPropertyOp3
 70
     1
102
RTVSPropertyOp4
 70
     1
102
RTVSPropertyOp5
 70
     1
102
RTVSPropertyOp6
 70
     1
102
RTVSPropertyOp7
 70
     1
102
RTVSPropertyOp8
 70
     1
102
RTVSPropertyOp9
 70
     1
102
RTVSPropertyOp10
 70
     1
102
RTVSPropertyOp11
 70
     1
102
RTVSPropertyOp12
 70
     1
102
RTVSPropertyOp13
 70
     1
102
RTVSPropertyOp14
 70
     1
102
RTVSPropertyOp15
 70
     1
102
RTVSPropertyOp16
 70
     1
102
RTVSPropertyOp17
 70
     1
102
RTVSPropertyOp18
 70
     1
102
RTVSPropertyOp19
 70
     1
102
RTVSPropertyOp20
 70
     1
102
RTVSPropertyOp21
 70
     1
102
RTVSPropertyOp22
 70
     1
102
RTVSPropertyOp23
 70
     1
102
RTVSPropertyOp24
 70
     1
102
RTVSPropertyOp25
 70
     1
102
RTVSPropertyOp26
 70
     1
102
RTVSPropertyOp27
 70
     1
  0
XRECORD
  5
146
102
{ACAD_REACTORS
330
145
102
}
330
145
100
AcDbXrecord
280
     1
102
RTVSPropertyOp0
 70
     1
102
RTVSPropertyOp1
 70
     1
102
RTVSPropertyOp2
 70
     1
102
RTVSPropertyOp3
 70
     1
102
RTVSPropertyOp4
 70
     1
102
RTVSPropertyOp5
 70
     1
102
RTVSPropertyOp6
 70
     1
102
RTVSPropertyOp7
 70
     1
102
RTVSPropertyOp8
 70
     1
102
RTVSPropertyOp9
 70
     1
102
RTVSPropertyOp10
 70
     1
102
RTVSPropertyOp11
 70
     1
102
RTVSPropertyOp12
 70
     1
102
RTVSPropertyOp13
 70
     1
102
RTVSPropertyOp14
 70
     1
102
RTVSPropertyOp15
 70
     1
102
RTVSPropertyOp16
 70
     1
102
RTVSPropertyOp17
 70
     1
102
RTVSPropertyOp18
 70
     1
102
RTVSPropertyOp19
 70
     1
102
RTVSPropertyOp20
 70
     1
102
RTVSPropertyOp21
 70
     1
102
RTVSPropertyOp22
 70
     1
102
RTVSPropertyOp23
 70
     1
102
RTVSPropertyOp24
 70
     1
102
RTVSPropertyOp25
 70
     1
102
RTVSPropertyOp26
 70
     1
102
RTVSPropertyOp27
 70
     1
  0
XRECORD
  5
13A
102
{ACAD_REACTORS
330
139
102
}
330
139
100
AcDbXrecord
280
     1
102
RTVSPropertyOp0
 70
     1
102
RTVSPropertyOp1
 70
     1
102
RTVSPropertyOp2
 70
     1
102
RTVSPropertyOp3
 70
     1
102
RTVSPropertyOp4
 70
     1
102
RTVSPropertyOp5
 70
     1
102
RTVSPropertyOp6
 70
     1
102
RTVSPropertyOp7
 70
     1
102
RTVSPropertyOp8
 70
     1
102
RTVSPropertyOp9
 70
     1
102
RTVSPropertyOp10
 70
     1
102
RTVSPropertyOp11
 70
     1
102
RTVSPropertyOp12
 70
     1
102
RTVSPropertyOp13
 70
     1
102
RTVSPropertyOp14
 70
     1
102
RTVSPropertyOp15
 70
     1
102
RTVSPropertyOp16
 70
     1
102
RTVSPropertyOp17
 70
     1
102
RTVSPropertyOp18
 70
     1
102
RTVSPropertyOp19
 70
     1
102
RTVSPropertyOp20
 70
     1
102
RTVSPropertyOp21
 70
     1
102
RTVSPropertyOp22
 70
     1
102
RTVSPropertyOp23
 70
     1
102
RTVSPropertyOp24
 70
     1
102
RTVSPropertyOp25
 70
     1
102
RTVSPropertyOp26
 70
     1
102
RTVSPropertyOp27
 70
     1
  0
XRECORD
  5
13C
102
{ACAD_REACTORS
330
13B
102
}
330
13B
100
AcDbXrecord
280
     1
102
RTVSPropertyOp0
 70
     1
102
RTVSPropertyOp1
 70
     1
102
RTVSPropertyOp2
 70
     1
102
RTVSPropertyOp3
 70
     1
102
RTVSPropertyOp4
 70
     1
102
RTVSPropertyOp5
 70
     1
102
RTVSPropertyOp6
 70
     1
102
RTVSPropertyOp7
 70
     1
102
RTVSPropertyOp8
 70
     1
102
RTVSPropertyOp9
 70
     1
102
RTVSPropertyOp10
 70
     1
102
RTVSPropertyOp11
 70
     1
102
RTVSPropertyOp12
 70
     1
102
RTVSPropertyOp13
 70
     1
102
RTVSPropertyOp14
 70
     1
102
RTVSPropertyOp15
 70
     1
102
RTVSPropertyOp16
 70
     1
102
RTVSPropertyOp17
 70
     1
102
RTVSPropertyOp18
 70
     1
102
RTVSPropertyOp19
 70
     1
102
RTVSPropertyOp20
 70
     1
102
RTVSPropertyOp21
 70
     1
102
RTVSPropertyOp22
 70
     1
102
RTVSPropertyOp23
 70
     1
102
RTVSPropertyOp24
 70
     1
102
RTVSPropertyOp25
 70
     1
102
RTVSPropertyOp26
 70
     1
102
RTVSPropertyOp27
 70
     1
  0
XRECORD
  5
144
102
{ACAD_REACTORS
330
143
102
}
330
143
100
AcDbXrecord
280
     1
102
RTVSPropertyOp0
 70
     1
102
RTVSPropertyOp1
 70
     1
102
RTVSPropertyOp2
 70
     1
102
RTVSPropertyOp3
 70
     1
102
RTVSPropertyOp4
 70
     1
102
RTVSPropertyOp5
 70
     1
102
RTVSPropertyOp6
 70
     1
102
RTVSPropertyOp7
 70
     1
102
RTVSPropertyOp8
 70
     1
102
RTVSPropertyOp9
 70
     1
102
RTVSPropertyOp10
 70
     1
102
RTVSPropertyOp11
 70
     1
102
RTVSPropertyOp12
 70
     1
102
RTVSPropertyOp13
 70
     1
102
RTVSPropertyOp14
 70
     1
102
RTVSPropertyOp15
 70
     1
102
RTVSPropertyOp16
 70
     1
102
RTVSPropertyOp17
 70
     1
102
RTVSPropertyOp18
 70
     1
102
RTVSPropertyOp19
 70
     1
102
RTVSPropertyOp20
 70
     1
102
RTVSPropertyOp21
 70
     1
102
RTVSPropertyOp22
 70
     1
102
RTVSPropertyOp23
 70
     1
102
RTVSPropertyOp24
 70
     1
102
RTVSPropertyOp25
 70
     1
102
RTVSPropertyOp26
 70
     1
102
RTVSPropertyOp27
 70
     1
  0
XRECORD
  5
128
102
{ACAD_REACTORS
330
127
102
}
330
127
100
AcDbXrecord
280
     1
102
RTVSPropertyOp0
 70
     1
102
RTVSPropertyOp1
 70
     1
102
RTVSPropertyOp2
 70
     1
102
RTVSPropertyOp3
 70
     1
102
RTVSPropertyOp4
 70
     1
102
RTVSPropertyOp5
 70
     1
102
RTVSPropertyOp6
 70
     1
102
RTVSPropertyOp7
 70
     1
102
RTVSPropertyOp8
 70
     1
102
RTVSPropertyOp9
 70
     1
102
RTVSPropertyOp10
 70
     1
102
RTVSPropertyOp11
 70
     1
102
RTVSPropertyOp12
 70
     1
102
RTVSPropertyOp13
 70
     1
102
RTVSPropertyOp14
 70
     1
102
RTVSPropertyOp15
 70
     1
102
RTVSPropertyOp16
 70
     1
102
RTVSPropertyOp17
 70
     1
102
RTVSPropertyOp18
 70
     1
102
RTVSPropertyOp19
 70
     1
102
RTVSPropertyOp20
 70
     1
102
RTVSPropertyOp21
 70
     1
102
RTVSPropertyOp22
 70
     1
102
RTVSPropertyOp23
 70
     1
102
RTVSPropertyOp24
 70
     1
102
RTVSPropertyOp25
 70
     1
102
RTVSPropertyOp26
 70
     1
102
RTVSPropertyOp27
 70
     1
  0
XRECORD
  5
12A
102
{ACAD_REACTORS
330
129
102
}
330
129
100
AcDbXrecord
280
     1
102
RTVSPropertyOp0
 70
     1
102
RTVSPropertyOp1
 70
     1
102
RTVSPropertyOp2
 70
     1
102
RTVSPropertyOp3
 70
     1
102
RTVSPropertyOp4
 70
     1
102
RTVSPropertyOp5
 70
     1
102
RTVSPropertyOp6
 70
     1
102
RTVSPropertyOp7
 70
     1
102
RTVSPropertyOp8
 70
     1
102
RTVSPropertyOp9
 70
     1
102
RTVSPropertyOp10
 70
     1
102
RTVSPropertyOp11
 70
     1
102
RTVSPropertyOp12
 70
     1
102
RTVSPropertyOp13
 70
     1
102
RTVSPropertyOp14
 70
     1
102
RTVSPropertyOp15
 70
     1
102
RTVSPropertyOp16
 70
     1
102
RTVSPropertyOp17
 70
     1
102
RTVSPropertyOp18
 70
     1
102
RTVSPropertyOp19
 70
     1
102
RTVSPropertyOp20
 70
     1
102
RTVSPropertyOp21
 70
     1
102
RTVSPropertyOp22
 70
     1
102
RTVSPropertyOp23
 70
     1
102
RTVSPropertyOp24
 70
     1
102
RTVSPropertyOp25
 70
     1
102
RTVSPropertyOp26
 70
     1
102
RTVSPropertyOp27
 70
     1
  0
XRECORD
  5
12C
102
{ACAD_REACTORS
330
12B
102
}
330
12B
100
AcDbXrecord
280
     1
102
RTVSPropertyOp0
 70
     1
102
RTVSPropertyOp1
 70
     1
102
RTVSPropertyOp2
 70
     1
102
RTVSPropertyOp3
 70
     1
102
RTVSPropertyOp4
 70
     1
102
RTVSPropertyOp5
 70
     1
102
RTVSPropertyOp6
 70
     1
102
RTVSPropertyOp7
 70
     1
102
RTVSPropertyOp8
 70
     1
102
RTVSPropertyOp9
 70
     1
102
RTVSPropertyOp10
 70
     1
102
RTVSPropertyOp11
 70
     1
102
RTVSPropertyOp12
 70
     1
102
RTVSPropertyOp13
 70
     1
102
RTVSPropertyOp14
 70
     1
102
RTVSPropertyOp15
 70
     1
102
RTVSPropertyOp16
 70
     1
102
RTVSPropertyOp17
 70
     1
102
RTVSPropertyOp18
 70
     1
102
RTVSPropertyOp19
 70
     1
102
RTVSPropertyOp20
 70
     1
102
RTVSPropertyOp21
 70
     1
102
RTVSPropertyOp22
 70
     1
102
RTVSPropertyOp23
 70
     1
102
RTVSPropertyOp24
 70
     1
102
RTVSPropertyOp25
 70
     1
102
RTVSPropertyOp26
 70
     1
102
RTVSPropertyOp27
 70
     1
  0
XRECORD
  5
12E
102
{ACAD_REACTORS
330
12D
102
}
330
12D
100
AcDbXrecord
280
     1
102
RTVSPropertyOp0
 70
     1
102
RTVSPropertyOp1
 70
     1
102
RTVSPropertyOp2
 70
     1
102
RTVSPropertyOp3
 70
     1
102
RTVSPropertyOp4
 70
     1
102
RTVSPropertyOp5
 70
     1
102
RTVSPropertyOp6
 70
     1
102
RTVSPropertyOp7
 70
     1
102
RTVSPropertyOp8
 70
     1
102
RTVSPropertyOp9
 70
     1
102
RTVSPropertyOp10
 70
     1
102
RTVSPropertyOp11
 70
     1
102
RTVSPropertyOp12
 70
     1
102
RTVSPropertyOp13
 70
     1
102
RTVSPropertyOp14
 70
     1
102
RTVSPropertyOp15
 70
     1
102
RTVSPropertyOp16
 70
     1
102
RTVSPropertyOp17
 70
     1
102
RTVSPropertyOp18
 70
     1
102
RTVSPropertyOp19
 70
     1
102
RTVSPropertyOp20
 70
     1
102
RTVSPropertyOp21
 70
     1
102
RTVSPropertyOp22
 70
     1
102
RTVSPropertyOp23
 70
     1
102
RTVSPropertyOp24
 70
     1
102
RTVSPropertyOp25
 70
     1
102
RTVSPropertyOp26
 70
     1
102
RTVSPropertyOp27
 70
     1
  0
XRECORD
  5
142
102
{ACAD_REACTORS
330
141
102
}
330
141
100
AcDbXrecord
280
     1
102
RTVSPropertyOp0
 70
     1
102
RTVSPropertyOp1
 70
     1
102
RTVSPropertyOp2
 70
     1
102
RTVSPropertyOp3
 70
     1
102
RTVSPropertyOp4
 70
     1
102
RTVSPropertyOp5
 70
     1
102
RTVSPropertyOp6
 70
     1
102
RTVSPropertyOp7
 70
     1
102
RTVSPropertyOp8
 70
     1
102
RTVSPropertyOp9
 70
     1
102
RTVSPropertyOp10
 70
     1
102
RTVSPropertyOp11
 70
     1
102
RTVSPropertyOp12
 70
     1
102
RTVSPropertyOp13
 70
     1
102
RTVSPropertyOp14
 70
     1
102
RTVSPropertyOp15
 70
     1
102
RTVSPropertyOp16
 70
     1
102
RTVSPropertyOp17
 70
     1
102
RTVSPropertyOp18
 70
     1
102
RTVSPropertyOp19
 70
     1
102
RTVSPropertyOp20
 70
     1
102
RTVSPropertyOp21
 70
     1
102
RTVSPropertyOp22
 70
     1
102
RTVSPropertyOp23
 70
     1
102
RTVSPropertyOp24
 70
     1
102
RTVSPropertyOp25
 70
     1
102
RTVSPropertyOp26
 70
     1
102
RTVSPropertyOp27
 70
     1
  0
XRECORD
  5
138
102
{ACAD_REACTORS
330
137
102
}
330
137
100
AcDbXrecord
280
     1
102
RTVSPropertyOp0
 70
     1
102
RTVSPropertyOp1
 70
     1
102
RTVSPropertyOp2
 70
     1
102
RTVSPropertyOp3
 70
     1
102
RTVSPropertyOp4
 70
     1
102
RTVSPropertyOp5
 70
     1
102
RTVSPropertyOp6
 70
     1
102
RTVSPropertyOp7
 70
     1
102
RTVSPropertyOp8
 70
     1
102
RTVSPropertyOp9
 70
     1
102
RTVSPropertyOp10
 70
     1
102
RTVSPropertyOp11
 70
     1
102
RTVSPropertyOp12
 70
     1
102
RTVSPropertyOp13
 70
     1
102
RTVSPropertyOp14
 70
     1
102
RTVSPropertyOp15
 70
     1
102
RTVSPropertyOp16
 70
     1
102
RTVSPropertyOp17
 70
     1
102
RTVSPropertyOp18
 70
     1
102
RTVSPropertyOp19
 70
     1
102
RTVSPropertyOp20
 70
     1
102
RTVSPropertyOp21
 70
     1
102
RTVSPropertyOp22
 70
     1
102
RTVSPropertyOp23
 70
     1
102
RTVSPropertyOp24
 70
     1
102
RTVSPropertyOp25
 70
     1
102
RTVSPropertyOp26
 70
     1
102
RTVSPropertyOp27
 70
     1
  0
XRECORD
  5
140
102
{ACAD_REACTORS
330
13F
102
}
330
13F
100
AcDbXrecord
280
     1
102
RTVSPropertyOp0
 70
     1
102
RTVSPropertyOp1
 70
     1
102
RTVSPropertyOp2
 70
     1
102
RTVSPropertyOp3
 70
     1
102
RTVSPropertyOp4
 70
     1
102
RTVSPropertyOp5
 70
     1
102
RTVSPropertyOp6
 70
     1
102
RTVSPropertyOp7
 70
     1
102
RTVSPropertyOp8
 70
     1
102
RTVSPropertyOp9
 70
     1
102
RTVSPropertyOp10
 70
     1
102
RTVSPropertyOp11
 70
     1
102
RTVSPropertyOp12
 70
     1
102
RTVSPropertyOp13
 70
     1
102
RTVSPropertyOp14
 70
     1
102
RTVSPropertyOp15
 70
     1
102
RTVSPropertyOp16
 70
     1
102
RTVSPropertyOp17
 70
     1
102
RTVSPropertyOp18
 70
     1
102
RTVSPropertyOp19
 70
     1
102
RTVSPropertyOp20
 70
     1
102
RTVSPropertyOp21
 70
     1
102
RTVSPropertyOp22
 70
     1
102
RTVSPropertyOp23
 70
     1
102
RTVSPropertyOp24
 70
     1
102
RTVSPropertyOp25
 70
     1
102
RTVSPropertyOp26
 70
     1
102
RTVSPropertyOp27
 70
     1
  0
ENDSEC
  0
EOF
