  0
SECTION
  2
HEADER
  9
$ACADVER
  1
AC1014
  9
$HANDSEED
  5
FFFF
  9
$MEASUREMENT
 70
     1
  0
ENDSEC
  0
SECTION
  2
TABLES
  0
TABLE
  2
VPORT
  5
8
330
0
100
AcDbSymbolTable
 70
     4
  0
VPORT
  5
2E
330
8
100
AcDbSymbolTableRecord
100
AcDbViewportTableRecord
  2
*ACTIVE
 70
     0
 10
0.0
 20
0.0
 11
1.0
 21
1.0
 12
210.0
 22
148.5
 13
0.0
 23
0.0
 14
10.0
 24
10.0
 15
10.0
 25
10.0
 16
0.0
 26
0.0
 36
1.0
 17
0.0
 27
0.0
 37
0.0
 40
341.0
 41
1.24
 42
50.0
 43
0.0
 44
0.0
 50
0.0
 51
0.0
 71
     0
 72
   100
 73
     1
 74
     3
 75
     0
 76
     0
 77
     0
 78
     0
  0
ENDTAB
  0
TABLE
  2
LTYPE
  5
5
330
0
100
AcDbSymbolTable
 70
     1
  0
LTYPE
  5
14
330
5
100
AcDbSymbolTableRecord
100
AcDbLinetypeTableRecord
  2
BYBLOCK
 70
     0
  3

 72
    65
 73
     0
 40
0.0
  0
LTYPE
  5
15
330
5
100
AcDbSymbolTableRecord
100
AcDbLinetypeTableRecord
  2
BYLAYER
 70
     0
  3

 72
    65
 73
     0
 40
0.0
  0
LTYPE
  5
16
330
5
100
AcDbSymbolTableRecord
100
AcDbLinetypeTableRecord
  2
CONTINUOUS
 70
     0
  3
Solid line
 72
    65
 73
     0
 40
0.0
  0
ENDTAB
  0
TABLE
  2
LAYER
  5
2
100
AcDbSymbolTable
 70
2
  0
LAYER
  5
50
100
AcDbSymbolTableRecord
100
AcDbLayerTableRecord
  2
0
 70
0
  6
CONTINUOUS
  0
LAYER
  5
51
100
AcDbSymbolTableRecord
100
AcDbLayerTableRecord
  2
Laag_1
 70
0
  6
CONTINUOUS
  0
ENDTAB
  0
TABLE
  2
STYLE
  5
3
330
0
100
AcDbSymbolTable
 70
     1
  0
STYLE
  5
11
330
3
100
AcDbSymbolTableRecord
100
AcDbTextStyleTableRecord
  2
STANDARD
 70
     0
 40
0.0
 41
1.0
 50
0.0
 71
     0
 42
2.5
  3
txt
  4

  0
ENDTAB
  0
TABLE
  2
VIEW
  5
6
330
0
100
AcDbSymbolTable
 70
     0
  0
ENDTAB
  0
TABLE
  2
UCS
  5
7
330
0
100
AcDbSymbolTable
 70
     0
  0
ENDTAB
  0
TABLE
  2
APPID
  5
9
330
0
100
AcDbSymbolTable
 70
     2
  0
APPID
  5
12
330
9
100
AcDbSymbolTableRecord
100
AcDbRegAppTableRecord
  2
ACAD
 70
     0
  0
ENDTAB
  0
TABLE
  2
DIMSTYLE
  5
A
330
0
100
AcDbSymbolTable
 70
     1
  0
DIMSTYLE
105
27
330
A
100
AcDbSymbolTableRecord
100
AcDbDimStyleTableRecord
  2
ISO-25
 70
     0
  3

  4

  5

  6

  7

 40
1.0
 41
2.5
 42
0.625
 43
3.75
 44
1.25
 45
0.0
 46
0.0
 47
0.0
 48
0.0
140
2.5
141
2.5
142
0.0
143
0.03937007874016
144
1.0
145
0.0
146
1.0
147
0.625
 71
     0
 72
     0
 73
     0
 74
     0
 75
     0
 76
     0
 77
     1
 78
     8
170
     0
171
     3
172
     1
173
     0
174
     0
175
     0
176
     0
177
     0
178
     0
270
     2
271
     2
272
     2
273
     2
274
     3
340
11
275
     0
280
     0
281
     0
282
     0
283
     0
284
     8
285
     0
286
     0
287
     3
288
     0
  0
ENDTAB
  0
TABLE
  2
BLOCK_RECORD
  5
1
330
0
100
AcDbSymbolTable
 70
     1
  0
BLOCK_RECORD
  5
1F
330
1
100
AcDbSymbolTableRecord
100
AcDbBlockTableRecord
  2
*MODEL_SPACE
  0
BLOCK_RECORD
  5
1B
330
1
100
AcDbSymbolTableRecord
100
AcDbBlockTableRecord
  2
*PAPER_SPACE
  0
ENDTAB
  0
ENDSEC
  0
SECTION
  2
BLOCKS
  0
BLOCK
  5
20
330
1F
100
AcDbEntity
  8
0
100
AcDbBlockBegin
  2
*MODEL_SPACE
 70
     0
 10
0.0
 20
0.0
 30
0.0
  3
*MODEL_SPACE
  1

  0
ENDBLK
  5
21
330
1F
100
AcDbEntity
  8
0
100
AcDbBlockEnd
  0
BLOCK
  5
1C
330
1B
100
AcDbEntity
 67
     1
  8
0
100
AcDbBlockBegin
  2
*PAPER_SPACE
  1

  0
ENDBLK
  5
1D
330
1B
100
AcDbEntity
 67
     1
  8
0
100
AcDbBlockEnd
  0
ENDSEC
  0
SECTION
  2
ENTITIES
  0
SPLINE
  5
100
100
AcDbEntity
  8
Laag_1
 62
5
100
AcDbSpline
 70
8
 71
3
 72
8
 73
4
 74
0
 40
0
 40
0
 40
0
 40
0
 40
1
 40
1
 40
1
 40
1
 10
68.722147
 20
166.914289
 30
0.0
 10
68.722147
 20
159.465499
 30
0.0
 10
62.683709
 20
153.427062
 30
0.0
 10
55.234919
 20
153.427062
 30
0.0
  0
SPLINE
  5
101
100
AcDbEntity
  8
Laag_1
 62
5
100
AcDbSpline
 70
8
 71
3
 72
8
 73
4
 74
0
 40
0
 40
0
 40
0
 40
0
 40
1
 40
1
 40
1
 40
1
 10
55.234919
 20
153.427062
 30
0.0
 10
47.786129
 20
153.427062
 30
0.0
 10
41.747691
 20
159.465499
 30
0.0
 10
41.747691
 20
166.914289
 30
0.0
  0
SPLINE
  5
102
100
AcDbEntity
  8
Laag_1
 62
5
100
AcDbSpline
 70
8
 71
3
 72
8
 73
4
 74
0
 40
0
 40
0
 40
0
 40
0
 40
1
 40
1
 40
1
 40
1
 10
41.747691
 20
166.914289
 30
0.0
 10
41.747691
 20
174.363080
 30
0.0
 10
47.786129
 20
180.401517
 30
0.0
 10
55.234919
 20
180.401517
 30
0.0
  0
SPLINE
  5
103
100
AcDbEntity
  8
Laag_1
 62
5
100
AcDbSpline
 70
8
 71
3
 72
8
 73
4
 74
0
 40
0
 40
0
 40
0
 40
0
 40
1
 40
1
 40
1
 40
1
 10
55.234919
 20
180.401517
 30
0.0
 10
62.683709
 20
180.401517
 30
0.0
 10
68.722147
 20
174.363080
 30
0.0
 10
68.722147
 20
166.914289
 30
0.0
  0
LINE
  5
104
100
AcDbEntity
  8
Laag_1
 62
7
100
AcDbLine
 10
68.722147
 20
166.914289
 30
0.0
 11
68.722147
 21
166.914289
 31
0.0
  0
SPLINE
  5
105
100
AcDbEntity
  8
Laag_1
 62
5
100
AcDbSpline
 70
8
 71
3
 72
8
 73
4
 74
0
 40
0
 40
0
 40
0
 40
0
 40
1
 40
1
 40
1
 40
1
 10
77.580947
 20
166.914290
 30
0.0
 10
77.580947
 20
154.572919
 30
0.0
 10
67.576290
 20
144.568261
 30
0.0
 10
55.234919
 20
144.568261
 30
0.0
  0
SPLINE
  5
106
100
AcDbEntity
  8
Laag_1
 62
5
100
AcDbSpline
 70
8
 71
3
 72
8
 73
4
 74
0
 40
0
 40
0
 40
0
 40
0
 40
1
 40
1
 40
1
 40
1
 10
55.234919
 20
144.568261
 30
0.0
 10
42.893548
 20
144.568261
 30
0.0
 10
32.888891
 20
154.572919
 30
0.0
 10
32.888891
 20
166.914290
 30
0.0
  0
SPLINE
  5
107
100
AcDbEntity
  8
Laag_1
 62
5
100
AcDbSpline
 70
8
 71
3
 72
8
 73
4
 74
0
 40
0
 40
0
 40
0
 40
0
 40
1
 40
1
 40
1
 40
1
 10
32.888891
 20
166.914290
 30
0.0
 10
32.888891
 20
179.255660
 30
0.0
 10
42.893549
 20
189.260317
 30
0.0
 10
55.234919
 20
189.260318
 30
0.0
  0
SPLINE
  5
108
100
AcDbEntity
  8
Laag_1
 62
5
100
AcDbSpline
 70
8
 71
3
 72
8
 73
4
 74
0
 40
0
 40
0
 40
0
 40
0
 40
1
 40
1
 40
1
 40
1
 10
55.234919
 20
189.260318
 30
0.0
 10
67.576290
 20
189.260317
 30
0.0
 10
77.580947
 20
179.255660
 30
0.0
 10
77.580947
 20
166.914289
 30
0.0
  0
LINE
  5
109
100
AcDbEntity
  8
Laag_1
 62
7
100
AcDbLine
 10
77.580947
 20
166.914289
 30
0.0
 11
77.580947
 21
166.914289
 31
0.0
  0
SPLINE
  5
10a
100
AcDbEntity
  8
Laag_1
 62
1
100
AcDbSpline
 70
8
 71
3
 72
8
 73
4
 74
0
 40
0
 40
0
 40
0
 40
0
 40
1
 40
1
 40
1
 40
1
 10
61.249852
 20
155.068573
 30
0.0
 10
54.996567
 20
151.521446
 30
0.0
 10
46.843265
 20
153.854437
 30
0.0
 10
43.326973
 20
160.140466
 30
0.0
  0
SPLINE
  5
10b
100
AcDbEntity
  8
Laag_1
 62
1
100
AcDbSpline
 70
8
 71
3
 72
8
 73
4
 74
0
 40
0
 40
0
 40
0
 40
0
 40
1
 40
1
 40
1
 40
1
 10
43.326973
 20
160.140466
 30
0.0
 10
39.764199
 20
166.509587
 30
0.0
 10
42.107893
 20
174.813662
 30
0.0
 10
48.422534
 20
178.394683
 30
0.0
  0
SPLINE
  5
10c
100
AcDbEntity
  8
Laag_1
 62
1
100
AcDbSpline
 70
8
 71
3
 72
8
 73
4
 74
0
 40
0
 40
0
 40
0
 40
0
 40
1
 40
1
 40
1
 40
1
 10
66.757385
 20
173.204524
 30
0.0
 10
70.400788
 20
166.689635
 30
0.0
 10
68.003223
 20
158.196016
 30
0.0
 10
61.543905
 20
154.533848
 30
0.0
  0
SPLINE
  5
10d
100
AcDbEntity
  8
Laag_1
 62
1
100
AcDbSpline
 70
8
 71
3
 72
8
 73
4
 74
0
 40
0
 40
0
 40
0
 40
0
 40
1
 40
1
 40
1
 40
1
 10
61.543905
 20
154.533848
 30
0.0
 10
55.001089
 20
150.824343
 30
0.0
 10
46.471315
 20
153.265821
 30
0.0
 10
42.793849
 20
159.843214
 30
0.0
  0
SPLINE
  5
10e
100
AcDbEntity
  8
Laag_1
 62
1
100
AcDbSpline
 70
8
 71
3
 72
8
 73
4
 74
0
 40
0
 40
0
 40
0
 40
0
 40
1
 40
1
 40
1
 40
1
 10
42.793849
 20
159.843214
 30
0.0
 10
39.069192
 20
166.505012
 30
0.0
 10
41.521050
 20
175.189653
 30
0.0
 10
48.126178
 20
178.933593
 30
0.0
  0
SPLINE
  5
10f
100
AcDbEntity
  8
Laag_1
 62
1
100
AcDbSpline
 70
8
 71
3
 72
8
 73
4
 74
0
 40
0
 40
0
 40
0
 40
0
 40
1
 40
1
 40
1
 40
1
 10
48.126178
 20
178.933593
 30
0.0
 10
54.815455
 20
182.725228
 30
0.0
 10
63.535665
 20
180.228869
 30
0.0
 10
67.294649
 20
173.504086
 30
0.0
  0
SPLINE
  5
110
100
AcDbEntity
  8
Laag_1
 62
1
100
AcDbSpline
 70
8
 71
3
 72
8
 73
4
 74
0
 40
0
 40
0
 40
0
 40
0
 40
1
 40
1
 40
1
 40
1
 10
67.294649
 20
173.504086
 30
0.0
 10
71.101176
 20
166.694246
 30
0.0
 10
68.594605
 20
157.817121
 30
0.0
 10
61.842543
 20
153.990785
 30
0.0
  0
SPLINE
  5
111
100
AcDbEntity
  8
Laag_1
 62
1
100
AcDbSpline
 70
8
 71
3
 72
8
 73
4
 74
0
 40
0
 40
0
 40
0
 40
0
 40
1
 40
1
 40
1
 40
1
 10
61.842543
 20
153.990785
 30
0.0
 10
55.005691
 20
150.116399
 30
0.0
 10
46.093594
 20
152.668061
 30
0.0
 10
42.252472
 20
159.541361
 30
0.0
  0
SPLINE
  5
112
100
AcDbEntity
  8
Laag_1
 62
1
100
AcDbSpline
 70
8
 71
3
 72
8
 73
4
 74
0
 40
0
 40
0
 40
0
 40
0
 40
1
 40
1
 40
1
 40
1
 10
42.252472
 20
159.541361
 30
0.0
 10
38.363458
 20
166.500362
 30
0.0
 10
40.925158
 20
175.571433
 30
0.0
 10
47.825271
 20
179.480783
 30
0.0
  0
SPLINE
  5
113
100
AcDbEntity
  8
Laag_1
 62
1
100
AcDbSpline
 70
8
 71
3
 72
8
 73
4
 74
0
 40
0
 40
0
 40
0
 40
0
 40
1
 40
1
 40
1
 40
1
 10
47.825271
 20
179.480783
 30
0.0
 10
54.810815
 20
183.438535
 30
0.0
 10
63.916240
 20
180.831152
 30
0.0
 10
67.840110
 20
173.808217
 30
0.0
  0
SPLINE
  5
114
100
AcDbEntity
  8
Laag_1
 62
1
100
AcDbSpline
 70
8
 71
3
 72
8
 73
4
 74
0
 40
0
 40
0
 40
0
 40
0
 40
1
 40
1
 40
1
 40
1
 10
67.840110
 20
173.808217
 30
0.0
 10
71.812223
 20
166.698938
 30
0.0
 10
69.194977
 20
157.432475
 30
0.0
 10
62.145706
 20
153.439493
 30
0.0
  0
SPLINE
  5
115
100
AcDbEntity
  8
Laag_1
 62
1
100
AcDbSpline
 70
8
 71
3
 72
8
 73
4
 74
0
 40
0
 40
0
 40
0
 40
0
 40
1
 40
1
 40
1
 40
1
 10
62.145706
 20
153.439493
 30
0.0
 10
55.010366
 20
149.397761
 30
0.0
 10
45.710184
 20
152.061280
 30
0.0
 10
41.702954
 20
159.234967
 30
0.0
  0
SPLINE
  5
116
100
AcDbEntity
  8
Laag_1
 62
1
100
AcDbSpline
 70
8
 71
3
 72
8
 73
4
 74
0
 40
0
 40
0
 40
0
 40
0
 40
1
 40
1
 40
1
 40
1
 10
41.702954
 20
159.234967
 30
0.0
 10
37.647137
 20
166.495632
 30
0.0
 10
40.320338
 20
175.958925
 30
0.0
 10
47.519869
 20
180.036149
 30
0.0
  0
SPLINE
  5
117
100
AcDbEntity
  8
Laag_1
 62
1
100
AcDbSpline
 70
8
 71
3
 72
8
 73
4
 74
0
 40
0
 40
0
 40
0
 40
0
 40
1
 40
1
 40
1
 40
1
 10
47.519869
 20
180.036149
 30
0.0
 10
54.806101
 20
184.162470
 30
0.0
 10
64.302469
 20
181.442400
 30
0.0
 10
68.393661
 20
174.116861
 30
0.0
  0
SPLINE
  5
118
100
AcDbEntity
  8
Laag_1
 62
1
100
AcDbSpline
 70
8
 71
3
 72
8
 73
4
 74
0
 40
0
 40
0
 40
0
 40
0
 40
1
 40
1
 40
1
 40
1
 10
68.393661
 20
174.116861
 30
0.0
 10
72.533783
 20
166.703704
 30
0.0
 10
69.804220
 20
157.042153
 30
0.0
 10
62.453333
 20
152.880083
 30
0.0
  0
SPLINE
  5
119
100
AcDbEntity
  8
Laag_1
 62
1
100
AcDbSpline
 70
8
 71
3
 72
8
 73
4
 74
0
 40
0
 40
0
 40
0
 40
0
 40
1
 40
1
 40
1
 40
1
 10
62.453333
 20
152.880083
 30
0.0
 10
55.015119
 20
148.668568
 30
0.0
 10
45.321152
 20
151.445596
 30
0.0
 10
41.145398
 20
158.924089
 30
0.0
  0
SPLINE
  5
11a
100
AcDbEntity
  8
Laag_1
 62
1
100
AcDbSpline
 70
8
 71
3
 72
8
 73
4
 74
0
 40
0
 40
0
 40
0
 40
0
 40
1
 40
1
 40
1
 40
1
 10
41.145398
 20
158.924089
 30
0.0
 10
36.920368
 20
166.490827
 30
0.0
 10
39.706703
 20
176.352057
 30
0.0
 10
47.210031
 20
180.599582
 30
0.0
  0
SPLINE
  5
11b
100
AcDbEntity
  8
Laag_1
 62
1
100
AcDbSpline
 70
8
 71
3
 72
8
 73
4
 74
0
 40
0
 40
0
 40
0
 40
0
 40
1
 40
1
 40
1
 40
1
 10
47.210031
 20
180.599582
 30
0.0
 10
54.801310
 20
184.896892
 30
0.0
 10
64.694281
 20
182.062494
 30
0.0
 10
68.955198
 20
174.429954
 30
0.0
  0
SPLINE
  5
11c
100
AcDbEntity
  8
Laag_1
 62
1
100
AcDbSpline
 70
8
 71
3
 72
8
 73
4
 74
0
 40
0
 40
0
 40
0
 40
0
 40
1
 40
1
 40
1
 40
1
 10
68.955198
 20
174.429954
 30
0.0
 10
73.265727
 20
166.708547
 30
0.0
 10
70.422221
 20
156.646230
 30
0.0
 10
62.765369
 20
152.312653
 30
0.0
  0
SPLINE
  5
11d
100
AcDbEntity
  8
Laag_1
 62
1
100
AcDbSpline
 70
8
 71
3
 72
8
 73
4
 74
0
 40
0
 40
0
 40
0
 40
0
 40
1
 40
1
 40
1
 40
1
 10
62.765369
 20
152.312653
 30
0.0
 10
55.019948
 20
147.928952
 30
0.0
 10
44.926575
 20
150.821120
 30
0.0
 10
40.579902
 20
158.608787
 30
0.0
  0
SPLINE
  5
11e
100
AcDbEntity
  8
Laag_1
 62
1
100
AcDbSpline
 70
8
 71
3
 72
8
 73
4
 74
0
 40
0
 40
0
 40
0
 40
0
 40
1
 40
1
 40
1
 40
1
 10
40.579902
 20
158.608787
 30
0.0
 10
36.183279
 20
166.485948
 30
0.0
 10
39.084362
 20
176.750757
 30
0.0
 10
46.895811
 20
181.170981
 30
0.0
  0
SPLINE
  5
11f
100
AcDbEntity
  8
Laag_1
 62
1
100
AcDbSpline
 70
8
 71
3
 72
8
 73
4
 74
0
 40
0
 40
0
 40
0
 40
0
 40
1
 40
1
 40
1
 40
1
 10
46.895811
 20
181.170981
 30
0.0
 10
54.796445
 20
185.641667
 30
0.0
 10
65.091605
 20
182.691323
 30
0.0
 10
69.524624
 20
174.747449
 30
0.0
  0
SPLINE
  5
120
100
AcDbEntity
  8
Laag_1
 62
1
100
AcDbSpline
 70
8
 71
3
 72
8
 73
4
 74
0
 40
0
 40
0
 40
0
 40
0
 40
1
 40
1
 40
1
 40
1
 10
69.524624
 20
174.747449
 30
0.0
 10
74.007926
 20
166.713463
 30
0.0
 10
71.048872
 20
156.244772
 30
0.0
 10
63.081759
 20
151.737307
 30
0.0
  0
SPLINE
  5
121
100
AcDbEntity
  8
Laag_1
 62
1
100
AcDbSpline
 70
8
 71
3
 72
8
 73
4
 74
0
 40
0
 40
0
 40
0
 40
0
 40
1
 40
1
 40
1
 40
1
 10
63.081759
 20
151.737307
 30
0.0
 10
55.024849
 20
147.179043
 30
0.0
 10
44.526520
 20
150.187964
 30
0.0
 10
40.006569
 20
158.289116
 30
0.0
  0
SPLINE
  5
122
100
AcDbEntity
  8
Laag_1
 62
1
100
AcDbSpline
 70
8
 71
3
 72
8
 73
4
 74
0
 40
0
 40
0
 40
0
 40
0
 40
1
 40
1
 40
1
 40
1
 10
40.006569
 20
158.289116
 30
0.0
 10
35.436003
 20
166.480994
 30
0.0
 10
38.453428
 20
177.154957
 30
0.0
 10
46.577265
 20
181.750246
 30
0.0
  0
SPLINE
  5
123
100
AcDbEntity
  8
Laag_1
 62
1
100
AcDbSpline
 70
8
 71
3
 72
8
 73
4
 74
0
 40
0
 40
0
 40
0
 40
0
 40
1
 40
1
 40
1
 40
1
 10
46.577265
 20
181.750246
 30
0.0
 10
54.791509
 20
186.396676
 30
0.0
 10
65.494377
 20
183.328783
 30
0.0
 10
70.101839
 20
175.069287
 30
0.0
  0
SPLINE
  5
124
100
AcDbEntity
  8
Laag_1
 62
1
100
AcDbSpline
 70
8
 71
3
 72
8
 73
4
 74
0
 40
0
 40
0
 40
0
 40
0
 40
1
 40
1
 40
1
 40
1
 10
70.101839
 20
175.069287
 30
0.0
 10
74.760254
 20
166.718453
 30
0.0
 10
71.684066
 20
155.837845
 30
0.0
 10
63.402448
 20
151.154141
 30
0.0
  0
SPLINE
  5
125
100
AcDbEntity
  8
Laag_1
 62
1
100
AcDbSpline
 70
8
 71
3
 72
8
 73
4
 74
0
 40
0
 40
0
 40
0
 40
0
 40
1
 40
1
 40
1
 40
1
 10
63.402448
 20
151.154141
 30
0.0
 10
55.029821
 20
146.418965
 30
0.0
 10
44.121050
 20
149.546228
 30
0.0
 10
39.425492
 20
157.965126
 30
0.0
  0
SPLINE
  5
126
100
AcDbEntity
  8
Laag_1
 62
1
100
AcDbSpline
 70
8
 71
3
 72
8
 73
4
 74
0
 40
0
 40
0
 40
0
 40
0
 40
1
 40
1
 40
1
 40
1
 10
39.425492
 20
157.965126
 30
0.0
 10
34.678654
 20
166.475967
 30
0.0
 10
37.813997
 20
177.564589
 30
0.0
 10
46.254444
 20
182.337291
 30
0.0
  0
SPLINE
  5
127
100
AcDbEntity
  8
Laag_1
 62
1
100
AcDbSpline
 70
8
 71
3
 72
8
 73
4
 74
0
 40
0
 40
0
 40
0
 40
0
 40
1
 40
1
 40
1
 40
1
 10
46.254444
 20
182.337291
 30
0.0
 10
54.786498
 20
187.161794
 30
0.0
 10
65.902528
 20
183.974771
 30
0.0
 10
70.686757
 20
175.395418
 30
0.0
  0
SPLINE
  5
128
100
AcDbEntity
  8
Laag_1
 62
1
100
AcDbSpline
 70
8
 71
3
 72
8
 73
4
 74
0
 40
0
 40
0
 40
0
 40
0
 40
1
 40
1
 40
1
 40
1
 10
70.686757
 20
175.395418
 30
0.0
 10
75.522592
 20
166.723515
 30
0.0
 10
72.327705
 20
155.425519
 30
0.0
 10
63.727389
 20
150.563244
 30
0.0
  0
SPLINE
  5
129
100
AcDbEntity
  8
Laag_1
 62
1
100
AcDbSpline
 70
8
 71
3
 72
8
 73
4
 74
0
 40
0
 40
0
 40
0
 40
0
 40
1
 40
1
 40
1
 40
1
 10
63.727389
 20
150.563244
 30
0.0
 10
55.034867
 20
145.648839
 30
0.0
 10
43.710232
 20
148.896014
 30
0.0
 10
38.836762
 20
157.636868
 30
0.0
  0
SPLINE
  5
12a
100
AcDbEntity
  8
Laag_1
 62
1
100
AcDbSpline
 70
8
 71
3
 72
8
 73
4
 74
0
 40
0
 40
0
 40
0
 40
0
 40
1
 40
1
 40
1
 40
1
 10
38.836762
 20
157.636868
 30
0.0
 10
33.911355
 20
166.470869
 30
0.0
 10
37.166174
 20
177.979596
 30
0.0
 10
45.927396
 20
182.932019
 30
0.0
  0
SPLINE
  5
12b
100
AcDbEntity
  8
Laag_1
 62
1
100
AcDbSpline
 70
8
 71
3
 72
8
 73
4
 74
0
 40
0
 40
0
 40
0
 40
0
 40
1
 40
1
 40
1
 40
1
 10
45.927396
 20
182.932019
 30
0.0
 10
54.781416
 20
187.936902
 30
0.0
 10
66.315997
 20
184.629187
 30
0.0
 10
71.279281
 20
175.725792
 30
0.0
  0
SPLINE
  5
12c
100
AcDbEntity
  8
Laag_1
 62
1
100
AcDbSpline
 70
8
 71
3
 72
8
 73
4
 74
0
 40
0
 40
0
 40
0
 40
0
 40
1
 40
1
 40
1
 40
1
 10
71.279281
 20
175.725792
 30
0.0
 10
76.294825
 20
166.728652
 30
0.0
 10
72.979690
 20
155.007851
 30
0.0
 10
64.056534
 20
149.964706
 30
0.0
  0
SPLINE
  5
12d
100
AcDbEntity
  8
Laag_1
 62
1
100
AcDbSpline
 70
8
 71
3
 72
8
 73
4
 74
0
 40
0
 40
0
 40
0
 40
0
 40
1
 40
1
 40
1
 40
1
 10
64.056534
 20
149.964706
 30
0.0
 10
55.039985
 20
144.868776
 30
0.0
 10
43.294126
 20
148.237418
 30
0.0
 10
38.240463
 20
157.304392
 30
0.0
  0
SPLINE
  5
12e
100
AcDbEntity
  8
Laag_1
 62
1
100
AcDbSpline
 70
8
 71
3
 72
8
 73
4
 74
0
 40
0
 40
0
 40
0
 40
0
 40
1
 40
1
 40
1
 40
1
 10
38.240463
 20
157.304392
 30
0.0
 10
33.134218
 20
166.465700
 30
0.0
 10
36.510050
 20
178.399911
 30
0.0
 10
45.596166
 20
183.534346
 30
0.0
  0
SPLINE
  5
12f
100
AcDbEntity
  8
Laag_1
 62
1
100
AcDbSpline
 70
8
 71
3
 72
8
 73
4
 74
0
 40
0
 40
0
 40
0
 40
0
 40
1
 40
1
 40
1
 40
1
 10
45.596166
 20
183.534346
 30
0.0
 10
54.776265
 20
188.721891
 30
0.0
 10
66.734727
 20
185.291935
 30
0.0
 10
71.879332
 20
176.060359
 30
0.0
  0
SPLINE
  5
130
100
AcDbEntity
  8
Laag_1
 62
1
100
AcDbSpline
 70
8
 71
3
 72
8
 73
4
 74
0
 40
0
 40
0
 40
0
 40
0
 40
1
 40
1
 40
1
 40
1
 10
71.879332
 20
176.060359
 30
0.0
 10
77.076840
 20
166.733855
 30
0.0
 10
73.639930
 20
154.584905
 30
0.0
 10
64.389832
 20
149.358612
 30
0.0
  0
SPLINE
  5
131
100
AcDbEntity
  8
Laag_1
 62
1
100
AcDbSpline
 70
8
 71
3
 72
8
 73
4
 74
0
 40
0
 40
0
 40
0
 40
0
 40
1
 40
1
 40
1
 40
1
 10
64.389832
 20
149.358612
 30
0.0
 10
55.045172
 20
144.078891
 30
0.0
 10
42.872792
 20
147.570537
 30
0.0
 10
37.636681
 20
156.967741
 30
0.0
  0
SPLINE
  5
132
100
AcDbEntity
  8
Laag_1
 62
1
100
AcDbSpline
 70
8
 71
3
 72
8
 73
4
 74
0
 40
0
 40
0
 40
0
 40
0
 40
1
 40
1
 40
1
 40
1
 10
37.636681
 20
156.967741
 30
0.0
 10
32.347349
 20
166.460460
 30
0.0
 10
35.845720
 20
178.825476
 30
0.0
 10
45.260807
 20
184.144186
 30
0.0
  0
SPLINE
  5
133
100
AcDbEntity
  8
Laag_1
 62
1
100
AcDbSpline
 70
8
 71
3
 72
8
 73
4
 74
0
 40
0
 40
0
 40
0
 40
0
 40
1
 40
1
 40
1
 40
1
 10
45.260807
 20
184.144186
 30
0.0
 10
54.771043
 20
189.516648
 30
0.0
 10
67.158654
 20
185.962929
 30
0.0
 10
72.486825
 20
176.399079
 30
0.0
  0
SPLINE
  5
134
100
AcDbEntity
  8
Laag_1
 62
1
100
AcDbSpline
 70
8
 71
3
 72
8
 73
4
 74
0
 40
0
 40
0
 40
0
 40
0
 40
1
 40
1
 40
1
 40
1
 10
72.486825
 20
176.399079
 30
0.0
 10
77.868533
 20
166.739130
 30
0.0
 10
74.308331
 20
154.156734
 30
0.0
 10
64.727240
 20
148.745043
 30
0.0
  0
SPLINE
  5
135
100
AcDbEntity
  8
Laag_1
 62
1
100
AcDbSpline
 70
8
 71
3
 72
8
 73
4
 74
0
 40
0
 40
0
 40
0
 40
0
 40
1
 40
1
 40
1
 40
1
 10
64.727240
 20
148.745043
 30
0.0
 10
55.050427
 20
143.279285
 30
0.0
 10
42.446282
 20
146.895458
 30
0.0
 10
37.025496
 20
156.626964
 30
0.0
  0
SPLINE
  5
136
100
AcDbEntity
  8
Laag_1
 62
1
100
AcDbSpline
 70
8
 71
3
 72
8
 73
4
 74
0
 40
0
 40
0
 40
0
 40
0
 40
1
 40
1
 40
1
 40
1
 10
37.025496
 20
156.626964
 30
0.0
 10
31.550859
 20
166.455149
 30
0.0
 10
35.173269
 20
179.256236
 30
0.0
 10
44.921361
 20
184.761461
 30
0.0
  0
SPLINE
  5
137
100
AcDbEntity
  8
Laag_1
 62
1
100
AcDbSpline
 70
8
 71
3
 72
8
 73
4
 74
0
 40
0
 40
0
 40
0
 40
0
 40
1
 40
1
 40
1
 40
1
 10
44.921361
 20
184.761461
 30
0.0
 10
54.765752
 20
190.321072
 30
0.0
 10
67.587729
 20
186.642072
 30
0.0
 10
73.101680
 20
176.741903
 30
0.0
  0
SPLINE
  5
138
100
AcDbEntity
  8
Laag_1
 62
1
100
AcDbSpline
 70
8
 71
3
 72
8
 73
4
 74
0
 40
0
 40
0
 40
0
 40
0
 40
1
 40
1
 40
1
 40
1
 10
73.101680
 20
176.741903
 30
0.0
 10
78.669797
 20
166.744474
 30
0.0
 10
74.984806
 20
153.723396
 30
0.0
 10
65.068716
 20
148.124083
 30
0.0
  0
SPLINE
  5
139
100
AcDbEntity
  8
Laag_1
 62
1
100
AcDbSpline
 70
8
 71
3
 72
8
 73
4
 74
0
 40
0
 40
0
 40
0
 40
0
 40
1
 40
1
 40
1
 40
1
 10
65.068716
 20
148.124083
 30
0.0
 10
55.055751
 20
142.470070
 30
0.0
 10
42.014655
 20
146.212268
 30
0.0
 10
36.406990
 20
156.282104
 30
0.0
  0
SPLINE
  5
13a
100
AcDbEntity
  8
Laag_1
 62
1
100
AcDbSpline
 70
8
 71
3
 72
8
 73
4
 74
0
 40
0
 40
0
 40
0
 40
0
 40
1
 40
1
 40
1
 40
1
 10
36.406990
 20
156.282104
 30
0.0
 10
30.744846
 20
166.449772
 30
0.0
 10
34.492786
 20
179.692136
 30
0.0
 10
44.577871
 20
185.386089
 30
0.0
  0
SPLINE
  5
13b
100
AcDbEntity
  8
Laag_1
 62
1
100
AcDbSpline
 70
8
 71
3
 72
8
 73
4
 74
0
 40
0
 40
0
 40
0
 40
0
 40
1
 40
1
 40
1
 40
1
 10
44.577871
 20
185.386089
 30
0.0
 10
54.760395
 20
191.135056
 30
0.0
 10
68.021895
 20
187.329283
 30
0.0
 10
73.723818
 20
177.088788
 30
0.0
  0
SPLINE
  5
13c
100
AcDbEntity
  8
Laag_1
 62
1
100
AcDbSpline
 70
8
 71
3
 72
8
 73
4
 74
0
 40
0
 40
0
 40
0
 40
0
 40
1
 40
1
 40
1
 40
1
 10
73.723818
 20
177.088788
 30
0.0
 10
79.480533
 20
166.749887
 30
0.0
 10
75.669275
 20
153.284946
 30
0.0
 10
65.414212
 20
147.495807
 30
0.0
  0
SPLINE
  5
13d
100
AcDbEntity
  8
Laag_1
 62
1
100
AcDbSpline
 70
8
 71
3
 72
8
 73
4
 74
0
 40
0
 40
0
 40
0
 40
0
 40
1
 40
1
 40
1
 40
1
 10
65.414212
 20
147.495807
 30
0.0
 10
55.061143
 20
141.651340
 30
0.0
 10
41.577964
 20
145.521054
 30
0.0
 10
35.781237
 20
155.933205
 30
0.0
  0
SPLINE
  5
13e
100
AcDbEntity
  8
Laag_1
 62
1
100
AcDbSpline
 70
8
 71
3
 72
8
 73
4
 74
0
 40
0
 40
0
 40
0
 40
0
 40
1
 40
1
 40
1
 40
1
 10
35.781237
 20
155.933205
 30
0.0
 10
29.929412
 20
166.444326
 30
0.0
 10
33.804356
 20
180.133122
 30
0.0
 10
44.230376
 20
186.017994
 30
0.0
  0
SPLINE
  5
13f
100
AcDbEntity
  8
Laag_1
 62
1
100
AcDbSpline
 70
8
 71
3
 72
8
 73
4
 74
0
 40
0
 40
0
 40
0
 40
0
 40
1
 40
1
 40
1
 40
1
 10
44.230376
 20
186.017994
 30
0.0
 10
54.754970
 20
191.958505
 30
0.0
 10
68.461096
 20
188.024481
 30
0.0
 10
74.353166
 20
177.439692
 30
0.0
  0
SPLINE
  5
140
100
AcDbEntity
  8
Laag_1
 62
1
100
AcDbSpline
 70
8
 71
3
 72
8
 73
4
 74
0
 40
0
 40
0
 40
0
 40
0
 40
1
 40
1
 40
1
 40
1
 10
74.353166
 20
177.439692
 30
0.0
 10
80.300645
 20
166.755367
 30
0.0
 10
76.361650
 20
152.841437
 30
0.0
 10
65.763693
 20
146.860289
 30
0.0
  0
ENDSEC
  0
SECTION
  2
OBJECTS
  0
DICTIONARY
  5
C
330
0
100
AcDbDictionary
  3
ACAD_GROUP
350
D
  3
ACAD_MLINESTYLE
350
17
  0
DICTIONARY
  5
D
330
C
100
AcDbDictionary
  0
DICTIONARY
  5
1A
330
C
100
AcDbDictionary
  0
DICTIONARY
  5
17
330
C
100
AcDbDictionary
  3
STANDARD
350
18
  0
DICTIONARY
  5
19
330
C
100
AcDbDictionary
  0
ENDSEC
  0
EOF
