  0
SECTION
  2
HEADER
  9
$ACADVER
  1
AC1009
  9
$DWGCODEPAGE
  3
ansi_1252
  9
$INSBASE
 10
0.0
 20
0.0
 30
0.0
  9
$EXTMIN
 10
0.906224760501122
 20
0.3970838623143806
 30
0.0
  9
$EXTMAX
 10
11.90622476050112
 20
5.395689163482467
 30
0.0
  9
$LIMMIN
 10
0.0
 20
0.0
  9
$LIMMAX
 10
12.0
 20
9.0
  9
$ORTHOMODE
 70
     0
  9
$REGENMODE
 70
     1
  9
$FILLMODE
 70
     1
  9
$QTEXTMODE
 70
     0
  9
$MIRRTEXT
 70
     1
  9
$DRAGMODE
 70
     2
  9
$LTSCALE
 40
1.0
  9
$OSMODE
 70
    37
  9
$ATTMODE
 70
     1
  9
$TEXTSIZE
 40
0.2
  9
$TRACEWID
 40
0.05
  9
$TEXTSTYLE
  7
STANDARD
  9
$CLAYER
  8
0
  9
$CELTYPE
  6
BYLAYER
  9
$CECOLOR
 62
   256
  9
$DIMSCALE
 40
1.0
  9
$DIMASZ
 40
0.18
  9
$DIMEXO
 40
0.0625
  9
$DIMDLI
 40
0.38
  9
$DIMRND
 40
0.0
  9
$DIMDLE
 40
0.0
  9
$DIMEXE
 40
0.18
  9
$DIMTP
 40
0.0
  9
$DIMTM
 40
0.0
  9
$DIMTXT
 40
0.18
  9
$DIMCEN
 40
0.09
  9
$DIMTSZ
 40
0.0
  9
$DIMTOL
 70
     0
  9
$DIMLIM
 70
     0
  9
$DIMTIH
 70
     1
  9
$DIMTOH
 70
     1
  9
$DIMSE1
 70
     0
  9
$DIMSE2
 70
     0
  9
$DIMTAD
 70
     0
  9
$DIMZIN
 70
     0
  9
$DIMBLK
  1

  9
$DIMASO
 70
     1
  9
$DIMSHO
 70
     1
  9
$DIMPOST
  1

  9
$DIMAPOST
  1

  9
$DIMALT
 70
     0
  9
$DIMALTD
 70
     2
  9
$DIMALTF
 40
25.4
  9
$DIMLFAC
 40
1.0
  9
$DIMTOFL
 70
     0
  9
$DIMTVP
 40
0.0
  9
$DIMTIX
 70
     0
  9
$DIMSOXD
 70
     0
  9
$DIMSAH
 70
     0
  9
$DIMBLK1
  1

  9
$DIMBLK2
  1

  9
$DIMSTYLE
  2
STANDARD
  9
$DIMCLRD
 70
     0
  9
$DIMCLRE
 70
     0
  9
$DIMCLRT
 70
     0
  9
$DIMTFAC
 40
1.0
  9
$DIMGAP
 40
0.09
  9
$LUNITS
 70
     2
  9
$LUPREC
 70
     4
  9
$SKETCHINC
 40
0.1
  9
$FILLETRAD
 40
0.5
  9
$AUNITS
 70
     0
  9
$AUPREC
 70
     0
  9
$MENU
  1
.
  9
$ELEVATION
 40
0.0
  9
$PELEVATION
 40
0.0
  9
$THICKNESS
 40
0.0
  9
$LIMCHECK
 70
     0
  9
$CHAMFERA
 40
0.5
  9
$CHAMFERB
 40
0.5
  9
$SKPOLY
 70
     0
  9
$TDCREATE
 40
2454910.5
  9
$TDUPDATE
 40
2456244.695628634
  9
$TDINDWG
 40
0.0000000116
  9
$TDUSRTIMER
 40
0.0000000116
  9
$USRTIMER
 70
     1
  9
$ANGBASE
 50
0.0
  9
$ANGDIR
 70
     0
  9
$PDMODE
 70
     0
  9
$PDSIZE
 40
0.0
  9
$PLINEWID
 40
0.0
  9
$COORDS
 70
     1
  9
$SPLFRAME
 70
     0
  9
$SPLINETYPE
 70
     6
  9
$SPLINESEGS
 70
     8
  9
$ATTDIA
 70
     0
  9
$ATTREQ
 70
     1
  9
$HANDLING
 70
     1
  9
$HANDSEED
  5
304
  9
$SURFTAB1
 70
     6
  9
$SURFTAB2
 70
     6
  9
$SURFTYPE
 70
     6
  9
$SURFU
 70
     6
  9
$SURFV
 70
     6
  9
$UCSNAME
  2

  9
$UCSORG
 10
0.0
 20
0.0
 30
0.0
  9
$UCSXDIR
 10
1.0
 20
0.0
 30
0.0
  9
$UCSYDIR
 10
0.0
 20
1.0
 30
0.0
  9
$PUCSNAME
  2

  9
$PUCSORG
 10
0.0
 20
0.0
 30
0.0
  9
$PUCSXDIR
 10
1.0
 20
0.0
 30
0.0
  9
$PUCSYDIR
 10
0.0
 20
1.0
 30
0.0
  9
$USERI1
 70
     0
  9
$USERI2
 70
     0
  9
$USERI3
 70
     0
  9
$USERI4
 70
     0
  9
$USERI5
 70
     0
  9
$USERR1
 40
0.0
  9
$USERR2
 40
0.0
  9
$USERR3
 40
0.0
  9
$USERR4
 40
0.0
  9
$USERR5
 40
0.0
  9
$WORLDVIEW
 70
     1
  9
$SHADEDGE
 70
     3
  9
$SHADEDIF
 70
    70
  9
$TILEMODE
 70
     1
  9
$MAXACTVP
 70
    64
  9
$PLIMCHECK
 70
     0
  9
$PEXTMIN
 10
1.000000000000000E+20
 20
1.000000000000000E+20
 30
1.000000000000000E+20
  9
$PEXTMAX
 10
-1.000000000000000E+20
 20
-1.000000000000000E+20
 30
-1.000000000000000E+20
  9
$PLIMMIN
 10
0.0
 20
0.0
  9
$PLIMMAX
 10
12.0
 20
9.0
  9
$UNITMODE
 70
     0
  9
$VISRETAIN
 70
     1
  9
$PLINEGEN
 70
     0
  9
$PSLTSCALE
 70
     1
  0
ENDSEC
  0
SECTION
  2
TABLES
  0
TABLE
  2
VPORT
 70
     1
  0
VPORT
  2
*ACTIVE
 70
     0
 10
0.0
 20
0.0
 11
1.0
 21
1.0
 12
10.42990654205607
 22
4.5
 13
0.0
 23
0.0
 14
0.5
 24
0.5
 15
0.5
 25
0.5
 16
0.0
 26
0.0
 36
1.0
 17
0.0
 27
0.0
 37
0.0
 40
9.0
 41
1.972972972850329
 42
50.0
 43
0.0
 44
0.0
 50
0.0
 51
0.0
 71
     0
 72
   100
 73
     1
 74
     3
 75
     0
 76
     0
 77
     0
 78
     0
  0
ENDTAB
  0
TABLE
  2
LTYPE
 70
     2
  0
LTYPE
  2
CONTINUOUS
 70
     0
  3
Solid line
 72
    65
 73
     0
 40
0.0
  0
LTYPE
  2
CONTINUOUS2
 70
     0
  3
Solid Line
 72
    65
 73
     0
 40
0.0
  0
ENDTAB
  0
TABLE
  2
LAYER
 70
     3
  0
LAYER
  2
0
 70
     0
 62
     7
  6
CONTINUOUS
  0
LAYER
  2
COUT_OUT_AND_MAGNET_HOLES
 70
     0
 62
    18
  6
CONTINUOUS
  0
LAYER
  2
MAIN_SHOE
 70
     0
 62
    18
  6
CONTINUOUS
  0
ENDTAB
  0
TABLE
  2
STYLE
 70
     1
  0
STYLE
  2
STANDARD
 70
     0
 40
0.0
 41
1.0
 50
0.0
 71
     0
 42
0.2
  3
txt
  4

  0
ENDTAB
  0
TABLE
  2
VIEW
 70
     0
  0
ENDTAB
  0
TABLE
  2
UCS
 70
     0
  0
ENDTAB
  0
TABLE
  2
APPID
 70
     1
  0
APPID
  2
ACAD
 70
     0
  0
ENDTAB
  0
TABLE
  2
DIMSTYLE
 70
     1
  0
DIMSTYLE
  2
STANDARD
 70
     0
  3

  4

  5

  6

  7

 40
1.0
 41
0.18
 42
0.0625
 43
0.38
 44
0.18
 45
0.0
 46
0.0
 47
0.0
 48
0.0
140
0.18
141
0.09
142
0.0
143
25.4
144
1.0
145
0.0
146
1.0
147
0.09
 71
     0
 72
     0
 73
     1
 74
     1
 75
     0
 76
     0
 77
     0
 78
     0
170
     0
171
     2
172
     0
173
     0
174
     0
175
     0
176
     0
177
     0
178
     0
  0
ENDTAB
  0
ENDSEC
  0
SECTION
  2
BLOCKS
  0
BLOCK
  8
0
  2
$MODEL_SPACE
 70
     0
 10
0.0
 20
0.0
 30
0.0
  3
$MODEL_SPACE
  1

  0
ENDBLK
  5
21
  8
0
  0
BLOCK
 67
     1
  8
0
  2
$PAPER_SPACE
 70
     0
 10
0.0
 20
0.0
 30
0.0
  3
$PAPER_SPACE
  1

  0
ENDBLK
  5
1D
 67
     1
  8
0
  0
ENDSEC
  0
SECTION
  2
ENTITIES
  0
POLYLINE
  5
41
  8
COUT_OUT_AND_MAGNET_HOLES
 66
     1
 10
0.0
 20
0.0
 30
0.0
 70
     1
  0
VERTEX
  5
52
  8
COUT_OUT_AND_MAGNET_HOLES
 10
11.03122476050112
 20
4.584387251289597
 30
0.0
 42
0.4142135623730951
  0
VERTEX
  5
53
  8
COUT_OUT_AND_MAGNET_HOLES
 10
10.90622476050112
 20
4.459387251289597
 30
0.0
 42
0.4142135623730951
  0
VERTEX
  5
54
  8
COUT_OUT_AND_MAGNET_HOLES
 10
11.03122476050112
 20
4.334387251289597
 30
0.0
 42
0.4142135623730951
  0
VERTEX
  5
55
  8
COUT_OUT_AND_MAGNET_HOLES
 10
11.15622476050112
 20
4.459387251289597
 30
0.0
 42
0.4142135623730951
  0
SEQEND
  5
56
  8
COUT_OUT_AND_MAGNET_HOLES
  0
POLYLINE
  5
42
  8
COUT_OUT_AND_MAGNET_HOLES
 66
     1
 10
0.0
 20
0.0
 30
0.0
 70
     1
  0
VERTEX
  5
57
  8
COUT_OUT_AND_MAGNET_HOLES
 10
11.03122476050112
 20
1.459387251289653
 30
0.0
 42
0.4142135623730951
  0
VERTEX
  5
58
  8
COUT_OUT_AND_MAGNET_HOLES
 10
10.90622476050112
 20
1.334387251289653
 30
0.0
 42
0.4142135623730951
  0
VERTEX
  5
59
  8
COUT_OUT_AND_MAGNET_HOLES
 10
11.03122476050112
 20
1.209387251289653
 30
0.0
 42
0.4142135623730951
  0
VERTEX
  5
5A
  8
COUT_OUT_AND_MAGNET_HOLES
 10
11.15622476050112
 20
1.334387251289653
 30
0.0
 42
0.4142135623730951
  0
SEQEND
  5
5B
  8
COUT_OUT_AND_MAGNET_HOLES
  0
POLYLINE
  5
43
  8
COUT_OUT_AND_MAGNET_HOLES
 66
     1
 10
0.0
 20
0.0
 30
0.0
 70
     1
  0
VERTEX
  5
5C
  8
COUT_OUT_AND_MAGNET_HOLES
 10
1.781224760501122
 20
1.459387251289653
 30
0.0
 42
0.4142135623730951
  0
VERTEX
  5
5D
  8
COUT_OUT_AND_MAGNET_HOLES
 10
1.656224760501122
 20
1.334387251289653
 30
0.0
 42
0.4142135623730951
  0
VERTEX
  5
5E
  8
COUT_OUT_AND_MAGNET_HOLES
 10
1.781224760501122
 20
1.209387251289653
 30
0.0
 42
0.4142135623730951
  0
VERTEX
  5
5F
  8
COUT_OUT_AND_MAGNET_HOLES
 10
1.906224760501122
 20
1.334387251289653
 30
0.0
 42
0.4142135623730951
  0
SEQEND
  5
60
  8
COUT_OUT_AND_MAGNET_HOLES
  0
POLYLINE
  5
44
  8
COUT_OUT_AND_MAGNET_HOLES
 66
     1
 10
0.0
 20
0.0
 30
0.0
 70
     1
  0
VERTEX
  5
61
  8
COUT_OUT_AND_MAGNET_HOLES
 10
1.781224760501122
 20
4.584387251289597
 30
0.0
 42
0.4142135623730951
  0
VERTEX
  5
62
  8
COUT_OUT_AND_MAGNET_HOLES
 10
1.656224760501122
 20
4.459387251289597
 30
0.0
 42
0.4142135623730951
  0
VERTEX
  5
63
  8
COUT_OUT_AND_MAGNET_HOLES
 10
1.781224760501122
 20
4.334387251289597
 30
0.0
 42
0.4142135623730951
  0
VERTEX
  5
64
  8
COUT_OUT_AND_MAGNET_HOLES
 10
1.906224760501122
 20
4.459387251289597
 30
0.0
 42
0.4142135623730951
  0
SEQEND
  5
65
  8
COUT_OUT_AND_MAGNET_HOLES
  0
POLYLINE
  5
45
  8
COUT_OUT_AND_MAGNET_HOLES
 66
     1
 10
0.0
 20
0.0
 30
0.0
  0
VERTEX
  5
66
  8
COUT_OUT_AND_MAGNET_HOLES
 10
10.90481397551434
 20
0.3970838623143806
 30
0.0
  0
VERTEX
  5
67
  8
COUT_OUT_AND_MAGNET_HOLES
 10
10.93068952781468
 20
0.4002855464220296
 30
0.0
  0
VERTEX
  5
68
  8
COUT_OUT_AND_MAGNET_HOLES
 10
10.9564020138648
 20
0.4040453707141928
 30
0.0
  0
VERTEX
  5
69
  8
COUT_OUT_AND_MAGNET_HOLES
 10
10.98194361197207
 20
0.4083569072193385
 30
0.0
  0
VERTEX
  5
6A
  8
COUT_OUT_AND_MAGNET_HOLES
 10
11.00730650044385
 20
0.4132137279659351
 30
0.0
  0
VERTEX
  5
6B
  8
COUT_OUT_AND_MAGNET_HOLES
 10
11.03248285758751
 20
0.4186094049824509
 30
0.0
  0
VERTEX
  5
6C
  8
COUT_OUT_AND_MAGNET_HOLES
 10
11.05746486171043
 20
0.4245375102973541
 30
0.0
  0
VERTEX
  5
6D
  8
COUT_OUT_AND_MAGNET_HOLES
 10
11.08224469111997
 20
0.4309916159391134
 30
0.0
  0
VERTEX
  5
6E
  8
COUT_OUT_AND_MAGNET_HOLES
 10
11.10681452412351
 20
0.4379652939361969
 30
0.0
  0
VERTEX
  5
6F
  8
COUT_OUT_AND_MAGNET_HOLES
 10
11.1311665390284
 20
0.4454521163170729
 30
0.0
  0
VERTEX
  5
70
  8
COUT_OUT_AND_MAGNET_HOLES
 10
11.15529291414202
 20
0.45344565511021
 30
0.0
  0
VERTEX
  5
71
  8
COUT_OUT_AND_MAGNET_HOLES
 10
11.17918582777174
 20
0.4619394823440762
 30
0.0
  0
VERTEX
  5
72
  8
COUT_OUT_AND_MAGNET_HOLES
 10
11.20283745822492
 20
0.4709271700471401
 30
0.0
  0
VERTEX
  5
73
  8
COUT_OUT_AND_MAGNET_HOLES
 10
11.22623998380894
 20
0.48040229024787
 30
0.0
  0
VERTEX
  5
74
  8
COUT_OUT_AND_MAGNET_HOLES
 10
11.24938558283116
 20
0.4903584149747341
 30
0.0
  0
VERTEX
  5
75
  8
COUT_OUT_AND_MAGNET_HOLES
 10
11.27226643359895
 20
0.500789116256201
 30
0.0
  0
VERTEX
  5
76
  8
COUT_OUT_AND_MAGNET_HOLES
 10
11.29487471441969
 20
0.5116879661207387
 30
0.0
  0
VERTEX
  5
77
  8
COUT_OUT_AND_MAGNET_HOLES
 10
11.31720260360073
 20
0.5230485365968158
 30
0.0
  0
VERTEX
  5
78
  8
COUT_OUT_AND_MAGNET_HOLES
 10
11.33924227944945
 20
0.5348643997129008
 30
0.0
  0
VERTEX
  5
79
  8
COUT_OUT_AND_MAGNET_HOLES
 10
11.36098592027322
 20
0.5471291274974617
 30
0.0
  0
VERTEX
  5
7A
  8
COUT_OUT_AND_MAGNET_HOLES
 10
11.38242570437941
 20
0.559836291978967
 30
0.0
  0
VERTEX
  5
7B
  8
COUT_OUT_AND_MAGNET_HOLES
 10
11.40355381007538
 20
0.572979465185885
 30
0.0
  0
VERTEX
  5
7C
  8
COUT_OUT_AND_MAGNET_HOLES
 10
11.4243624156685
 20
0.5865522191466841
 30
0.0
  0
VERTEX
  5
7D
  8
COUT_OUT_AND_MAGNET_HOLES
 10
11.44484369946615
 20
0.6005481258898326
 30
0.0
  0
VERTEX
  5
7E
  8
COUT_OUT_AND_MAGNET_HOLES
 10
11.46498983977569
 20
0.614960757443799
 30
0.0
  0
VERTEX
  5
7F
  8
COUT_OUT_AND_MAGNET_HOLES
 10
11.48479301490449
 20
0.6297836858370515
 30
0.0
  0
VERTEX
  5
80
  8
COUT_OUT_AND_MAGNET_HOLES
 10
11.50424540315991
 20
0.6450104830980583
 30
0.0
  0
VERTEX
  5
81
  8
COUT_OUT_AND_MAGNET_HOLES
 10
11.52333918284934
 20
0.6606347212552878
 30
0.0
  0
VERTEX
  5
82
  8
COUT_OUT_AND_MAGNET_HOLES
 10
11.54206653228012
 20
0.6766499723372086
 30
0.0
  0
VERTEX
  5
83
  8
COUT_OUT_AND_MAGNET_HOLES
 10
11.56041962975965
 20
0.6930498083722889
 30
0.0
  0
VERTEX
  5
84
  8
COUT_OUT_AND_MAGNET_HOLES
 10
11.57839065359527
 20
0.7098278013889969
 30
0.0
  0
VERTEX
  5
85
  8
COUT_OUT_AND_MAGNET_HOLES
 10
11.59597178209438
 20
0.7269775234158011
 30
0.0
  0
VERTEX
  5
86
  8
COUT_OUT_AND_MAGNET_HOLES
 10
11.61315519356432
 20
0.74449254648117
 30
0.0
  0
VERTEX
  5
87
  8
COUT_OUT_AND_MAGNET_HOLES
 10
11.62993306631247
 20
0.7623664426135717
 30
0.0
  0
VERTEX
  5
88
  8
COUT_OUT_AND_MAGNET_HOLES
 10
11.6462975786462
 20
0.7805927838414746
 30
0.0
  0
VERTEX
  5
89
  8
COUT_OUT_AND_MAGNET_HOLES
 10
11.66224090887287
 20
0.799165142193347
 30
0.0
  0
VERTEX
  5
8A
  8
COUT_OUT_AND_MAGNET_HOLES
 10
11.67775523529987
 20
0.8180770896976574
 30
0.0
  0
VERTEX
  5
8B
  8
COUT_OUT_AND_MAGNET_HOLES
 10
11.69283273623454
 20
0.837322198382874
 30
0.0
  0
VERTEX
  5
8C
  8
COUT_OUT_AND_MAGNET_HOLES
 10
11.70746558998427
 20
0.8568940402774652
 30
0.0
  0
VERTEX
  5
8D
  8
COUT_OUT_AND_MAGNET_HOLES
 10
11.72164597485643
 20
0.8767861874098992
 30
0.0
  0
VERTEX
  5
8E
  8
COUT_OUT_AND_MAGNET_HOLES
 10
11.73536606915837
 20
0.8969922118086447
 30
0.0
  0
VERTEX
  5
8F
  8
COUT_OUT_AND_MAGNET_HOLES
 10
11.74861805119747
 20
0.9175056855021699
 30
0.0
  0
VERTEX
  5
90
  8
COUT_OUT_AND_MAGNET_HOLES
 10
11.76139409928111
 20
0.938320180518943
 30
0.0
  0
VERTEX
  5
91
  8
COUT_OUT_AND_MAGNET_HOLES
 10
11.77368639171664
 20
0.9594292688874324
 30
0.0
  0
VERTEX
  5
92
  8
COUT_OUT_AND_MAGNET_HOLES
 10
11.78548710681143
 20
0.9808265226361063
 30
0.0
  0
VERTEX
  5
93
  8
COUT_OUT_AND_MAGNET_HOLES
 10
11.79678842287286
 20
1.002505513793433
 30
0.0
  0
VERTEX
  5
94
  8
COUT_OUT_AND_MAGNET_HOLES
 10
11.8075825182083
 20
1.024459814387882
 30
0.0
  0
VERTEX
  5
95
  8
COUT_OUT_AND_MAGNET_HOLES
 10
11.8178615711251
 20
1.046682996447919
 30
0.0
  0
VERTEX
  5
96
  8
COUT_OUT_AND_MAGNET_HOLES
 10
11.82761775993065
 20
1.069168632002016
 30
0.0
  0
VERTEX
  5
97
  8
COUT_OUT_AND_MAGNET_HOLES
 10
11.83684326293231
 20
1.091910293078638
 30
0.0
  0
VERTEX
  5
98
  8
COUT_OUT_AND_MAGNET_HOLES
 10
11.84553025843745
 20
1.114901551706255
 30
0.0
  0
VERTEX
  5
99
  8
COUT_OUT_AND_MAGNET_HOLES
 10
11.85367092475343
 20
1.138135979913336
 30
0.0
  0
VERTEX
  5
9A
  8
COUT_OUT_AND_MAGNET_HOLES
 10
11.86125744018763
 20
1.161607149728347
 30
0.0
  0
VERTEX
  5
9B
  8
COUT_OUT_AND_MAGNET_HOLES
 10
11.86828198304742
 20
1.185308633179759
 30
0.0
  0
VERTEX
  5
9C
  8
COUT_OUT_AND_MAGNET_HOLES
 10
11.87473673164016
 20
1.209234002296038
 30
0.0
  0
VERTEX
  5
9D
  8
COUT_OUT_AND_MAGNET_HOLES
 10
11.88061386427322
 20
1.233376829105655
 30
0.0
  0
VERTEX
  5
9E
  8
COUT_OUT_AND_MAGNET_HOLES
 10
11.88590555925397
 20
1.257730685637076
 30
0.0
  0
VERTEX
  5
9F
  8
COUT_OUT_AND_MAGNET_HOLES
 10
11.89060399488978
 20
1.28228914391877
 30
0.0
  0
VERTEX
  5
A0
  8
COUT_OUT_AND_MAGNET_HOLES
 10
11.89470134948802
 20
1.307045775979205
 30
0.0
  0
VERTEX
  5
A1
  8
COUT_OUT_AND_MAGNET_HOLES
 10
11.89818980135606
 20
1.33199415384685
 30
0.0
  0
VERTEX
  5
A2
  8
COUT_OUT_AND_MAGNET_HOLES
 10
11.90106152880126
 20
1.357127849550174
 30
0.0
  0
VERTEX
  5
A3
  8
COUT_OUT_AND_MAGNET_HOLES
 10
11.903308710131
 20
1.382440435117644
 30
0.0
  0
VERTEX
  5
A4
  8
COUT_OUT_AND_MAGNET_HOLES
 10
11.90492352365264
 20
1.407925482577729
 30
0.0
  0
VERTEX
  5
A5
  8
COUT_OUT_AND_MAGNET_HOLES
 10
11.90589814767356
 20
1.433576563958897
 30
0.0
  0
VERTEX
  5
A6
  8
COUT_OUT_AND_MAGNET_HOLES
 10
11.90622476050112
 20
1.459387251289617
 30
0.0
  0
VERTEX
  5
A7
  8
COUT_OUT_AND_MAGNET_HOLES
 10
11.90622476050112
 20
2.521887251289619
 30
0.0
  0
VERTEX
  5
A8
  8
COUT_OUT_AND_MAGNET_HOLES
 10
11.88692731023986
 20
2.522375198962643
 30
0.0
  0
VERTEX
  5
A9
  8
COUT_OUT_AND_MAGNET_HOLES
 10
11.86788318889445
 20
2.52382333401584
 30
0.0
  0
VERTEX
  5
AA
  8
COUT_OUT_AND_MAGNET_HOLES
 10
11.84911595841369
 20
2.5262080945004
 30
0.0
  0
VERTEX
  5
AB
  8
COUT_OUT_AND_MAGNET_HOLES
 10
11.83064918074639
 20
2.529505918467512
 30
0.0
  0
VERTEX
  5
AC
  8
COUT_OUT_AND_MAGNET_HOLES
 10
11.81250641784136
 20
2.533693243968365
 30
0.0
  0
VERTEX
  5
AD
  8
COUT_OUT_AND_MAGNET_HOLES
 10
11.79471123164742
 20
2.538746509054147
 30
0.0
  0
VERTEX
  5
AE
  8
COUT_OUT_AND_MAGNET_HOLES
 10
11.77728718411338
 20
2.544642151776047
 30
0.0
  0
VERTEX
  5
AF
  8
COUT_OUT_AND_MAGNET_HOLES
 10
11.76025783718805
 20
2.551356610185256
 30
0.0
  0
VERTEX
  5
B0
  8
COUT_OUT_AND_MAGNET_HOLES
 10
11.74364675282023
 20
2.55886632233296
 30
0.0
  0
VERTEX
  5
B1
  8
COUT_OUT_AND_MAGNET_HOLES
 10
11.72747749295874
 20
2.56714772627035
 30
0.0
  0
VERTEX
  5
B2
  8
COUT_OUT_AND_MAGNET_HOLES
 10
11.7117736195524
 20
2.576177260048613
 30
0.0
  0
VERTEX
  5
B3
  8
COUT_OUT_AND_MAGNET_HOLES
 10
11.69655869455
 20
2.58593136171894
 30
0.0
  0
VERTEX
  5
B4
  8
COUT_OUT_AND_MAGNET_HOLES
 10
11.68185627990037
 20
2.596386469332518
 30
0.0
  0
VERTEX
  5
B5
  8
COUT_OUT_AND_MAGNET_HOLES
 10
11.66768993755231
 20
2.607519020940537
 30
0.0
  0
VERTEX
  5
B6
  8
COUT_OUT_AND_MAGNET_HOLES
 10
11.65408322945464
 20
2.619305454594186
 30
0.0
  0
VERTEX
  5
B7
  8
COUT_OUT_AND_MAGNET_HOLES
 10
11.64105971755617
 20
2.631722208344653
 30
0.0
  0
VERTEX
  5
B8
  8
COUT_OUT_AND_MAGNET_HOLES
 10
11.6286429638057
 20
2.644745720243128
 30
0.0
  0
VERTEX
  5
B9
  8
COUT_OUT_AND_MAGNET_HOLES
 10
11.61685653015205
 20
2.658352428340799
 30
0.0
  0
VERTEX
  5
BA
  8
COUT_OUT_AND_MAGNET_HOLES
 10
11.60572397854403
 20
2.672518770688855
 30
0.0
  0
VERTEX
  5
BB
  8
COUT_OUT_AND_MAGNET_HOLES
 10
11.59526887093045
 20
2.687221185338486
 30
0.0
  0
VERTEX
  5
BC
  8
COUT_OUT_AND_MAGNET_HOLES
 10
11.58551476926012
 20
2.70243611034088
 30
0.0
  0
VERTEX
  5
BD
  8
COUT_OUT_AND_MAGNET_HOLES
 10
11.57648523548186
 20
2.718139983747226
 30
0.0
  0
VERTEX
  5
BE
  8
COUT_OUT_AND_MAGNET_HOLES
 10
11.56820383154447
 20
2.734309243608712
 30
0.0
  0
VERTEX
  5
BF
  8
COUT_OUT_AND_MAGNET_HOLES
 10
11.56069411939676
 20
2.750920327976528
 30
0.0
  0
VERTEX
  5
C0
  8
COUT_OUT_AND_MAGNET_HOLES
 10
11.55397966098755
 20
2.767949674901862
 30
0.0
  0
VERTEX
  5
C1
  8
COUT_OUT_AND_MAGNET_HOLES
 10
11.54808401826565
 20
2.785373722435905
 30
0.0
  0
VERTEX
  5
C2
  8
COUT_OUT_AND_MAGNET_HOLES
 10
11.54303075317987
 20
2.803168908629844
 30
0.0
  0
VERTEX
  5
C3
  8
COUT_OUT_AND_MAGNET_HOLES
 10
11.53884342767902
 20
2.821311671534868
 30
0.0
  0
VERTEX
  5
C4
  8
COUT_OUT_AND_MAGNET_HOLES
 10
11.5355456037119
 20
2.839778449202167
 30
0.0
  0
VERTEX
  5
C5
  8
COUT_OUT_AND_MAGNET_HOLES
 10
11.53316084322734
 20
2.858545679682928
 30
0.0
  0
VERTEX
  5
C6
  8
COUT_OUT_AND_MAGNET_HOLES
 10
11.53171270817414
 20
2.877589801028342
 30
0.0
  0
VERTEX
  5
C7
  8
COUT_OUT_AND_MAGNET_HOLES
 10
11.53122476050112
 20
2.896887251289597
 30
0.0
  0
VERTEX
  5
C8
  8
COUT_OUT_AND_MAGNET_HOLES
 10
11.53171270817414
 20
2.916184701550852
 30
0.0
  0
VERTEX
  5
C9
  8
COUT_OUT_AND_MAGNET_HOLES
 10
11.53316084322734
 20
2.935228822896267
 30
0.0
  0
VERTEX
  5
CA
  8
COUT_OUT_AND_MAGNET_HOLES
 10
11.5355456037119
 20
2.953996053377029
 30
0.0
  0
VERTEX
  5
CB
  8
COUT_OUT_AND_MAGNET_HOLES
 10
11.53884342767901
 20
2.972462831044329
 30
0.0
  0
VERTEX
  5
CC
  8
COUT_OUT_AND_MAGNET_HOLES
 10
11.54303075317987
 20
2.990605593949354
 30
0.0
  0
VERTEX
  5
CD
  8
COUT_OUT_AND_MAGNET_HOLES
 10
11.54808401826565
 20
3.008400780143293
 30
0.0
  0
VERTEX
  5
CE
  8
COUT_OUT_AND_MAGNET_HOLES
 10
11.55397966098755
 20
3.025824827677336
 30
0.0
  0
VERTEX
  5
CF
  8
COUT_OUT_AND_MAGNET_HOLES
 10
11.56069411939676
 20
3.042854174602672
 30
0.0
  0
VERTEX
  5
D0
  8
COUT_OUT_AND_MAGNET_HOLES
 10
11.56820383154447
 20
3.059465258970489
 30
0.0
  0
VERTEX
  5
D1
  8
COUT_OUT_AND_MAGNET_HOLES
 10
11.57648523548186
 20
3.075634518831976
 30
0.0
  0
VERTEX
  5
D2
  8
COUT_OUT_AND_MAGNET_HOLES
 10
11.58551476926012
 20
3.091338392238322
 30
0.0
  0
VERTEX
  5
D3
  8
COUT_OUT_AND_MAGNET_HOLES
 10
11.59526887093045
 20
3.106553317240716
 30
0.0
  0
VERTEX
  5
D4
  8
COUT_OUT_AND_MAGNET_HOLES
 10
11.60572397854403
 20
3.121255731890348
 30
0.0
  0
VERTEX
  5
D5
  8
COUT_OUT_AND_MAGNET_HOLES
 10
11.61685653015205
 20
3.135422074238405
 30
0.0
  0
VERTEX
  5
D6
  8
COUT_OUT_AND_MAGNET_HOLES
 10
11.6286429638057
 20
3.149028782336077
 30
0.0
  0
VERTEX
  5
D7
  8
COUT_OUT_AND_MAGNET_HOLES
 10
11.64105971755616
 20
3.162052294234552
 30
0.0
  0
VERTEX
  5
D8
  8
COUT_OUT_AND_MAGNET_HOLES
 10
11.65408322945464
 20
3.17446904798502
 30
0.0
  0
VERTEX
  5
D9
  8
COUT_OUT_AND_MAGNET_HOLES
 10
11.66768993755231
 20
3.18625548163867
 30
0.0
  0
VERTEX
  5
DA
  8
COUT_OUT_AND_MAGNET_HOLES
 10
11.68185627990037
 20
3.19738803324669
 30
0.0
  0
VERTEX
  5
DB
  8
COUT_OUT_AND_MAGNET_HOLES
 10
11.69655869455
 20
3.207843140860269
 30
0.0
  0
VERTEX
  5
DC
  8
COUT_OUT_AND_MAGNET_HOLES
 10
11.71177361955239
 20
3.217597242530596
 30
0.0
  0
VERTEX
  5
DD
  8
COUT_OUT_AND_MAGNET_HOLES
 10
11.72747749295874
 20
3.22662677630886
 30
0.0
  0
VERTEX
  5
DE
  8
COUT_OUT_AND_MAGNET_HOLES
 10
11.74364675282023
 20
3.23490818024625
 30
0.0
  0
VERTEX
  5
DF
  8
COUT_OUT_AND_MAGNET_HOLES
 10
11.76025783718804
 20
3.242417892393955
 30
0.0
  0
VERTEX
  5
E0
  8
COUT_OUT_AND_MAGNET_HOLES
 10
11.77728718411338
 20
3.249132350803164
 30
0.0
  0
VERTEX
  5
E1
  8
COUT_OUT_AND_MAGNET_HOLES
 10
11.79471123164742
 20
3.255027993525065
 30
0.0
  0
VERTEX
  5
E2
  8
COUT_OUT_AND_MAGNET_HOLES
 10
11.81250641784136
 20
3.260081258610848
 30
0.0
  0
VERTEX
  5
E3
  8
COUT_OUT_AND_MAGNET_HOLES
 10
11.83064918074639
 20
3.264268584111702
 30
0.0
  0
VERTEX
  5
E4
  8
COUT_OUT_AND_MAGNET_HOLES
 10
11.84911595841369
 20
3.267566408078814
 30
0.0
  0
VERTEX
  5
E5
  8
COUT_OUT_AND_MAGNET_HOLES
 10
11.86788318889445
 20
3.269951168563375
 30
0.0
  0
VERTEX
  5
E6
  8
COUT_OUT_AND_MAGNET_HOLES
 10
11.88692731023986
 20
3.271399303616573
 30
0.0
  0
VERTEX
  5
E7
  8
COUT_OUT_AND_MAGNET_HOLES
 10
11.90622476050112
 20
3.271887251289597
 30
0.0
  0
VERTEX
  5
E8
  8
COUT_OUT_AND_MAGNET_HOLES
 10
11.90622476050112
 20
4.334387251289598
 30
0.0
  0
VERTEX
  5
E9
  8
COUT_OUT_AND_MAGNET_HOLES
 10
11.90589825244417
 20
4.360197934799988
 30
0.0
  0
VERTEX
  5
EA
  8
COUT_OUT_AND_MAGNET_HOLES
 10
11.9049243618175
 20
4.385848989438841
 30
0.0
  0
VERTEX
  5
EB
  8
COUT_OUT_AND_MAGNET_HOLES
 10
11.9033115389374
 20
4.411333964312641
 30
0.0
  0
VERTEX
  5
EC
  8
COUT_OUT_AND_MAGNET_HOLES
 10
11.90106823412014
 20
4.436646408527874
 30
0.0
  0
VERTEX
  5
ED
  8
COUT_OUT_AND_MAGNET_HOLES
 10
11.89820289768198
 20
4.461779871191023
 30
0.0
  0
VERTEX
  5
EE
  8
COUT_OUT_AND_MAGNET_HOLES
 10
11.89472397993922
 20
4.486727901408571
 30
0.0
  0
VERTEX
  5
EF
  8
COUT_OUT_AND_MAGNET_HOLES
 10
11.89063993120811
 20
4.511484048287002
 30
0.0
  0
VERTEX
  5
F0
  8
COUT_OUT_AND_MAGNET_HOLES
 10
11.88595920180495
 20
4.536041860932801
 30
0.0
  0
VERTEX
  5
F1
  8
COUT_OUT_AND_MAGNET_HOLES
 10
11.880690242046
 20
4.560394888452452
 30
0.0
  0
VERTEX
  5
F2
  8
COUT_OUT_AND_MAGNET_HOLES
 10
11.87484150224754
 20
4.584536679952436
 30
0.0
  0
VERTEX
  5
F3
  8
COUT_OUT_AND_MAGNET_HOLES
 10
11.86842143272584
 20
4.60846078453924
 30
0.0
  0
VERTEX
  5
F4
  8
COUT_OUT_AND_MAGNET_HOLES
 10
11.86143848379719
 20
4.632160751319345
 30
0.0
  0
VERTEX
  5
F5
  8
COUT_OUT_AND_MAGNET_HOLES
 10
11.85390110577785
 20
4.655630129399238
 30
0.0
  0
VERTEX
  5
F6
  8
COUT_OUT_AND_MAGNET_HOLES
 10
11.8458177489841
 20
4.678862467885402
 30
0.0
  0
VERTEX
  5
F7
  8
COUT_OUT_AND_MAGNET_HOLES
 10
11.83719686373222
 20
4.701851315884321
 30
0.0
  0
VERTEX
  5
F8
  8
COUT_OUT_AND_MAGNET_HOLES
 10
11.82804690033849
 20
4.724590222502478
 30
0.0
  0
VERTEX
  5
F9
  8
COUT_OUT_AND_MAGNET_HOLES
 10
11.81837630911917
 20
4.747072736846357
 30
0.0
  0
VERTEX
  5
FA
  8
COUT_OUT_AND_MAGNET_HOLES
 10
11.80819354039055
 20
4.769292408022443
 30
0.0
  0
VERTEX
  5
FB
  8
COUT_OUT_AND_MAGNET_HOLES
 10
11.79750704446889
 20
4.791242785137218
 30
0.0
  0
VERTEX
  5
FC
  8
COUT_OUT_AND_MAGNET_HOLES
 10
11.78632527167048
 20
4.812917417297166
 30
0.0
  0
VERTEX
  5
FD
  8
COUT_OUT_AND_MAGNET_HOLES
 10
11.77465667231159
 20
4.834309853608774
 30
0.0
  0
VERTEX
  5
FE
  8
COUT_OUT_AND_MAGNET_HOLES
 10
11.7625096967085
 20
4.855413643178522
 30
0.0
  0
VERTEX
  5
FF
  8
COUT_OUT_AND_MAGNET_HOLES
 10
11.74989279517748
 20
4.876222335112896
 30
0.0
  0
VERTEX
  5
100
  8
COUT_OUT_AND_MAGNET_HOLES
 10
11.73681441803481
 20
4.896729478518379
 30
0.0
  0
VERTEX
  5
101
  8
COUT_OUT_AND_MAGNET_HOLES
 10
11.72328301559675
 20
4.916928622501456
 30
0.0
  0
VERTEX
  5
102
  8
COUT_OUT_AND_MAGNET_HOLES
 10
11.7093070381796
 20
4.936813316168609
 30
0.0
  0
VERTEX
  5
103
  8
COUT_OUT_AND_MAGNET_HOLES
 10
11.69489493609962
 20
4.956377108626324
 30
0.0
  0
VERTEX
  5
104
  8
COUT_OUT_AND_MAGNET_HOLES
 10
11.68005515967309
 20
4.975613548981084
 30
0.0
  0
VERTEX
  5
105
  8
COUT_OUT_AND_MAGNET_HOLES
 10
11.66479615921629
 20
4.994516186339373
 30
0.0
  0
VERTEX
  5
106
  8
COUT_OUT_AND_MAGNET_HOLES
 10
11.64912638504548
 20
5.013078569807675
 30
0.0
  0
VERTEX
  5
107
  8
COUT_OUT_AND_MAGNET_HOLES
 10
11.63305428747696
 20
5.031294248492474
 30
0.0
  0
VERTEX
  5
108
  8
COUT_OUT_AND_MAGNET_HOLES
 10
11.61658831682698
 20
5.049156771500252
 30
0.0
  0
VERTEX
  5
109
  8
COUT_OUT_AND_MAGNET_HOLES
 10
11.59973692341183
 20
5.066659687937495
 30
0.0
  0
VERTEX
  5
10A
  8
COUT_OUT_AND_MAGNET_HOLES
 10
11.58250855754778
 20
5.083796546910687
 30
0.0
  0
VERTEX
  5
10B
  8
COUT_OUT_AND_MAGNET_HOLES
 10
11.56491166955111
 20
5.10056089752631
 30
0.0
  0
VERTEX
  5
10C
  8
COUT_OUT_AND_MAGNET_HOLES
 10
11.54695470973809
 20
5.116946288890849
 30
0.0
  0
VERTEX
  5
10D
  8
COUT_OUT_AND_MAGNET_HOLES
 10
11.528646128425
 20
5.132946270110789
 30
0.0
  0
VERTEX
  5
10E
  8
COUT_OUT_AND_MAGNET_HOLES
 10
11.50999437592812
 20
5.148554390292613
 30
0.0
  0
VERTEX
  5
10F
  8
COUT_OUT_AND_MAGNET_HOLES
 10
11.49100790256372
 20
5.163764198542804
 30
0.0
  0
VERTEX
  5
110
  8
COUT_OUT_AND_MAGNET_HOLES
 10
11.47169515864807
 20
5.178569243967846
 30
0.0
  0
VERTEX
  5
111
  8
COUT_OUT_AND_MAGNET_HOLES
 10
11.45206459449745
 20
5.192963075674225
 30
0.0
  0
VERTEX
  5
112
  8
COUT_OUT_AND_MAGNET_HOLES
 10
11.43212466042814
 20
5.206939242768422
 30
0.0
  0
VERTEX
  5
113
  8
COUT_OUT_AND_MAGNET_HOLES
 10
11.41188380675641
 20
5.220491294356923
 30
0.0
  0
VERTEX
  5
114
  8
COUT_OUT_AND_MAGNET_HOLES
 10
11.39135048379855
 20
5.233612779546211
 30
0.0
  0
VERTEX
  5
115
  8
COUT_OUT_AND_MAGNET_HOLES
 10
11.37053314187081
 20
5.24629724744277
 30
0.0
  0
VERTEX
  5
116
  8
COUT_OUT_AND_MAGNET_HOLES
 10
11.34944023128948
 20
5.258538247153083
 30
0.0
  0
VERTEX
  5
117
  8
COUT_OUT_AND_MAGNET_HOLES
 10
11.32808020237084
 20
5.270329327783635
 30
0.0
  0
VERTEX
  5
118
  8
COUT_OUT_AND_MAGNET_HOLES
 10
11.30646150543116
 20
5.28166403844091
 30
0.0
  0
VERTEX
  5
119
  8
COUT_OUT_AND_MAGNET_HOLES
 10
11.28459259078671
 20
5.292535928231392
 30
0.0
  0
VERTEX
  5
11A
  8
COUT_OUT_AND_MAGNET_HOLES
 10
11.26248190875377
 20
5.302938546261564
 30
0.0
  0
VERTEX
  5
11B
  8
COUT_OUT_AND_MAGNET_HOLES
 10
11.24013790964862
 20
5.312865441637911
 30
0.0
  0
VERTEX
  5
11C
  8
COUT_OUT_AND_MAGNET_HOLES
 10
11.21756904378753
 20
5.322310163466915
 30
0.0
  0
VERTEX
  5
11D
  8
COUT_OUT_AND_MAGNET_HOLES
 10
11.19478376148678
 20
5.331266260855061
 30
0.0
  0
VERTEX
  5
11E
  8
COUT_OUT_AND_MAGNET_HOLES
 10
11.17179051306264
 20
5.339727282908834
 30
0.0
  0
VERTEX
  5
11F
  8
COUT_OUT_AND_MAGNET_HOLES
 10
11.14859774883139
 20
5.347686778734717
 30
0.0
  0
VERTEX
  5
120
  8
COUT_OUT_AND_MAGNET_HOLES
 10
11.12521391910931
 20
5.355138297439193
 30
0.0
  0
VERTEX
  5
121
  8
COUT_OUT_AND_MAGNET_HOLES
 10
11.10164747421266
 20
5.362075388128748
 30
0.0
  0
VERTEX
  5
122
  8
COUT_OUT_AND_MAGNET_HOLES
 10
11.07790686445773
 20
5.368491599909863
 30
0.0
  0
VERTEX
  5
123
  8
COUT_OUT_AND_MAGNET_HOLES
 10
11.05400054016079
 20
5.374380481889023
 30
0.0
  0
VERTEX
  5
124
  8
COUT_OUT_AND_MAGNET_HOLES
 10
11.02993695163812
 20
5.379735583172714
 30
0.0
  0
VERTEX
  5
125
  8
COUT_OUT_AND_MAGNET_HOLES
 10
11.00572454920598
 20
5.384550452867416
 30
0.0
  0
VERTEX
  5
126
  8
COUT_OUT_AND_MAGNET_HOLES
 10
10.98137178318067
 20
5.388818640079617
 30
0.0
  0
VERTEX
  5
127
  8
COUT_OUT_AND_MAGNET_HOLES
 10
10.95688710387845
 20
5.392533693915798
 30
0.0
  0
VERTEX
  5
128
  8
COUT_OUT_AND_MAGNET_HOLES
 10
10.93227896161559
 20
5.395689163482445
 30
0.0
  0
SEQEND
  5
129
  8
COUT_OUT_AND_MAGNET_HOLES
  0
POLYLINE
  5
46
  8
COUT_OUT_AND_MAGNET_HOLES
 66
     1
 10
0.0
 20
0.0
 30
0.0
  0
VERTEX
  5
12A
  8
COUT_OUT_AND_MAGNET_HOLES
 10
1.932278961615596
 20
5.395689163482445
 30
0.0
  0
VERTEX
  5
12B
  8
COUT_OUT_AND_MAGNET_HOLES
 10
1.906449628064392
 20
5.39531812487161
 30
0.0
  0
VERTEX
  5
12C
  8
COUT_OUT_AND_MAGNET_HOLES
 10
1.880744353807157
 20
5.394212115813626
 30
0.0
  0
VERTEX
  5
12D
  8
COUT_OUT_AND_MAGNET_HOLES
 10
1.855172185493506
 20
5.39238179647027
 30
0.0
  0
VERTEX
  5
12E
  8
COUT_OUT_AND_MAGNET_HOLES
 10
1.829742169773054
 20
5.389837827003323
 30
0.0
  0
VERTEX
  5
12F
  8
COUT_OUT_AND_MAGNET_HOLES
 10
1.804463353295414
 20
5.386590867574561
 30
0.0
  0
VERTEX
  5
130
  8
COUT_OUT_AND_MAGNET_HOLES
 10
1.779344782710201
 20
5.382651578345765
 30
0.0
  0
VERTEX
  5
131
  8
COUT_OUT_AND_MAGNET_HOLES
 10
1.754395504667027
 20
5.378030619478714
 30
0.0
  0
VERTEX
  5
132
  8
COUT_OUT_AND_MAGNET_HOLES
 10
1.729624565815508
 20
5.372738651135187
 30
0.0
  0
VERTEX
  5
133
  8
COUT_OUT_AND_MAGNET_HOLES
 10
1.705041012805257
 20
5.366786333476961
 30
0.0
  0
VERTEX
  5
134
  8
COUT_OUT_AND_MAGNET_HOLES
 10
1.680653892285889
 20
5.360184326665816
 30
0.0
  0
VERTEX
  5
135
  8
COUT_OUT_AND_MAGNET_HOLES
 10
1.656472250907017
 20
5.352943290863531
 30
0.0
  0
VERTEX
  5
136
  8
COUT_OUT_AND_MAGNET_HOLES
 10
1.632505135318255
 20
5.345073886231885
 30
0.0
  0
VERTEX
  5
137
  8
COUT_OUT_AND_MAGNET_HOLES
 10
1.608761592169218
 20
5.336586772932658
 30
0.0
  0
VERTEX
  5
138
  8
COUT_OUT_AND_MAGNET_HOLES
 10
1.58525066810952
 20
5.327492611127626
 30
0.0
  0
VERTEX
  5
139
  8
COUT_OUT_AND_MAGNET_HOLES
 10
1.561981409788773
 20
5.31780206097857
 30
0.0
  0
VERTEX
  5
13A
  8
COUT_OUT_AND_MAGNET_HOLES
 10
1.538962863856594
 20
5.307525782647267
 30
0.0
  0
VERTEX
  5
13B
  8
COUT_OUT_AND_MAGNET_HOLES
 10
1.516204076962594
 20
5.296674436295497
 30
0.0
  0
VERTEX
  5
13C
  8
COUT_OUT_AND_MAGNET_HOLES
 10
1.49371409575639
 20
5.28525868208504
 30
0.0
  0
VERTEX
  5
13D
  8
COUT_OUT_AND_MAGNET_HOLES
 10
1.471501966887594
 20
5.273289180177675
 30
0.0
  0
VERTEX
  5
13E
  8
COUT_OUT_AND_MAGNET_HOLES
 10
1.449576737005821
 20
5.260776590735178
 30
0.0
  0
VERTEX
  5
13F
  8
COUT_OUT_AND_MAGNET_HOLES
 10
1.427947452760684
 20
5.24773157391933
 30
0.0
  0
VERTEX
  5
140
  8
COUT_OUT_AND_MAGNET_HOLES
 10
1.406623160801798
 20
5.23416478989191
 30
0.0
  0
VERTEX
  5
141
  8
COUT_OUT_AND_MAGNET_HOLES
 10
1.385612907778777
 20
5.220086898814696
 30
0.0
  0
VERTEX
  5
142
  8
COUT_OUT_AND_MAGNET_HOLES
 10
1.364925740341234
 20
5.205508560849467
 30
0.0
  0
VERTEX
  5
143
  8
COUT_OUT_AND_MAGNET_HOLES
 10
1.344570705138784
 20
5.190440436158003
 30
0.0
  0
VERTEX
  5
144
  8
COUT_OUT_AND_MAGNET_HOLES
 10
1.324556848821041
 20
5.174893184902081
 30
0.0
  0
VERTEX
  5
145
  8
COUT_OUT_AND_MAGNET_HOLES
 10
1.304893218037619
 20
5.158877467243481
 30
0.0
  0
VERTEX
  5
146
  8
COUT_OUT_AND_MAGNET_HOLES
 10
1.285588859438132
 20
5.142403943343981
 30
0.0
  0
VERTEX
  5
147
  8
COUT_OUT_AND_MAGNET_HOLES
 10
1.266652819672194
 20
5.125483273365361
 30
0.0
  0
VERTEX
  5
148
  8
COUT_OUT_AND_MAGNET_HOLES
 10
1.248094145389418
 20
5.1081261174694
 30
0.0
  0
VERTEX
  5
149
  8
COUT_OUT_AND_MAGNET_HOLES
 10
1.229921883239419
 20
5.090343135817875
 30
0.0
  0
VERTEX
  5
14A
  8
COUT_OUT_AND_MAGNET_HOLES
 10
1.212145079871811
 20
5.072144988572568
 30
0.0
  0
VERTEX
  5
14B
  8
COUT_OUT_AND_MAGNET_HOLES
 10
1.194772781936209
 20
5.053542335895255
 30
0.0
  0
VERTEX
  5
14C
  8
COUT_OUT_AND_MAGNET_HOLES
 10
1.177814036082225
 20
5.034545837947716
 30
0.0
  0
VERTEX
  5
14D
  8
COUT_OUT_AND_MAGNET_HOLES
 10
1.161277888959474
 20
5.01516615489173
 30
0.0
  0
VERTEX
  5
14E
  8
COUT_OUT_AND_MAGNET_HOLES
 10
1.145173387217571
 20
4.995413946889075
 30
0.0
  0
VERTEX
  5
14F
  8
COUT_OUT_AND_MAGNET_HOLES
 10
1.129509577506128
 20
4.97529987410153
 30
0.0
  0
VERTEX
  5
150
  8
COUT_OUT_AND_MAGNET_HOLES
 10
1.114295506474761
 20
4.954834596690876
 30
0.0
  0
VERTEX
  5
151
  8
COUT_OUT_AND_MAGNET_HOLES
 10
1.099540220773082
 20
4.93402877481889
 30
0.0
  0
VERTEX
  5
152
  8
COUT_OUT_AND_MAGNET_HOLES
 10
1.085252767050707
 20
4.91289306864735
 30
0.0
  0
VERTEX
  5
153
  8
COUT_OUT_AND_MAGNET_HOLES
 10
1.071442191957249
 20
4.891438138338037
 30
0.0
  0
VERTEX
  5
154
  8
COUT_OUT_AND_MAGNET_HOLES
 10
1.058117542142322
 20
4.869674644052727
 30
0.0
  0
VERTEX
  5
155
  8
COUT_OUT_AND_MAGNET_HOLES
 10
1.045287864255541
 20
4.847613245953204
 30
0.0
  0
VERTEX
  5
156
  8
COUT_OUT_AND_MAGNET_HOLES
 10
1.032962204946519
 20
4.825264604201241
 30
0.0
  0
VERTEX
  5
157
  8
COUT_OUT_AND_MAGNET_HOLES
 10
1.02114961086487
 20
4.80263937895862
 30
0.0
  0
VERTEX
  5
158
  8
COUT_OUT_AND_MAGNET_HOLES
 10
1.009859128660208
 20
4.77974823038712
 30
0.0
  0
VERTEX
  5
159
  8
COUT_OUT_AND_MAGNET_HOLES
 10
0.999099804982148
 20
4.756601818648519
 30
0.0
  0
VERTEX
  5
15A
  8
COUT_OUT_AND_MAGNET_HOLES
 10
0.988880686480303
 20
4.733210803904595
 30
0.0
  0
VERTEX
  5
15B
  8
COUT_OUT_AND_MAGNET_HOLES
 10
0.9792108198042875
 20
4.709585846317129
 30
0.0
  0
VERTEX
  5
15C
  8
COUT_OUT_AND_MAGNET_HOLES
 10
0.9700992516037155
 20
4.685737606047898
 30
0.0
  0
VERTEX
  5
15D
  8
COUT_OUT_AND_MAGNET_HOLES
 10
0.9615550285282009
 20
4.661676743258681
 30
0.0
  0
VERTEX
  5
15E
  8
COUT_OUT_AND_MAGNET_HOLES
 10
0.9535871972273577
 20
4.637413918111259
 30
0.0
  0
VERTEX
  5
15F
  8
COUT_OUT_AND_MAGNET_HOLES
 10
0.9462048043508001
 20
4.61295979076741
 30
0.0
  0
VERTEX
  5
160
  8
COUT_OUT_AND_MAGNET_HOLES
 10
0.9394168965481421
 20
4.588325021388911
 30
0.0
  0
VERTEX
  5
161
  8
COUT_OUT_AND_MAGNET_HOLES
 10
0.9332325204689976
 20
4.563520270137543
 30
0.0
  0
VERTEX
  5
162
  8
COUT_OUT_AND_MAGNET_HOLES
 10
0.9276607227629807
 20
4.538556197175084
 30
0.0
  0
VERTEX
  5
163
  8
COUT_OUT_AND_MAGNET_HOLES
 10
0.9227105500797054
 20
4.513443462663313
 30
0.0
  0
VERTEX
  5
164
  8
COUT_OUT_AND_MAGNET_HOLES
 10
0.9183910490687859
 20
4.488192726764008
 30
0.0
  0
VERTEX
  5
165
  8
COUT_OUT_AND_MAGNET_HOLES
 10
0.9147112663798359
 20
4.462814649638949
 30
0.0
  0
VERTEX
  5
166
  8
COUT_OUT_AND_MAGNET_HOLES
 10
0.9116802486624696
 20
4.437319891449913
 30
0.0
  0
VERTEX
  5
167
  8
COUT_OUT_AND_MAGNET_HOLES
 10
0.909307042566301
 20
4.411719112358682
 30
0.0
  0
VERTEX
  5
168
  8
COUT_OUT_AND_MAGNET_HOLES
 10
0.9076006947409443
 20
4.386022972527034
 30
0.0
  0
VERTEX
  5
169
  8
COUT_OUT_AND_MAGNET_HOLES
 10
0.9065702518360133
 20
4.360242132116746
 30
0.0
  0
VERTEX
  5
16A
  8
COUT_OUT_AND_MAGNET_HOLES
 10
0.906224760501122
 20
4.334387251289598
 30
0.0
  0
VERTEX
  5
16B
  8
COUT_OUT_AND_MAGNET_HOLES
 10
0.906224760501122
 20
1.459387251289617
 30
0.0
  0
VERTEX
  5
16C
  8
COUT_OUT_AND_MAGNET_HOLES
 10
0.9065503454206111
 20
1.433531644599628
 30
0.0
  0
VERTEX
  5
16D
  8
COUT_OUT_AND_MAGNET_HOLES
 10
0.9075219072441942
 20
1.407748657163462
 30
0.0
  0
VERTEX
  5
16E
  8
COUT_OUT_AND_MAGNET_HOLES
 10
0.909131656569546
 20
1.382048994986868
 30
0.0
  0
VERTEX
  5
16F
  8
COUT_OUT_AND_MAGNET_HOLES
 10
0.911371803994341
 20
1.356443364075592
 30
0.0
  0
VERTEX
  5
170
  8
COUT_OUT_AND_MAGNET_HOLES
 10
0.9142345601162538
 20
1.330942470435384
 30
0.0
  0
VERTEX
  5
171
  8
COUT_OUT_AND_MAGNET_HOLES
 10
0.9177121355329589
 20
1.30555702007199
 30
0.0
  0
VERTEX
  5
172
  8
COUT_OUT_AND_MAGNET_HOLES
 10
0.9217967408421308
 20
1.280297718991159
 30
0.0
  0
VERTEX
  5
173
  8
COUT_OUT_AND_MAGNET_HOLES
 10
0.9264805866414441
 20
1.255175273198638
 30
0.0
  0
VERTEX
  5
174
  8
COUT_OUT_AND_MAGNET_HOLES
 10
0.9317558835285733
 20
1.230200388700174
 30
0.0
  0
VERTEX
  5
175
  8
COUT_OUT_AND_MAGNET_HOLES
 10
0.937614842101193
 20
1.205383771501517
 30
0.0
  0
VERTEX
  5
176
  8
COUT_OUT_AND_MAGNET_HOLES
 10
0.9440496729569775
 20
1.180736127608414
 30
0.0
  0
VERTEX
  5
177
  8
COUT_OUT_AND_MAGNET_HOLES
 10
0.9510525866936017
 20
1.156268163026611
 30
0.0
  0
VERTEX
  5
178
  8
COUT_OUT_AND_MAGNET_HOLES
 10
0.9586157939087401
 20
1.131990583761858
 30
0.0
  0
VERTEX
  5
179
  8
COUT_OUT_AND_MAGNET_HOLES
 10
0.9667315052000671
 20
1.107914095819902
 30
0.0
  0
VERTEX
  5
17A
  8
COUT_OUT_AND_MAGNET_HOLES
 10
0.9753919311652571
 20
1.08404940520649
 30
0.0
  0
VERTEX
  5
17B
  8
COUT_OUT_AND_MAGNET_HOLES
 10
0.9845892824019851
 20
1.060407217927372
 30
0.0
  0
VERTEX
  5
17C
  8
COUT_OUT_AND_MAGNET_HOLES
 10
0.9943157695079252
 20
1.036998239988293
 30
0.0
  0
VERTEX
  5
17D
  8
COUT_OUT_AND_MAGNET_HOLES
 10
1.004563603080752
 20
1.013833177395003
 30
0.0
  0
VERTEX
  5
17E
  8
COUT_OUT_AND_MAGNET_HOLES
 10
1.01532499371814
 20
0.990922736153248
 30
0.0
  0
VERTEX
  5
17F
  8
COUT_OUT_AND_MAGNET_HOLES
 10
1.026592152017765
 20
0.9682776222687772
 30
0.0
  0
VERTEX
  5
180
  8
COUT_OUT_AND_MAGNET_HOLES
 10
1.038357288577299
 20
0.9459085417473378
 30
0.0
  0
VERTEX
  5
181
  8
COUT_OUT_AND_MAGNET_HOLES
 10
1.050612613994419
 20
0.9238262005946778
 30
0.0
  0
VERTEX
  5
182
  8
COUT_OUT_AND_MAGNET_HOLES
 10
1.063350338866798
 20
0.9020413048165448
 30
0.0
  0
VERTEX
  5
183
  8
COUT_OUT_AND_MAGNET_HOLES
 10
1.076562673792111
 20
0.8805645604186867
 30
0.0
  0
VERTEX
  5
184
  8
COUT_OUT_AND_MAGNET_HOLES
 10
1.090241829368033
 20
0.8594066734068512
 30
0.0
  0
VERTEX
  5
185
  8
COUT_OUT_AND_MAGNET_HOLES
 10
1.104380016192238
 20
0.8385783497867861
 30
0.0
  0
VERTEX
  5
186
  8
COUT_OUT_AND_MAGNET_HOLES
 10
1.118969444862401
 20
0.8180902955642393
 30
0.0
  0
VERTEX
  5
187
  8
COUT_OUT_AND_MAGNET_HOLES
 10
1.134002325976196
 20
0.7979532167449586
 30
0.0
  0
VERTEX
  5
188
  8
COUT_OUT_AND_MAGNET_HOLES
 10
1.149470870131298
 20
0.7781778193346915
 30
0.0
  0
VERTEX
  5
189
  8
COUT_OUT_AND_MAGNET_HOLES
 10
1.165367287925381
 20
0.7587748093391863
 30
0.0
  0
VERTEX
  5
18A
  8
COUT_OUT_AND_MAGNET_HOLES
 10
1.18168378995612
 20
0.7397548927641904
 30
0.0
  0
VERTEX
  5
18B
  8
COUT_OUT_AND_MAGNET_HOLES
 10
1.198412586821189
 20
0.7211287756154515
 30
0.0
  0
VERTEX
  5
18C
  8
COUT_OUT_AND_MAGNET_HOLES
 10
1.215545889118264
 20
0.7029071638987177
 30
0.0
  0
VERTEX
  5
18D
  8
COUT_OUT_AND_MAGNET_HOLES
 10
1.233075907445018
 20
0.6851007636197366
 30
0.0
  0
VERTEX
  5
18E
  8
COUT_OUT_AND_MAGNET_HOLES
 10
1.250994852399126
 20
0.6677202807842562
 30
0.0
  0
VERTEX
  5
18F
  8
COUT_OUT_AND_MAGNET_HOLES
 10
1.269294934578262
 20
0.650776421398024
 30
0.0
  0
VERTEX
  5
190
  8
COUT_OUT_AND_MAGNET_HOLES
 10
1.287968364580102
 20
0.634279891466788
 30
0.0
  0
VERTEX
  5
191
  8
COUT_OUT_AND_MAGNET_HOLES
 10
1.307007353002319
 20
0.6182413969962959
 30
0.0
  0
VERTEX
  5
192
  8
COUT_OUT_AND_MAGNET_HOLES
 10
1.326404110442589
 20
0.6026716439922957
 30
0.0
  0
VERTEX
  5
193
  8
COUT_OUT_AND_MAGNET_HOLES
 10
1.346150847498585
 20
0.5875813384605347
 30
0.0
  0
VERTEX
  5
194
  8
COUT_OUT_AND_MAGNET_HOLES
 10
1.366239774767983
 20
0.5729811864067611
 30
0.0
  0
VERTEX
  5
195
  8
COUT_OUT_AND_MAGNET_HOLES
 10
1.386663102848457
 20
0.5588818938367227
 30
0.0
  0
VERTEX
  5
196
  8
COUT_OUT_AND_MAGNET_HOLES
 10
1.407413042337681
 20
0.5452941667561672
 30
0.0
  0
VERTEX
  5
197
  8
COUT_OUT_AND_MAGNET_HOLES
 10
1.42848180383333
 20
0.5322287111708423
 30
0.0
  0
VERTEX
  5
198
  8
COUT_OUT_AND_MAGNET_HOLES
 10
1.449861597933078
 20
0.5196962330864958
 30
0.0
  0
VERTEX
  5
199
  8
COUT_OUT_AND_MAGNET_HOLES
 10
1.471544635234601
 20
0.5077074385088756
 30
0.0
  0
VERTEX
  5
19A
  8
COUT_OUT_AND_MAGNET_HOLES
 10
1.493523126335572
 20
0.4962730334437294
 30
0.0
  0
VERTEX
  5
19B
  8
COUT_OUT_AND_MAGNET_HOLES
 10
1.515789281833666
 20
0.485403723896805
 30
0.0
  0
VERTEX
  5
19C
  8
COUT_OUT_AND_MAGNET_HOLES
 10
1.538335312326558
 20
0.4751102158738503
 30
0.0
  0
VERTEX
  5
19D
  8
COUT_OUT_AND_MAGNET_HOLES
 10
1.561153428411922
 20
0.465403215380613
 30
0.0
  0
VERTEX
  5
19E
  8
COUT_OUT_AND_MAGNET_HOLES
 10
1.584235840687432
 20
0.4562934284228408
 30
0.0
  0
VERTEX
  5
19F
  8
COUT_OUT_AND_MAGNET_HOLES
 10
1.607574759750765
 20
0.4477915610062817
 30
0.0
  0
VERTEX
  5
1A0
  8
COUT_OUT_AND_MAGNET_HOLES
 10
1.631162396199592
 20
0.4399083191366833
 30
0.0
  0
VERTEX
  5
1A1
  8
COUT_OUT_AND_MAGNET_HOLES
 10
1.654990960631591
 20
0.4326544088197936
 30
0.0
  0
VERTEX
  5
1A2
  8
COUT_OUT_AND_MAGNET_HOLES
 10
1.679052663644435
 20
0.4260405360613601
 30
0.0
  0
VERTEX
  5
1A3
  8
COUT_OUT_AND_MAGNET_HOLES
 10
1.703339715835797
 20
0.4200774068671308
 30
0.0
  0
VERTEX
  5
1A4
  8
COUT_OUT_AND_MAGNET_HOLES
 10
1.727844327803354
 20
0.4147757272428534
 30
0.0
  0
VERTEX
  5
1A5
  8
COUT_OUT_AND_MAGNET_HOLES
 10
1.752558710144779
 20
0.4101462031942758
 30
0.0
  0
VERTEX
  5
1A6
  8
COUT_OUT_AND_MAGNET_HOLES
 10
1.777475073457748
 20
0.4061995407271457
 30
0.0
  0
VERTEX
  5
1A7
  8
COUT_OUT_AND_MAGNET_HOLES
 10
1.802585628339934
 20
0.4029464458472109
 30
0.0
  0
VERTEX
  5
1A8
  8
COUT_OUT_AND_MAGNET_HOLES
 10
1.827882585389012
 20
0.4003976245602192
 30
0.0
  0
VERTEX
  5
1A9
  8
COUT_OUT_AND_MAGNET_HOLES
 10
1.853358155202657
 20
0.3985637828719184
 30
0.0
  0
VERTEX
  5
1AA
  8
COUT_OUT_AND_MAGNET_HOLES
 10
1.879004548378544
 20
0.3974556267880562
 30
0.0
  0
VERTEX
  5
1AB
  8
COUT_OUT_AND_MAGNET_HOLES
 10
1.904813975514346
 20
0.3970838623143806
 30
0.0
  0
SEQEND
  5
1AC
  8
COUT_OUT_AND_MAGNET_HOLES
  0
POLYLINE
  5
48
  8
MAIN_SHOE
 66
     1
 10
0.0
 20
0.0
 30
0.0
 70
     1
  0
VERTEX
  5
1AD
  8
MAIN_SHOE
 10
8.598586725193039
 20
4.896887251289597
 30
0.0
 42
0.4142135623730951
  0
VERTEX
  5
1AE
  8
MAIN_SHOE
 10
6.598586725193039
 20
2.896887251289597
 30
0.0
 42
0.4142135623730951
  0
VERTEX
  5
1AF
  8
MAIN_SHOE
 10
8.598586725193039
 20
0.8968872512896249
 30
0.0
 42
0.4142135623730951
  0
VERTEX
  5
1B0
  8
MAIN_SHOE
 10
10.59858672519304
 20
2.896887251289597
 30
0.0
 42
0.4142135623730951
  0
SEQEND
  5
1B1
  8
MAIN_SHOE
  0
POLYLINE
  5
49
  8
MAIN_SHOE
 66
     1
 10
0.0
 20
0.0
 30
0.0
  0
VERTEX
  5
1B2
  8
MAIN_SHOE
 10
5.603272348523847
 20
0.3970838623143806
 30
0.0
  0
VERTEX
  5
1B3
  8
MAIN_SHOE
 10
5.603888467183982
 20
0.4220416271807177
 30
0.0
  0
VERTEX
  5
1B4
  8
MAIN_SHOE
 10
5.605456765228453
 20
0.44639241230268
 30
0.0
  0
VERTEX
  5
1B5
  8
MAIN_SHOE
 10
5.607953939030899
 20
0.4701240638226994
 30
0.0
  0
VERTEX
  5
1B6
  8
MAIN_SHOE
 10
5.611356684964955
 20
0.4932244278832079
 30
0.0
  0
VERTEX
  5
1B7
  8
MAIN_SHOE
 10
5.615641699404254
 20
0.5156813506266373
 30
0.0
  0
VERTEX
  5
1B8
  8
MAIN_SHOE
 10
5.620785678722433
 20
0.5374826781954196
 30
0.0
  0
VERTEX
  5
1B9
  8
MAIN_SHOE
 10
5.626765319293125
 20
0.558616256731987
 30
0.0
  0
VERTEX
  5
1BA
  8
MAIN_SHOE
 10
5.633557317489968
 20
0.5790699323787709
 30
0.0
  0
VERTEX
  5
1BB
  8
MAIN_SHOE
 10
5.641138369686596
 20
0.5988315512782035
 30
0.0
  0
VERTEX
  5
1BC
  8
MAIN_SHOE
 10
5.649485172256643
 20
0.617888959572717
 30
0.0
  0
VERTEX
  5
1BD
  8
MAIN_SHOE
 10
5.658574421573746
 20
0.6362300034047428
 30
0.0
  0
VERTEX
  5
1BE
  8
MAIN_SHOE
 10
5.668382814011539
 20
0.6538425289167131
 30
0.0
  0
VERTEX
  5
1BF
  8
MAIN_SHOE
 10
5.678887045943658
 20
0.6707143822510598
 30
0.0
  0
VERTEX
  5
1C0
  8
MAIN_SHOE
 10
5.690063813743738
 20
0.6868334095502149
 30
0.0
  0
VERTEX
  5
1C1
  8
MAIN_SHOE
 10
5.701889813785414
 20
0.7021874569566101
 30
0.0
  0
VERTEX
  5
1C2
  8
MAIN_SHOE
 10
5.71434174244232
 20
0.7167643706126776
 30
0.0
  0
VERTEX
  5
1C3
  8
MAIN_SHOE
 10
5.727396296088093
 20
0.7305519966608492
 30
0.0
  0
VERTEX
  5
1C4
  8
MAIN_SHOE
 10
5.741030171096368
 20
0.7435381812435569
 30
0.0
  0
VERTEX
  5
1C5
  8
MAIN_SHOE
 10
5.75522006384078
 20
0.7557107705032324
 30
0.0
  0
VERTEX
  5
1C6
  8
MAIN_SHOE
 10
5.769942670694965
 20
0.7670576105823079
 30
0.0
  0
VERTEX
  5
1C7
  8
MAIN_SHOE
 10
5.785174688032557
 20
0.7775665476232151
 30
0.0
  0
VERTEX
  5
1C8
  8
MAIN_SHOE
 10
5.800892812227191
 20
0.7872254277683861
 30
0.0
  0
VERTEX
  5
1C9
  8
MAIN_SHOE
 10
5.817073739652503
 20
0.7960220971602527
 30
0.0
  0
VERTEX
  5
1CA
  8
MAIN_SHOE
 10
5.833694166682129
 20
0.8039444019412469
 30
0.0
  0
VERTEX
  5
1CB
  8
MAIN_SHOE
 10
5.850730789689702
 20
0.8109801882538008
 30
0.0
  0
VERTEX
  5
1CC
  8
MAIN_SHOE
 10
5.868160305048859
 20
0.8171173022403461
 30
0.0
  0
VERTEX
  5
1CD
  8
MAIN_SHOE
 10
5.885959409133234
 20
0.8223435900433148
 30
0.0
  0
VERTEX
  5
1CE
  8
MAIN_SHOE
 10
5.904104798316462
 20
0.8266468978051387
 30
0.0
  0
VERTEX
  5
1CF
  8
MAIN_SHOE
 10
5.92257316897218
 20
0.8300150716682497
 30
0.0
  0
VERTEX
  5
1D0
  8
MAIN_SHOE
 10
5.941341217474023
 20
0.8324359577750801
 30
0.0
  0
VERTEX
  5
1D1
  8
MAIN_SHOE
 10
5.960385640195625
 20
0.8338974022680614
 30
0.0
  0
VERTEX
  5
1D2
  8
MAIN_SHOE
 10
5.979683133510621
 20
0.8343872512896258
 30
0.0
  0
VERTEX
  5
1D3
  8
MAIN_SHOE
 10
5.998980540718135
 20
0.8338974022680614
 30
0.0
  0
VERTEX
  5
1D4
  8
MAIN_SHOE
 10
6.018024360687361
 20
0.8324359577750801
 30
0.0
  0
VERTEX
  5
1D5
  8
MAIN_SHOE
 10
6.036790773147044
 20
0.8300150716682497
 30
0.0
  0
VERTEX
  5
1D6
  8
MAIN_SHOE
 10
6.055255957825924
 20
0.8266468978051387
 30
0.0
  0
VERTEX
  5
1D7
  8
MAIN_SHOE
 10
6.073396094452745
 20
0.8223435900433148
 30
0.0
  0
VERTEX
  5
1D8
  8
MAIN_SHOE
 10
6.09118736275625
 20
0.8171173022403461
 30
0.0
  0
VERTEX
  5
1D9
  8
MAIN_SHOE
 10
6.108605942465179
 20
0.8109801882538008
 30
0.0
  0
VERTEX
  5
1DA
  8
MAIN_SHOE
 10
6.125628013308276
 20
0.8039444019412469
 30
0.0
  0
VERTEX
  5
1DB
  8
MAIN_SHOE
 10
6.142229755014286
 20
0.7960220971602527
 30
0.0
  0
VERTEX
  5
1DC
  8
MAIN_SHOE
 10
6.158387347311947
 20
0.7872254277683861
 30
0.0
  0
VERTEX
  5
1DD
  8
MAIN_SHOE
 10
6.174076969930006
 20
0.7775665476232151
 30
0.0
  0
VERTEX
  5
1DE
  8
MAIN_SHOE
 10
6.189274802597202
 20
0.7670576105823079
 30
0.0
  0
VERTEX
  5
1DF
  8
MAIN_SHOE
 10
6.203957025042281
 20
0.7557107705032324
 30
0.0
  0
VERTEX
  5
1E0
  8
MAIN_SHOE
 10
6.218099816993982
 20
0.7435381812435569
 30
0.0
  0
VERTEX
  5
1E1
  8
MAIN_SHOE
 10
6.231679358181051
 20
0.7305519966608492
 30
0.0
  0
VERTEX
  5
1E2
  8
MAIN_SHOE
 10
6.244671828332228
 20
0.7167643706126776
 30
0.0
  0
VERTEX
  5
1E3
  8
MAIN_SHOE
 10
6.257053407176256
 20
0.7021874569566101
 30
0.0
  0
VERTEX
  5
1E4
  8
MAIN_SHOE
 10
6.26880027444188
 20
0.6868334095502149
 30
0.0
  0
VERTEX
  5
1E5
  8
MAIN_SHOE
 10
6.279888609857839
 20
0.6707143822510598
 30
0.0
  0
VERTEX
  5
1E6
  8
MAIN_SHOE
 10
6.290294593152879
 20
0.6538425289167131
 30
0.0
  0
VERTEX
  5
1E7
  8
MAIN_SHOE
 10
6.299994404055741
 20
0.6362300034047428
 30
0.0
  0
VERTEX
  5
1E8
  8
MAIN_SHOE
 10
6.308964222295167
 20
0.617888959572717
 30
0.0
  0
VERTEX
  5
1E9
  8
MAIN_SHOE
 10
6.3171802275999
 20
0.5988315512782035
 30
0.0
  0
VERTEX
  5
1EA
  8
MAIN_SHOE
 10
6.324618599698683
 20
0.5790699323787709
 30
0.0
  0
VERTEX
  5
1EB
  8
MAIN_SHOE
 10
6.331255518320258
 20
0.558616256731987
 30
0.0
  0
VERTEX
  5
1EC
  8
MAIN_SHOE
 10
6.337067163193368
 20
0.5374826781954196
 30
0.0
  0
VERTEX
  5
1ED
  8
MAIN_SHOE
 10
6.342029714046756
 20
0.5156813506266373
 30
0.0
  0
VERTEX
  5
1EE
  8
MAIN_SHOE
 10
6.346119350609164
 20
0.4932244278832079
 30
0.0
  0
VERTEX
  5
1EF
  8
MAIN_SHOE
 10
6.349312252609334
 20
0.4701240638226994
 30
0.0
  0
VERTEX
  5
1F0
  8
MAIN_SHOE
 10
6.351584599776009
 20
0.44639241230268
 30
0.0
  0
VERTEX
  5
1F1
  8
MAIN_SHOE
 10
6.352912571837932
 20
0.4220416271807177
 30
0.0
  0
VERTEX
  5
1F2
  8
MAIN_SHOE
 10
6.353272348523847
 20
0.3970838623143806
 30
0.0
  0
SEQEND
  5
1F3
  8
MAIN_SHOE
  0
POLYLINE
  5
4A
  8
MAIN_SHOE
 66
     1
 10
0.0
 20
0.0
 30
0.0
 70
     1
  0
VERTEX
  5
1F4
  8
MAIN_SHOE
 10
5.719119958957747
 20
4.296392421548257
 30
0.0
  0
VERTEX
  5
1F5
  8
MAIN_SHOE
 10
5.244448941957098
 20
3.821721404547608
 30
0.0
  0
VERTEX
  5
1F6
  8
MAIN_SHOE
 10
5.71068678202578
 20
3.584387251289597
 30
0.0
  0
VERTEX
  5
1F7
  8
MAIN_SHOE
 10
5.951103087629207
 20
3.824803556893022
 30
0.0
  0
SEQEND
  5
1F8
  8
MAIN_SHOE
  0
POLYLINE
  5
4B
  8
MAIN_SHOE
 66
     1
 10
0.0
 20
0.0
 30
0.0
  0
VERTEX
  5
1F9
  8
MAIN_SHOE
 10
4.633187592546983
 20
5.395689163482445
 30
0.0
  0
VERTEX
  5
1FA
  8
MAIN_SHOE
 10
4.107133391432507
 20
4.834387251289598
 30
0.0
  0
VERTEX
  5
1FB
  8
MAIN_SHOE
 10
3.633187592546998
 20
5.395689163482452
 30
0.0
  0
SEQEND
  5
1FC
  8
MAIN_SHOE
  0
POLYLINE
  5
4C
  8
MAIN_SHOE
 66
     1
 10
0.0
 20
0.0
 30
0.0
  0
VERTEX
  5
1FD
  8
MAIN_SHOE
 10
6.133187592547005
 20
5.395689163482467
 30
0.0
  0
VERTEX
  5
1FE
  8
MAIN_SHOE
 10
4.847664573537998
 20
4.075014644094663
 30
0.0
  0
VERTEX
  5
1FF
  8
MAIN_SHOE
 10
4.594387990612143
 20
3.821848658719893
 30
0.0
  0
VERTEX
  5
200
  8
MAIN_SHOE
 10
4.613803115673347
 20
3.797364746704135
 30
0.0
  0
VERTEX
  5
201
  8
MAIN_SHOE
 10
4.632673294785771
 20
3.772499450640083
 30
0.0
  0
VERTEX
  5
202
  8
MAIN_SHOE
 10
4.650993845102069
 20
3.74726238246856
 30
0.0
  0
VERTEX
  5
203
  8
MAIN_SHOE
 10
4.668760083774895
 20
3.721663154130384
 30
0.0
  0
VERTEX
  5
204
  8
MAIN_SHOE
 10
4.685967327956906
 20
3.695711377566378
 30
0.0
  0
VERTEX
  5
205
  8
MAIN_SHOE
 10
4.702610894800754
 20
3.669416664717361
 30
0.0
  0
VERTEX
  5
206
  8
MAIN_SHOE
 10
4.718686101459099
 20
3.642788627524153
 30
0.0
  0
VERTEX
  5
207
  8
MAIN_SHOE
 10
4.734188265084594
 20
3.615836877927575
 30
0.0
  0
VERTEX
  5
208
  8
MAIN_SHOE
 10
4.749112702829893
 20
3.588571027868448
 30
0.0
  0
VERTEX
  5
209
  8
MAIN_SHOE
 10
4.763454731847653
 20
3.561000689287592
 30
0.0
  0
VERTEX
  5
20A
  8
MAIN_SHOE
 10
4.777209669290529
 20
3.533135474125829
 30
0.0
  0
VERTEX
  5
20B
  8
MAIN_SHOE
 10
4.790372832311176
 20
3.504984994323976
 30
0.0
  0
VERTEX
  5
20C
  8
MAIN_SHOE
 10
4.802939538062249
 20
3.476558861822856
 30
0.0
  0
VERTEX
  5
20D
  8
MAIN_SHOE
 10
4.814905103696405
 20
3.44786668856329
 30
0.0
  0
VERTEX
  5
20E
  8
MAIN_SHOE
 10
4.826264846366296
 20
3.418918086486097
 30
0.0
  0
VERTEX
  5
20F
  8
MAIN_SHOE
 10
4.837014083224581
 20
3.389722667532098
 30
0.0
  0
VERTEX
  5
210
  8
MAIN_SHOE
 10
4.847148131423912
 20
3.360290043642114
 30
0.0
  0
VERTEX
  5
211
  8
MAIN_SHOE
 10
4.856662308116947
 20
3.330629826756964
 30
0.0
  0
VERTEX
  5
212
  8
MAIN_SHOE
 10
4.86555193045634
 20
3.30075162881747
 30
0.0
  0
VERTEX
  5
213
  8
MAIN_SHOE
 10
4.873812315594746
 20
3.270665061764452
 30
0.0
  0
VERTEX
  5
214
  8
MAIN_SHOE
 10
4.881438780684821
 20
3.240379737538731
 30
0.0
  0
VERTEX
  5
215
  8
MAIN_SHOE
 10
4.888426642879219
 20
3.209905268081126
 30
0.0
  0
VERTEX
  5
216
  8
MAIN_SHOE
 10
4.894771219330597
 20
3.179251265332459
 30
0.0
  0
VERTEX
  5
217
  8
MAIN_SHOE
 10
4.900467827191608
 20
3.148427341233549
 30
0.0
  0
VERTEX
  5
218
  8
MAIN_SHOE
 10
4.90551178361491
 20
3.117443107725218
 30
0.0
  0
VERTEX
  5
219
  8
MAIN_SHOE
 10
4.909898405753156
 20
3.086308176748286
 30
0.0
  0
VERTEX
  5
21A
  8
MAIN_SHOE
 10
4.913623010759002
 20
3.055032160243574
 30
0.0
  0
VERTEX
  5
21B
  8
MAIN_SHOE
 10
4.916680915785104
 20
3.023624670151901
 30
0.0
  0
VERTEX
  5
21C
  8
MAIN_SHOE
 10
4.919067437984117
 20
2.992095318414089
 30
0.0
  0
VERTEX
  5
21D
  8
MAIN_SHOE
 10
4.920777894508696
 20
2.960453716970957
 30
0.0
  0
VERTEX
  5
21E
  8
MAIN_SHOE
 10
4.921807602511495
 20
2.928709477763327
 30
0.0
  0
VERTEX
  5
21F
  8
MAIN_SHOE
 10
4.922151879145172
 20
2.896872212732019
 30
0.0
  0
VERTEX
  5
220
  8
MAIN_SHOE
 10
4.921672092807235
 20
2.858956662178318
 30
0.0
  0
VERTEX
  5
221
  8
MAIN_SHOE
 10
4.920240425460713
 20
2.821277667575261
 30
0.0
  0
VERTEX
  5
222
  8
MAIN_SHOE
 10
4.917868414606541
 20
2.783846766423785
 30
0.0
  0
VERTEX
  5
223
  8
MAIN_SHOE
 10
4.914567597745652
 20
2.746675496224825
 30
0.0
  0
VERTEX
  5
224
  8
MAIN_SHOE
 10
4.910349512378982
 20
2.709775394479313
 30
0.0
  0
VERTEX
  5
225
  8
MAIN_SHOE
 10
4.905225696007466
 20
2.673157998688184
 30
0.0
  0
VERTEX
  5
226
  8
MAIN_SHOE
 10
4.899207686132037
 20
2.636834846352374
 30
0.0
  0
VERTEX
  5
227
  8
MAIN_SHOE
 10
4.89230702025363
 20
2.600817474972818
 30
0.0
  0
VERTEX
  5
228
  8
MAIN_SHOE
 10
4.884535235873179
 20
2.565117422050448
 30
0.0
  0
VERTEX
  5
229
  8
MAIN_SHOE
 10
4.87590387049162
 20
2.5297462250862
 30
0.0
  0
VERTEX
  5
22A
  8
MAIN_SHOE
 10
4.866424461609887
 20
2.494715421581009
 30
0.0
  0
VERTEX
  5
22B
  8
MAIN_SHOE
 10
4.856108546728914
 20
2.460036549035807
 30
0.0
  0
VERTEX
  5
22C
  8
MAIN_SHOE
 10
4.844967663349635
 20
2.425721144951531
 30
0.0
  0
VERTEX
  5
22D
  8
MAIN_SHOE
 10
4.833013348972985
 20
2.391780746829115
 30
0.0
  0
VERTEX
  5
22E
  8
MAIN_SHOE
 10
4.8202571410999
 20
2.358226892169494
 30
0.0
  0
VERTEX
  5
22F
  8
MAIN_SHOE
 10
4.806710577231311
 20
2.325071118473601
 30
0.0
  0
VERTEX
  5
230
  8
MAIN_SHOE
 10
4.792385194868155
 20
2.292324963242371
 30
0.0
  0
VERTEX
  5
231
  8
MAIN_SHOE
 10
4.777292531511367
 20
2.259999963976739
 30
0.0
  0
VERTEX
  5
232
  8
MAIN_SHOE
 10
4.761444124661882
 20
2.22810765817764
 30
0.0
  0
VERTEX
  5
233
  8
MAIN_SHOE
 10
4.744851511820632
 20
2.196659583346007
 30
0.0
  0
VERTEX
  5
234
  8
MAIN_SHOE
 10
4.727526230488552
 20
2.165667276982775
 30
0.0
  0
VERTEX
  5
235
  8
MAIN_SHOE
 10
4.709479818166578
 20
2.135142276588879
 30
0.0
  0
VERTEX
  5
236
  8
MAIN_SHOE
 10
4.690723812355643
 20
2.105096119665254
 30
0.0
  0
VERTEX
  5
237
  8
MAIN_SHOE
 10
4.671269750556683
 20
2.075540343712833
 30
0.0
  0
VERTEX
  5
238
  8
MAIN_SHOE
 10
4.651129170270632
 20
2.046486486232552
 30
0.0
  0
VERTEX
  5
239
  8
MAIN_SHOE
 10
4.630313608998423
 20
2.017946084725344
 30
0.0
  0
VERTEX
  5
23A
  8
MAIN_SHOE
 10
4.608834604240992
 20
1.989930676692145
 30
0.0
  0
VERTEX
  5
23B
  8
MAIN_SHOE
 10
4.586703693499274
 20
1.962451799633888
 30
0.0
  0
VERTEX
  5
23C
  8
MAIN_SHOE
 10
4.563932414274202
 20
1.935520991051509
 30
0.0
  0
VERTEX
  5
23D
  8
MAIN_SHOE
 10
4.540532304066711
 20
1.909149788445942
 30
0.0
  0
VERTEX
  5
23E
  8
MAIN_SHOE
 10
4.516514900377736
 20
1.883349729318121
 30
0.0
  0
VERTEX
  5
23F
  8
MAIN_SHOE
 10
4.49189174070821
 20
1.85813235116898
 30
0.0
  0
VERTEX
  5
240
  8
MAIN_SHOE
 10
4.46667436255907
 20
1.833509191499456
 30
0.0
  0
VERTEX
  5
241
  8
MAIN_SHOE
 10
4.440874303431249
 20
1.80949178781048
 30
0.0
  0
VERTEX
  5
242
  8
MAIN_SHOE
 10
4.414503100825682
 20
1.78609167760299
 30
0.0
  0
VERTEX
  5
243
  8
MAIN_SHOE
 10
4.387572292243303
 20
1.763320398377918
 30
0.0
  0
VERTEX
  5
244
  8
MAIN_SHOE
 10
4.360093415185046
 20
1.741189487636199
 30
0.0
  0
VERTEX
  5
245
  8
MAIN_SHOE
 10
4.332078007151846
 20
1.719710482878768
 30
0.0
  0
VERTEX
  5
246
  8
MAIN_SHOE
 10
4.303537605644639
 20
1.698894921606559
 30
0.0
  0
VERTEX
  5
247
  8
MAIN_SHOE
 10
4.274483748164357
 20
1.678754341320507
 30
0.0
  0
VERTEX
  5
248
  8
MAIN_SHOE
 10
4.244927972211936
 20
1.659300279521547
 30
0.0
  0
VERTEX
  5
249
  8
MAIN_SHOE
 10
4.214881815288312
 20
1.640544273710613
 30
0.0
  0
VERTEX
  5
24A
  8
MAIN_SHOE
 10
4.184356814894416
 20
1.622497861388638
 30
0.0
  0
VERTEX
  5
24B
  8
MAIN_SHOE
 10
4.153364508531184
 20
1.605172580056559
 30
0.0
  0
VERTEX
  5
24C
  8
MAIN_SHOE
 10
4.121916433699552
 20
1.588579967215309
 30
0.0
  0
VERTEX
  5
24D
  8
MAIN_SHOE
 10
4.090024127900452
 20
1.572731560365822
 30
0.0
  0
VERTEX
  5
24E
  8
MAIN_SHOE
 10
4.05769912863482
 20
1.557638897009034
 30
0.0
  0
VERTEX
  5
24F
  8
MAIN_SHOE
 10
4.02495297340359
 20
1.543313514645879
 30
0.0
  0
VERTEX
  5
250
  8
MAIN_SHOE
 10
3.991797199707697
 20
1.529766950777292
 30
0.0
  0
VERTEX
  5
251
  8
MAIN_SHOE
 10
3.958243345048075
 20
1.517010742904206
 30
0.0
  0
VERTEX
  5
252
  8
MAIN_SHOE
 10
3.92430294692566
 20
1.505056428527556
 30
0.0
  0
VERTEX
  5
253
  8
MAIN_SHOE
 10
3.889987542841383
 20
1.493915545148278
 30
0.0
  0
VERTEX
  5
254
  8
MAIN_SHOE
 10
3.855308670296182
 20
1.483599630267304
 30
0.0
  0
VERTEX
  5
255
  8
MAIN_SHOE
 10
3.82027786679099
 20
1.474120221385571
 30
0.0
  0
VERTEX
  5
256
  8
MAIN_SHOE
 10
3.784906669826742
 20
1.465488856004012
 30
0.0
  0
VERTEX
  5
257
  8
MAIN_SHOE
 10
3.749206616904373
 20
1.457717071623561
 30
0.0
  0
VERTEX
  5
258
  8
MAIN_SHOE
 10
3.713189245524816
 20
1.450816405745154
 30
0.0
  0
VERTEX
  5
259
  8
MAIN_SHOE
 10
3.676866093189006
 20
1.444798395869726
 30
0.0
  0
VERTEX
  5
25A
  8
MAIN_SHOE
 10
3.640248697397878
 20
1.439674579498209
 30
0.0
  0
VERTEX
  5
25B
  8
MAIN_SHOE
 10
3.603348595652366
 20
1.435456494131539
 30
0.0
  0
VERTEX
  5
25C
  8
MAIN_SHOE
 10
3.566177325453405
 20
1.432155677270651
 30
0.0
  0
VERTEX
  5
25D
  8
MAIN_SHOE
 10
3.52874642430193
 20
1.429783666416478
 30
0.0
  0
VERTEX
  5
25E
  8
MAIN_SHOE
 10
3.491067429698873
 20
1.428351999069956
 30
0.0
  0
VERTEX
  5
25F
  8
MAIN_SHOE
 10
3.453151879145172
 20
1.427872212732019
 30
0.0
  0
VERTEX
  5
260
  8
MAIN_SHOE
 10
3.415236328591471
 20
1.428351999069956
 30
0.0
  0
VERTEX
  5
261
  8
MAIN_SHOE
 10
3.377557333988414
 20
1.429783666416478
 30
0.0
  0
VERTEX
  5
262
  8
MAIN_SHOE
 10
3.340126432836938
 20
1.432155677270651
 30
0.0
  0
VERTEX
  5
263
  8
MAIN_SHOE
 10
3.302955162637978
 20
1.435456494131539
 30
0.0
  0
VERTEX
  5
264
  8
MAIN_SHOE
 10
3.266055060892466
 20
1.439674579498209
 30
0.0
  0
VERTEX
  5
265
  8
MAIN_SHOE
 10
3.229437665101337
 20
1.444798395869726
 30
0.0
  0
VERTEX
  5
266
  8
MAIN_SHOE
 10
3.193114512765527
 20
1.450816405745154
 30
0.0
  0
VERTEX
  5
267
  8
MAIN_SHOE
 10
3.157097141385971
 20
1.457717071623561
 30
0.0
  0
VERTEX
  5
268
  8
MAIN_SHOE
 10
3.121397088463601
 20
1.465488856004012
 30
0.0
  0
VERTEX
  5
269
  8
MAIN_SHOE
 10
3.086025891499353
 20
1.474120221385571
 30
0.0
  0
VERTEX
  5
26A
  8
MAIN_SHOE
 10
3.050995087994162
 20
1.483599630267304
 30
0.0
  0
VERTEX
  5
26B
  8
MAIN_SHOE
 10
3.01631621544896
 20
1.493915545148278
 30
0.0
  0
VERTEX
  5
26C
  8
MAIN_SHOE
 10
2.982000811364684
 20
1.505056428527556
 30
0.0
  0
VERTEX
  5
26D
  8
MAIN_SHOE
 10
2.948060413242268
 20
1.517010742904206
 30
0.0
  0
VERTEX
  5
26E
  8
MAIN_SHOE
 10
2.914506558582647
 20
1.529766950777292
 30
0.0
  0
VERTEX
  5
26F
  8
MAIN_SHOE
 10
2.881350784886754
 20
1.543313514645879
 30
0.0
  0
VERTEX
  5
270
  8
MAIN_SHOE
 10
2.848604629655524
 20
1.557638897009034
 30
0.0
  0
VERTEX
  5
271
  8
MAIN_SHOE
 10
2.816279630389892
 20
1.572731560365822
 30
0.0
  0
VERTEX
  5
272
  8
MAIN_SHOE
 10
2.784387324590793
 20
1.588579967215309
 30
0.0
  0
VERTEX
  5
273
  8
MAIN_SHOE
 10
2.75293924975916
 20
1.605172580056559
 30
0.0
  0
VERTEX
  5
274
  8
MAIN_SHOE
 10
2.721946943395928
 20
1.622497861388638
 30
0.0
  0
VERTEX
  5
275
  8
MAIN_SHOE
 10
2.691421943002032
 20
1.640544273710613
 30
0.0
  0
VERTEX
  5
276
  8
MAIN_SHOE
 10
2.661375786078407
 20
1.659300279521547
 30
0.0
  0
VERTEX
  5
277
  8
MAIN_SHOE
 10
2.631820010125986
 20
1.678754341320507
 30
0.0
  0
VERTEX
  5
278
  8
MAIN_SHOE
 10
2.602766152645705
 20
1.698894921606559
 30
0.0
  0
VERTEX
  5
279
  8
MAIN_SHOE
 10
2.574225751138497
 20
1.719710482878768
 30
0.0
  0
VERTEX
  5
27A
  8
MAIN_SHOE
 10
2.546210343105298
 20
1.741189487636199
 30
0.0
  0
VERTEX
  5
27B
  8
MAIN_SHOE
 10
2.518731466047042
 20
1.763320398377918
 30
0.0
  0
VERTEX
  5
27C
  8
MAIN_SHOE
 10
2.491800657464662
 20
1.78609167760299
 30
0.0
  0
VERTEX
  5
27D
  8
MAIN_SHOE
 10
2.465429454859095
 20
1.80949178781048
 30
0.0
  0
VERTEX
  5
27E
  8
MAIN_SHOE
 10
2.439629395731274
 20
1.833509191499456
 30
0.0
  0
VERTEX
  5
27F
  8
MAIN_SHOE
 10
2.414412017582134
 20
1.85813235116898
 30
0.0
  0
VERTEX
  5
280
  8
MAIN_SHOE
 10
2.389788857912608
 20
1.883349729318121
 30
0.0
  0
VERTEX
  5
281
  8
MAIN_SHOE
 10
2.365771454223633
 20
1.909149788445942
 30
0.0
  0
VERTEX
  5
282
  8
MAIN_SHOE
 10
2.342371344016142
 20
1.935520991051509
 30
0.0
  0
VERTEX
  5
283
  8
MAIN_SHOE
 10
2.319600064791071
 20
1.962451799633888
 30
0.0
  0
VERTEX
  5
284
  8
MAIN_SHOE
 10
2.297469154049351
 20
1.989930676692145
 30
0.0
  0
VERTEX
  5
285
  8
MAIN_SHOE
 10
2.275990149291921
 20
2.017946084725344
 30
0.0
  0
VERTEX
  5
286
  8
MAIN_SHOE
 10
2.255174588019712
 20
2.046486486232552
 30
0.0
  0
VERTEX
  5
287
  8
MAIN_SHOE
 10
2.23503400773366
 20
2.075540343712833
 30
0.0
  0
VERTEX
  5
288
  8
MAIN_SHOE
 10
2.2155799459347
 20
2.105096119665254
 30
0.0
  0
VERTEX
  5
289
  8
MAIN_SHOE
 10
2.196823940123765
 20
2.135142276588879
 30
0.0
  0
VERTEX
  5
28A
  8
MAIN_SHOE
 10
2.17877752780179
 20
2.165667276982775
 30
0.0
  0
VERTEX
  5
28B
  8
MAIN_SHOE
 10
2.161452246469711
 20
2.196659583346007
 30
0.0
  0
VERTEX
  5
28C
  8
MAIN_SHOE
 10
2.144859633628461
 20
2.22810765817764
 30
0.0
  0
VERTEX
  5
28D
  8
MAIN_SHOE
 10
2.129011226778975
 20
2.259999963976739
 30
0.0
  0
VERTEX
  5
28E
  8
MAIN_SHOE
 10
2.113918563422187
 20
2.292324963242371
 30
0.0
  0
VERTEX
  5
28F
  8
MAIN_SHOE
 10
2.099593181059032
 20
2.325071118473601
 30
0.0
  0
VERTEX
  5
290
  8
MAIN_SHOE
 10
2.086046617190445
 20
2.358226892169494
 30
0.0
  0
VERTEX
  5
291
  8
MAIN_SHOE
 10
2.073290409317359
 20
2.391780746829115
 30
0.0
  0
VERTEX
  5
292
  8
MAIN_SHOE
 10
2.061336094940709
 20
2.425721144951531
 30
0.0
  0
VERTEX
  5
293
  8
MAIN_SHOE
 10
2.050195211561431
 20
2.460036549035807
 30
0.0
  0
VERTEX
  5
294
  8
MAIN_SHOE
 10
2.039879296680458
 20
2.494715421581009
 30
0.0
  0
VERTEX
  5
295
  8
MAIN_SHOE
 10
2.030399887798723
 20
2.5297462250862
 30
0.0
  0
VERTEX
  5
296
  8
MAIN_SHOE
 10
2.021768522417164
 20
2.565117422050448
 30
0.0
  0
VERTEX
  5
297
  8
MAIN_SHOE
 10
2.013996738036714
 20
2.600817474972818
 30
0.0
  0
VERTEX
  5
298
  8
MAIN_SHOE
 10
2.007096072158307
 20
2.636834846352374
 30
0.0
  0
VERTEX
  5
299
  8
MAIN_SHOE
 10
2.001078062282878
 20
2.673157998688184
 30
0.0
  0
VERTEX
  5
29A
  8
MAIN_SHOE
 10
1.995954245911362
 20
2.709775394479313
 30
0.0
  0
VERTEX
  5
29B
  8
MAIN_SHOE
 10
1.991736160544692
 20
2.746675496224825
 30
0.0
  0
VERTEX
  5
29C
  8
MAIN_SHOE
 10
1.988435343683804
 20
2.783846766423785
 30
0.0
  0
VERTEX
  5
29D
  8
MAIN_SHOE
 10
1.986063332829631
 20
2.821277667575261
 30
0.0
  0
VERTEX
  5
29E
  8
MAIN_SHOE
 10
1.984631665483109
 20
2.858956662178318
 30
0.0
  0
VERTEX
  5
29F
  8
MAIN_SHOE
 10
1.984151879145172
 20
2.896872212732019
 30
0.0
  0
VERTEX
  5
2A0
  8
MAIN_SHOE
 10
1.984631665483109
 20
2.934787763285721
 30
0.0
  0
VERTEX
  5
2A1
  8
MAIN_SHOE
 10
1.986063332829631
 20
2.972466757888777
 30
0.0
  0
VERTEX
  5
2A2
  8
MAIN_SHOE
 10
1.988435343683804
 20
3.009897659040253
 30
0.0
  0
VERTEX
  5
2A3
  8
MAIN_SHOE
 10
1.991736160544692
 20
3.047068929239214
 30
0.0
  0
VERTEX
  5
2A4
  8
MAIN_SHOE
 10
1.995954245911362
 20
3.083969030984726
 30
0.0
  0
VERTEX
  5
2A5
  8
MAIN_SHOE
 10
2.001078062282878
 20
3.120586426775854
 30
0.0
  0
VERTEX
  5
2A6
  8
MAIN_SHOE
 10
2.007096072158307
 20
3.156909579111664
 30
0.0
  0
VERTEX
  5
2A7
  8
MAIN_SHOE
 10
2.013996738036714
 20
3.192926950491221
 30
0.0
  0
VERTEX
  5
2A8
  8
MAIN_SHOE
 10
2.021768522417164
 20
3.22862700341359
 30
0.0
  0
VERTEX
  5
2A9
  8
MAIN_SHOE
 10
2.030399887798723
 20
3.263998200377838
 30
0.0
  0
VERTEX
  5
2AA
  8
MAIN_SHOE
 10
2.039879296680458
 20
3.29902900388303
 30
0.0
  0
VERTEX
  5
2AB
  8
MAIN_SHOE
 10
2.050195211561431
 20
3.333707876428231
 30
0.0
  0
VERTEX
  5
2AC
  8
MAIN_SHOE
 10
2.061336094940709
 20
3.368023280512507
 30
0.0
  0
VERTEX
  5
2AD
  8
MAIN_SHOE
 10
2.073290409317359
 20
3.401963678634923
 30
0.0
  0
VERTEX
  5
2AE
  8
MAIN_SHOE
 10
2.086046617190445
 20
3.435517533294545
 30
0.0
  0
VERTEX
  5
2AF
  8
MAIN_SHOE
 10
2.099593181059032
 20
3.468673306990438
 30
0.0
  0
VERTEX
  5
2B0
  8
MAIN_SHOE
 10
2.113918563422187
 20
3.501419462221667
 30
0.0
  0
VERTEX
  5
2B1
  8
MAIN_SHOE
 10
2.129011226778975
 20
3.533744461487299
 30
0.0
  0
VERTEX
  5
2B2
  8
MAIN_SHOE
 10
2.144859633628461
 20
3.565636767286399
 30
0.0
  0
VERTEX
  5
2B3
  8
MAIN_SHOE
 10
2.161452246469711
 20
3.597084842118032
 30
0.0
  0
VERTEX
  5
2B4
  8
MAIN_SHOE
 10
2.17877752780179
 20
3.628077148481264
 30
0.0
  0
VERTEX
  5
2B5
  8
MAIN_SHOE
 10
2.196823940123765
 20
3.658602148875159
 30
0.0
  0
VERTEX
  5
2B6
  8
MAIN_SHOE
 10
2.2155799459347
 20
3.688648305798785
 30
0.0
  0
VERTEX
  5
2B7
  8
MAIN_SHOE
 10
2.23503400773366
 20
3.718204081751205
 30
0.0
  0
VERTEX
  5
2B8
  8
MAIN_SHOE
 10
2.255174588019712
 20
3.747257939231487
 30
0.0
  0
VERTEX
  5
2B9
  8
MAIN_SHOE
 10
2.275990149291921
 20
3.775798340738694
 30
0.0
  0
VERTEX
  5
2BA
  8
MAIN_SHOE
 10
2.297469154049351
 20
3.803813748771893
 30
0.0
  0
VERTEX
  5
2BB
  8
MAIN_SHOE
 10
2.319600064791071
 20
3.83129262583015
 30
0.0
  0
VERTEX
  5
2BC
  8
MAIN_SHOE
 10
2.342371344016142
 20
3.85822343441253
 30
0.0
  0
VERTEX
  5
2BD
  8
MAIN_SHOE
 10
2.365771454223633
 20
3.884594637018097
 30
0.0
  0
VERTEX
  5
2BE
  8
MAIN_SHOE
 10
2.389788857912608
 20
3.910394696145918
 30
0.0
  0
VERTEX
  5
2BF
  8
MAIN_SHOE
 10
2.414412017582134
 20
3.935612074295058
 30
0.0
  0
VERTEX
  5
2C0
  8
MAIN_SHOE
 10
2.439629395731274
 20
3.960235233964583
 30
0.0
  0
VERTEX
  5
2C1
  8
MAIN_SHOE
 10
2.465429454859095
 20
3.984252637653558
 30
0.0
  0
VERTEX
  5
2C2
  8
MAIN_SHOE
 10
2.491800657464662
 20
4.007652747861048
 30
0.0
  0
VERTEX
  5
2C3
  8
MAIN_SHOE
 10
2.518731466047042
 20
4.03042402708612
 30
0.0
  0
VERTEX
  5
2C4
  8
MAIN_SHOE
 10
2.546210343105298
 20
4.052554937827839
 30
0.0
  0
VERTEX
  5
2C5
  8
MAIN_SHOE
 10
2.574225751138497
 20
4.074033942585269
 30
0.0
  0
VERTEX
  5
2C6
  8
MAIN_SHOE
 10
2.602766152645705
 20
4.094849503857478
 30
0.0
  0
VERTEX
  5
2C7
  8
MAIN_SHOE
 10
2.631820010125986
 20
4.11499008414353
 30
0.0
  0
VERTEX
  5
2C8
  8
MAIN_SHOE
 10
2.661375786078407
 20
4.13444414594249
 30
0.0
  0
VERTEX
  5
2C9
  8
MAIN_SHOE
 10
2.691421943002032
 20
4.153200151753426
 30
0.0
  0
VERTEX
  5
2CA
  8
MAIN_SHOE
 10
2.721946943395928
 20
4.1712465640754
 30
0.0
  0
VERTEX
  5
2CB
  8
MAIN_SHOE
 10
2.75293924975916
 20
4.18857184540748
 30
0.0
  0
VERTEX
  5
2CC
  8
MAIN_SHOE
 10
2.784387324590793
 20
4.20516445824873
 30
0.0
  0
VERTEX
  5
2CD
  8
MAIN_SHOE
 10
2.816279630389892
 20
4.221012865098215
 30
0.0
  0
VERTEX
  5
2CE
  8
MAIN_SHOE
 10
2.848604629655524
 20
4.236105528455003
 30
0.0
  0
VERTEX
  5
2CF
  8
MAIN_SHOE
 10
2.881350784886754
 20
4.250430910818158
 30
0.0
  0
VERTEX
  5
2D0
  8
MAIN_SHOE
 10
2.914506558582647
 20
4.263977474686746
 30
0.0
  0
VERTEX
  5
2D1
  8
MAIN_SHOE
 10
2.948060413242268
 20
4.276733682559831
 30
0.0
  0
VERTEX
  5
2D2
  8
MAIN_SHOE
 10
2.982000811364684
 20
4.288687996936481
 30
0.0
  0
VERTEX
  5
2D3
  8
MAIN_SHOE
 10
3.01631621544896
 20
4.29982888031576
 30
0.0
  0
VERTEX
  5
2D4
  8
MAIN_SHOE
 10
3.050995087994162
 20
4.310144795196733
 30
0.0
  0
VERTEX
  5
2D5
  8
MAIN_SHOE
 10
3.086025891499353
 20
4.319624204078466
 30
0.0
  0
VERTEX
  5
2D6
  8
MAIN_SHOE
 10
3.121397088463601
 20
4.328255569460025
 30
0.0
  0
VERTEX
  5
2D7
  8
MAIN_SHOE
 10
3.157097141385971
 20
4.336027353840476
 30
0.0
  0
VERTEX
  5
2D8
  8
MAIN_SHOE
 10
3.193114512765527
 20
4.342928019718883
 30
0.0
  0
VERTEX
  5
2D9
  8
MAIN_SHOE
 10
3.229437665101337
 20
4.348946029594312
 30
0.0
  0
VERTEX
  5
2DA
  8
MAIN_SHOE
 10
3.266055060892466
 20
4.354069845965828
 30
0.0
  0
VERTEX
  5
2DB
  8
MAIN_SHOE
 10
3.302955162637978
 20
4.358287931332498
 30
0.0
  0
VERTEX
  5
2DC
  8
MAIN_SHOE
 10
3.340126432836938
 20
4.361588748193387
 30
0.0
  0
VERTEX
  5
2DD
  8
MAIN_SHOE
 10
3.377557333988414
 20
4.36396075904756
 30
0.0
  0
VERTEX
  5
2DE
  8
MAIN_SHOE
 10
3.415236328591471
 20
4.365392426394081
 30
0.0
  0
VERTEX
  5
2DF
  8
MAIN_SHOE
 10
3.453151879145172
 20
4.365872212732018
 30
0.0
  0
VERTEX
  5
2E0
  8
MAIN_SHOE
 10
3.483180518214257
 20
4.365565454264623
 30
0.0
  0
VERTEX
  5
2E1
  8
MAIN_SHOE
 10
3.513147630773521
 20
4.364647171706795
 30
0.0
  0
VERTEX
  5
2E2
  8
MAIN_SHOE
 10
3.543044541715521
 20
4.363120354325082
 30
0.0
  0
VERTEX
  5
2E3
  8
MAIN_SHOE
 10
3.572862575932812
 20
4.360987991386024
 30
0.0
  0
VERTEX
  5
2E4
  8
MAIN_SHOE
 10
3.602593058317949
 20
4.358253072156167
 30
0.0
  0
VERTEX
  5
2E5
  8
MAIN_SHOE
 10
3.632227313763488
 20
4.354918585902054
 30
0.0
  0
VERTEX
  5
2E6
  8
MAIN_SHOE
 10
3.661756667161983
 20
4.350987521890227
 30
0.0
  0
VERTEX
  5
2E7
  8
MAIN_SHOE
 10
3.691172443405991
 20
4.346462869387233
 30
0.0
  0
VERTEX
  5
2E8
  8
MAIN_SHOE
 10
3.720465967388067
 20
4.341347617659613
 30
0.0
  0
VERTEX
  5
2E9
  8
MAIN_SHOE
 10
3.749628564000766
 20
4.335644755973911
 30
0.0
  0
VERTEX
  5
2EA
  8
MAIN_SHOE
 10
3.778651558136645
 20
4.329357273596671
 30
0.0
  0
VERTEX
  5
2EB
  8
MAIN_SHOE
 10
3.807526274688259
 20
4.322488159794436
 30
0.0
  0
VERTEX
  5
2EC
  8
MAIN_SHOE
 10
3.836244038548162
 20
4.315040403833752
 30
0.0
  0
VERTEX
  5
2ED
  8
MAIN_SHOE
 10
3.864796174608911
 20
4.307016994981158
 30
0.0
  0
VERTEX
  5
2EE
  8
MAIN_SHOE
 10
3.89317400776306
 20
4.298420922503201
 30
0.0
  0
VERTEX
  5
2EF
  8
MAIN_SHOE
 10
3.921368862903166
 20
4.289255175666424
 30
0.0
  0
VERTEX
  5
2F0
  8
MAIN_SHOE
 10
3.949372064921784
 20
4.27952274373737
 30
0.0
  0
VERTEX
  5
2F1
  8
MAIN_SHOE
 10
3.977174938711469
 20
4.269226615982584
 30
0.0
  0
VERTEX
  5
2F2
  8
MAIN_SHOE
 10
4.004768809164776
 20
4.258369781668607
 30
0.0
  0
VERTEX
  5
2F3
  8
MAIN_SHOE
 10
4.032145001174263
 20
4.246955230061985
 30
0.0
  0
VERTEX
  5
2F4
  8
MAIN_SHOE
 10
4.059294839632484
 20
4.234985950429261
 30
0.0
  0
VERTEX
  5
2F5
  8
MAIN_SHOE
 10
4.086209649431993
 20
4.222464932036976
 30
0.0
  0
VERTEX
  5
2F6
  8
MAIN_SHOE
 10
4.112880755465348
 20
4.209395164151678
 30
0.0
  0
VERTEX
  5
2F7
  8
MAIN_SHOE
 10
4.139299482625102
 20
4.195779636039908
 30
0.0
  0
VERTEX
  5
2F8
  8
MAIN_SHOE
 10
4.165457155803812
 20
4.18162133696821
 30
0.0
  0
VERTEX
  5
2F9
  8
MAIN_SHOE
 10
4.191345099894033
 20
4.166923256203127
 30
0.0
  0
VERTEX
  5
2FA
  8
MAIN_SHOE
 10
4.21695463978832
 20
4.151688383011203
 30
0.0
  0
VERTEX
  5
2FB
  8
MAIN_SHOE
 10
4.24227710037923
 20
4.135919706658983
 30
0.0
  0
VERTEX
  5
2FC
  8
MAIN_SHOE
 10
4.267303806559317
 20
4.11962021641301
 30
0.0
  0
VERTEX
  5
2FD
  8
MAIN_SHOE
 10
4.292026083221137
 20
4.102792901539825
 30
0.0
  0
VERTEX
  5
2FE
  8
MAIN_SHOE
 10
4.316435255257245
 20
4.085440751305974
 30
0.0
  0
VERTEX
  5
2FF
  8
MAIN_SHOE
 10
4.340522647560197
 20
4.067566754978001
 30
0.0
  0
VERTEX
  5
300
  8
MAIN_SHOE
 10
4.359969118677169
 20
4.086982368013908
 30
0.0
  0
VERTEX
  5
301
  8
MAIN_SHOE
 10
4.359969118677192
 20
4.08698236801389
 30
0.0
  0
VERTEX
  5
302
  8
MAIN_SHOE
 10
5.633432250391971
 20
5.395689163482445
 30
0.0
  0
SEQEND
  5
303
  8
MAIN_SHOE
  0
ENDSEC
  0
EOF
