  0
SECTION
  2
HEADER
  9
$ACADVER
  1
AC1003
  9
$EXTMIN
 10
0.205463693791575
 20
8.13434897037505
  9
$EXTMAX
 10
8.15330514901386
 20
0.334348969923184
  9
$INSBASE
 10
4.17938442140272
 20
4.23434897014912
999
Created with OMAX Layout for Windows. (http://www.omax.com) 18/1/2013
  0
ENDSEC
  0
SECTION
  2
TABLES
  0
TABLE
  2
LAYER
 70
    10
  0
LAYER
  2
0
 70
     0
 62
     7
  6
CONTINUOUS
  0
LAYER
  2
1
 70
     0
 62
     7
  6
CONTINUOUS
  0
LAYER
  2
2
 70
     0
 62
     7
  6
CONTINUOUS
  0
LAYER
  2
3
 70
     0
 62
     7
  6
CONTINUOUS
  0
LAYER
  2
4
 70
     0
 62
     7
  6
CONTINUOUS
  0
LAYER
  2
5
 70
     0
 62
     7
  6
CONTINUOUS
  0
LAYER
  2
6
 70
     0
 62
     7
  6
CONTINUOUS
  0
LAYER
  2
7
 70
     0
 62
     7
  6
CONTINUOUS
  0
LAYER
  2
8
 70
     0
 62
     7
  6
CONTINUOUS
  0
LAYER
  2
9
 70
     0
 62
     7
  6
CONTINUOUS
  0
LAYER
  2
10
 70
     0
 62
     7
  6
CONTINUOUS
  0
LAYER
  2
11
 70
     0
 62
     7
  6
CONTINUOUS
  0
LAYER
  2
12
 70
     0
 62
     7
  6
CONTINUOUS
  0
LAYER
  2
13
 70
     0
 62
     7
  6
CONTINUOUS
  0
LAYER
  2
14
 70
     0
 62
     7
  6
CONTINUOUS
  0
LAYER
  2
15
 70
     0
 62
     7
  6
CONTINUOUS
  0
LAYER
  2
16
 70
     0
 62
     7
  6
CONTINUOUS
  0
LAYER
  2
17
 70
     0
 62
     7
  6
CONTINUOUS
  0
LAYER
  2
18
 70
     0
 62
     7
  6
CONTINUOUS
  0
LAYER
  2
19
 70
     0
 62
     7
  6
CONTINUOUS
  0
LAYER
  2
20
 70
     0
 62
     7
  6
CONTINUOUS
  0
LAYER
  2
21
 70
     0
 62
     7
  6
CONTINUOUS
  0
LAYER
  2
22
 70
     0
 62
     7
  6
CONTINUOUS
  0
LAYER
  2
23
 70
     0
 62
     7
  6
CONTINUOUS
  0
LAYER
  2
24
 70
     0
 62
     7
  6
CONTINUOUS
  0
LAYER
  2
25
 70
     0
 62
     7
  6
CONTINUOUS
  0
LAYER
  2
26
 70
     0
 62
     7
  6
CONTINUOUS
  0
LAYER
  2
27
 70
     0
 62
     7
  6
CONTINUOUS
  0
LAYER
  2
28
 70
     0
 62
     7
  6
CONTINUOUS
  0
LAYER
  2
29
 70
     0
 62
     7
  6
CONTINUOUS
  0
LAYER
  2
30
 70
     0
 62
     7
  6
CONTINUOUS
  0
LAYER
  2
31
 70
     0
 62
     7
  6
CONTINUOUS
  0
ENDTAB
  0
ENDSEC
  0
SECTION
  2
ENTITIES
  0
ARC
  8
3
  6
CONTINUOUS
 62
3
 10
0.330463693800639
 20
6.70934897036405
 30
0.0
 40
0.072000000003233
 50
180.000000010289
 51
8.44834837263747E-16
  0
ARC
  8
3
  6
CONTINUOUS
 62
3
 10
0.330463693803301
 20
6.70934897037075
 30
0.0
 40
0.0720000000005714
 50
359.999999994666
 51
135.000000007464
  0
ARC
  8
3
  6
CONTINUOUS
 62
3
 10
7.88046369379579
 20
6.70934897036405
 30
0.0
 40
0.0720000000000005
 50
1.02896295725558E-8
 51
179.999999999999
  0
ARC
  8
3
  6
CONTINUOUS
 62
3
 10
6.48046369380064
 20
6.70934897036405
 30
0.0
 40
0.0720000000032326
 50
180.000000010288
 51
359.999999999999
  0
ARC
  8
3
  6
CONTINUOUS
 62
3
 10
6.4804636938033
 20
6.70934897037075
 30
0.0
 40
0.0720000000005709
 50
359.999999994664
 51
135.000000007465
  0
ARC
  8
3
  6
CONTINUOUS
 62
3
 10
1.73046369379579
 20
6.70934897036404
 30
0.0
 40
0.0720000000000001
 50
1.02899349058052E-8
 51
179.999999999998
  0
ARC
  8
3
  6
CONTINUOUS
 62
3
 10
6.48046369380064
 20
4.63449882199705
 30
0.0
 40
0.0720000000032335
 50
180.000000010289
 51
359.999999999999
  0
ARC
  8
3
  6
CONTINUOUS
 62
3
 10
6.48046369377796
 20
4.63449882201276
 30
0.0
 40
0.0719999999805532
 50
80.999999983101
 51
180.000000022793
  0
ARC
  8
3
  6
CONTINUOUS
 62
3
 10
6.48046369380064
 20
2.63449882199705
 30
0.0
 40
0.0720000000032326
 50
180.000000010289
 51
359.999999999999
  0
ARC
  8
3
  6
CONTINUOUS
 62
3
 10
6.48046369379996
 20
2.63449882199729
 30
0.0
 40
0.0720000000025573
 50
8.99999999939854
 51
180.000000010484
  0
ARC
  8
3
  6
CONTINUOUS
 62
3
 10
7.88046369379579
 20
4.63449882199705
 30
0.0
 40
0.0720000000000005
 50
1.02903420168044E-8
 51
179.999999999998
  0
ARC
  8
3
  6
CONTINUOUS
 62
3
 10
7.88046369379579
 20
2.63449882199705
 30
0.0
 40
0.0720000000000005
 50
1.02896295725558E-8
 51
179.999999999998
  0
ARC
  8
3
  6
CONTINUOUS
 62
3
 10
1.73046369380064
 20
2.63449882199705
 30
0.0
 40
0.072000000003233
 50
180.000000010289
 51
359.999999999999
  0
ARC
  8
3
  6
CONTINUOUS
 62
3
 10
1.7304636938033
 20
2.63449882200375
 30
0.0
 40
0.0720000000005714
 50
359.999999994664
 51
135.000000007465
  0
ARC
  8
3
  6
CONTINUOUS
 62
3
 10
1.73046369380064
 20
4.63449882199705
 30
0.0
 40
0.0720000000032326
 50
180.000000010289
 51
8.44834837263747E-16
  0
ARC
  8
3
  6
CONTINUOUS
 62
3
 10
1.73046369377796
 20
4.63449882201276
 30
0.0
 40
0.0719999999805529
 50
80.9999999831015
 51
180.000000022793
  0
ARC
  8
3
  6
CONTINUOUS
 62
3
 10
0.33046369380064
 20
2.63449882199705
 30
0.0
 40
0.0720000000032339
 50
180.000000010289
 51
359.999999999999
  0
ARC
  8
3
  6
CONTINUOUS
 62
3
 10
0.330463693777961
 20
2.63449882201276
 30
0.0
 40
0.0719999999805555
 50
80.9999999831024
 51
180.000000022792
  0
ARC
  8
3
  6
CONTINUOUS
 62
3
 10
0.330463693795792
 20
4.63449882199705
 30
0.0
 40
0.0719999999999992
 50
1.02903420168044E-8
 51
179.999999999998
  0
ARC
  8
3
  6
CONTINUOUS
 62
3
 10
3.05717195450844
 20
1.35419108765524
 30
0.0
 40
0.0865000000038818
 50
180.000000010288
 51
359.999999999998
  0
ARC
  8
3
  6
CONTINUOUS
 62
3
 10
3.05717195450307
 20
1.3541910876569
 30
0.0
 40
0.0864999999985072
 50
44.9999999967697
 51
180.000000011387
  0
ARC
  8
3
  6
CONTINUOUS
 62
3
 10
7.17246369379579
 20
4.23627810422232
 30
0.0
 40
0.0864999999999991
 50
1.0288459128433E-8
 51
179.999999999998
  0
ARC
  8
3
  6
CONTINUOUS
 62
3
 10
5.60546369380161
 20
6.00949882199705
 30
0.0
 40
0.086500000003884
 50
180.000000010289
 51
359.999999999999
  0
ARC
  8
3
  6
CONTINUOUS
 62
3
 10
5.60546369380669
 20
6.00949882200672
 30
0.0
 40
0.0864999999988067
 50
359.999999993591
 51
125.0000000086
  0
ARC
  8
3
  6
CONTINUOUS
 62
3
 10
1.73046369380161
 20
4.23627810422232
 30
0.0
 40
0.086500000003884
 50
180.000000010289
 51
359.999999999999
  0
ARC
  8
3
  6
CONTINUOUS
 62
3
 10
1.73046369377437
 20
4.23627810424119
 30
0.0
 40
0.0864999999766365
 50
80.9999999831015
 51
180.000000022792
  0
ARC
  8
3
  6
CONTINUOUS
 62
3
 10
6.48046369380161
 20
4.23627810422232
 30
0.0
 40
0.086500000003884
 50
180.000000010289
 51
359.999999999999
  0
ARC
  8
3
  6
CONTINUOUS
 62
3
 10
6.48046369377437
 20
4.23627810424119
 30
0.0
 40
0.0864999999766385
 50
80.9999999831031
 51
180.000000022791
  0
ARC
  8
3
  6
CONTINUOUS
 62
3
 10
1.03846369379579
 20
4.23627810422231
 30
0.0
 40
0.0865
 50
1.02896295725558E-8
 51
179.999999999997
  0
ARC
  8
3
  6
CONTINUOUS
 62
3
 10
4.66796369379579
 20
1.48449882199705
 30
0.0
 40
0.0865
 50
1.0289527794806E-8
 51
179.999999999998
  0
ARC
  8
3
  6
CONTINUOUS
 62
3
 10
1.73046369379579
 20
2.98449882199705
 30
0.0
 40
0.0865
 50
1.02899349058052E-8
 51
179.999999999998
  0
ARC
  8
3
  6
CONTINUOUS
 62
3
 10
1.73046369380161
 20
5.38449882199705
 30
0.0
 40
0.0865000000038836
 50
180.000000010289
 51
359.999999999999
  0
ARC
  8
3
  6
CONTINUOUS
 62
3
 10
1.73046369379989
 20
5.38449882199762
 30
0.0
 40
0.0865000000021579
 50
17.9999999988042
 51
180.000000010669
  0
ARC
  8
3
  6
CONTINUOUS
 62
3
 10
6.48046369379579
 20
2.98449882199705
 30
0.0
 40
0.0865
 50
1.02896804614307E-8
 51
179.999999999998
  0
ARC
  8
3
  6
CONTINUOUS
 62
3
 10
6.48046369380161
 20
5.38449882198928
 30
0.0
 40
0.086500000003884
 50
180.000000005145
 51
5.14379743119725E-9
  0
ARC
  8
3
  6
CONTINUOUS
 62
3
 10
6.48046369380669
 20
5.38449882200672
 30
0.0
 40
0.0864999999988063
 50
359.999999993591
 51
125.0000000086
  0
ARC
  8
3
  6
CONTINUOUS
 62
3
 10
4.10546369380161
 20
1.16934897036405
 30
0.0
 40
0.0865000000038836
 50
180.000000010288
 51
359.999999999999
  0
ARC
  8
3
  6
CONTINUOUS
 62
3
 10
4.1054636938008
 20
1.16934897036434
 30
0.0
 40
0.0865000000030723
 50
8.99999999939828
 51
180.000000010484
  0
ARC
  8
3
  6
CONTINUOUS
 62
3
 10
2.60546369380161
 20
6.00949882199705
 30
0.0
 40
0.0865000000038831
 50
180.000000010289
 51
359.999999999999
  0
ARC
  8
3
  6
CONTINUOUS
 62
3
 10
2.60546369379766
 20
6.00949882199824
 30
0.0
 40
0.0864999999999309
 50
35.9999999975367
 51
180.000000011079
  0
ARC
  8
3
  6
CONTINUOUS
 62
3
 10
5.15375543309478
 20
1.35419108765524
 30
0.0
 40
0.0865000000038827
 50
180.000000010288
 51
359.999999999998
  0
ARC
  8
3
  6
CONTINUOUS
 62
3
 10
5.15375543309505
 20
1.35419108765984
 30
0.0
 40
0.0865000000036196
 50
359.999999996947
 51
170.000000002372
  0
ARC
  8
3
  6
CONTINUOUS
 62
3
 10
3.54296369379579
 20
1.48449882199705
 30
0.0
 40
0.0865000000000009
 50
1.02899349058052E-8
 51
179.999999999998
  0
ARC
  8
3
  6
CONTINUOUS
 62
3
 10
4.10546369379579
 20
6.00949882199705
 30
0.0
 40
0.0865000000000009
 50
1.02890697949319E-8
 51
179.999999999998
  0
ARC
  8
3
  6
CONTINUOUS
 62
3
 10
4.10546369380161
 20
7.30327810422232
 30
0.0
 40
0.0865000000038858
 50
180.000000010289
 51
359.999999999999
  0
ARC
  8
3
  6
CONTINUOUS
 62
3
 10
4.10546369380188
 20
7.30327810422692
 30
0.0
 40
0.0865000000036232
 50
359.999999996948
 51
170.000000002371
  0
ARC
  8
3
  6
CONTINUOUS
 62
3
 10
3.13046369379485
 20
6.70934897035626
 30
0.0
 40
0.0719999999974464
 50
180.000000004091
 51
342.000000018138
  0
ARC
  8
3
  6
CONTINUOUS
 62
3
 10
3.13046369379579
 20
6.70934897035112
 30
0.0
 40
0.071999999998384
 50
1.02892733504315E-8
 51
179.999999999999
  0
ARC
  8
3
  6
CONTINUOUS
 62
3
 10
1.73046369379579
 20
7.83434897036404
 30
0.0
 40
0.0720000000000001
 50
1.02885609061828E-8
 51
179.999999999998
  0
ARC
  8
3
  6
CONTINUOUS
 62
3
 10
3.13046369380064
 20
7.83434897036405
 30
0.0
 40
0.072000000003233
 50
180.000000010289
 51
359.999999999999
  0
ARC
  8
3
  6
CONTINUOUS
 62
3
 10
3.1304636938033
 20
7.83434897037075
 30
0.0
 40
0.0720000000005724
 50
359.999999994666
 51
135.000000007464
  0
LINE
  8
3
  6
CONTINUOUS
 62
3
 10
5.39271937402395
 20
6.88263547630306
 30
0.0
 11
5.26771937402395
 21
6.88263547631018
 31
0.0
  0
ARC
  8
3
  6
CONTINUOUS
 62
3
 10
5.26771937396595
 20
7.10763547632884
 30
0.0
 40
0.224999999978059
 50
89.9999999955201
 51
174.948576580391
  0
ARC
  8
3
  6
CONTINUOUS
 62
3
 10
5.26771937400766
 20
7.10763547632971
 30
0.0
 40
0.225000000019532
 50
174.948576581547
 51
270.000000004147
  0
LINE
  8
3
  6
CONTINUOUS
 62
3
 10
5.26771937398354
 20
7.3326354763069
 30
0.0
 11
5.39271937398355
 21
7.33263547629049
 31
0.0
  0
ARC
  8
3
  6
CONTINUOUS
 62
3
 10
5.39271937402395
 20
7.10763547629677
 30
0.0
 40
0.224999999993716
 50
269.999999999999
 51
89.9999999999998
  0
LINE
  8
3
  6
CONTINUOUS
 62
3
 10
5.88271937399475
 20
7.0451354763055
 30
0.0
 11
5.75771937399476
 21
7.0451354763083
 31
0.0
  0
ARC
  8
3
  6
CONTINUOUS
 62
3
 10
5.75771937398737
 20
7.10763547630931
 30
0.0
 40
0.0625000000010062
 50
135.000000003514
 51
270.000000006776
  0
LINE
  8
3
  6
CONTINUOUS
 62
3
 10
5.75771937398354
 20
7.1701354763083
 30
0.0
 11
5.88271937398353
 21
7.1701354762999
 31
0.0
  0
ARC
  8
3
  6
CONTINUOUS
 62
3
 10
5.88271937398353
 20
7.1076354763027
 30
0.0
 40
0.0624999999971982
 50
270
 51
90.0000000000001
  0
ARC
  8
3
  6
CONTINUOUS
 62
3
 10
4.90271937398354
 20
7.1076354763069
 30
0.0
 40
0.0625
 50
270
 51
90.0000000000001
  0
LINE
  8
3
  6
CONTINUOUS
 62
3
 10
4.90271937398354
 20
7.0451354763069
 30
0.0
 11
4.77771937399476
 21
7.0451354763083
 31
0.0
  0
ARC
  8
3
  6
CONTINUOUS
 62
3
 10
4.77771937398784
 20
7.10763547631037
 30
0.0
 40
0.062500000002068
 50
161.000000002943
 51
270.000000006346
  0
LINE
  8
3
  6
CONTINUOUS
 62
3
 10
4.77771937398354
 20
7.1701354763083
 30
0.0
 11
4.90271937398354
 21
7.1701354763069
 31
0.0
  0
ARC
  8
3
  6
CONTINUOUS
 62
3
 10
5.26771937398354
 20
6.6176354763069
 30
0.0
 40
0.0625
 50
89.9999999999998
 51
270
  0
LINE
  8
3
  6
CONTINUOUS
 62
3
 10
5.26771937398354
 20
6.6801354763069
 30
0.0
 11
5.39271937398354
 21
6.68013547629986
 31
0.0
  0
ARC
  8
3
  6
CONTINUOUS
 62
3
 10
5.39271937398941
 20
6.61763547630446
 30
0.0
 40
0.0624999999975592
 50
269.999999994621
 51
45.000000002715
  0
LINE
  8
3
  6
CONTINUOUS
 62
3
 10
5.39271937398354
 20
6.5551354763069
 30
0.0
 11
5.26771937398354
 21
6.5551354763069
 31
0.0
  0
ARC
  8
3
  6
CONTINUOUS
 62
3
 10
5.39271937398354
 20
7.59763547630691
 30
0.0
 40
0.0625
 50
270
 51
90.0000000000001
  0
ARC
  8
3
  6
CONTINUOUS
 62
3
 10
5.26771937398354
 20
7.5976354763069
 30
0.0
 40
0.0625000000000053
 50
89.9999999999998
 51
270
  0
LINE
  8
3
  6
CONTINUOUS
 62
3
 10
5.26771937398354
 20
7.66013547630691
 30
0.0
 11
5.39271937398354
 21
7.66013547630691
 31
0.0
  0
LINE
  8
3
  6
CONTINUOUS
 62
3
 10
1.85546369379579
 20
2.23449882199705
 30
0.0
 11
1.85546369379579
 21
5.88449882199705
 31
0.0
  0
LINE
  8
3
  6
CONTINUOUS
 62
3
 10
1.85546369379579
 20
5.88449882199705
 30
0.0
 11
6.35546369379579
 21
5.88449882199705
 31
0.0
  0
LINE
  8
3
  6
CONTINUOUS
 62
3
 10
6.35546369379579
 20
5.88449882199705
 30
0.0
 11
6.35546369379579
 21
2.23449882199705
 31
0.0
  0
LINE
  8
3
  6
CONTINUOUS
 62
3
 10
6.35546369379579
 20
2.23449882199705
 30
0.0
 11
4.79296369379579
 21
2.23449882199705
 31
0.0
  0
LINE
  8
3
  6
CONTINUOUS
 62
3
 10
4.79296369379579
 20
2.23449882199705
 30
0.0
 11
4.79296369379579
 21
1.98449882199705
 31
0.0
  0
LINE
  8
3
  6
CONTINUOUS
 62
3
 10
4.79296369379579
 20
1.98449882199705
 30
0.0
 11
4.54296369379579
 21
1.98449882199705
 31
0.0
  0
LINE
  8
3
  6
CONTINUOUS
 62
3
 10
4.54296369379579
 20
1.98449882199705
 30
0.0
 11
4.54296369379579
 21
2.23449882199705
 31
0.0
  0
LINE
  8
3
  6
CONTINUOUS
 62
3
 10
4.54296369379579
 20
2.23449882199705
 30
0.0
 11
3.66796369379579
 21
2.23449882199705
 31
0.0
  0
LINE
  8
3
  6
CONTINUOUS
 62
3
 10
3.66796369379579
 20
2.23449882199705
 30
0.0
 11
3.66796369379579
 21
1.98449882199705
 31
0.0
  0
LINE
  8
3
  6
CONTINUOUS
 62
3
 10
3.66796369379579
 20
1.98449882199705
 30
0.0
 11
3.41796369379579
 21
1.98449882199705
 31
0.0
  0
LINE
  8
3
  6
CONTINUOUS
 62
3
 10
3.41796369379579
 20
1.98449882199705
 30
0.0
 11
3.41796369379579
 21
2.23449882199705
 31
0.0
  0
LINE
  8
3
  6
CONTINUOUS
 62
3
 10
3.41796369379579
 20
2.23449882199705
 30
0.0
 11
1.85546369379579
 21
2.23449882199705
 31
0.0
  0
LINE
  8
3
  6
CONTINUOUS
 62
3
 10
3.41796369379579
 20
0.984498821997049
 30
0.0
 11
3.66796369379579
 21
0.984498821997049
 31
0.0
  0
LINE
  8
3
  6
CONTINUOUS
 62
3
 10
3.66796369379579
 20
0.734498821997049
 30
0.0
 11
3.41796369379579
 21
0.734498821997049
 31
0.0
  0
LINE
  8
3
  6
CONTINUOUS
 62
3
 10
3.41796369379579
 20
0.734498821997049
 30
0.0
 11
3.41796369379579
 21
0.984498821997049
 31
0.0
  0
LINE
  8
3
  6
CONTINUOUS
 62
3
 10
4.79296369379579
 20
0.984498821997049
 30
0.0
 11
4.79296369379579
 21
0.734498821997049
 31
0.0
  0
LINE
  8
3
  6
CONTINUOUS
 62
3
 10
4.79296369379579
 20
0.734498821997049
 30
0.0
 11
4.54296369379579
 21
0.734498821997049
 31
0.0
  0
LINE
  8
3
  6
CONTINUOUS
 62
3
 10
4.54296369379579
 20
0.734498821997049
 30
0.0
 11
4.54296369379579
 21
0.984498821997049
 31
0.0
  0
ARC
  8
3
  6
CONTINUOUS
 62
3
 10
0.455463693781728
 20
2.13434897029853
 30
0.0
 40
0.249999999985936
 50
179.999999984985
 51
268.73607919098
  0
ARC
  8
3
  6
CONTINUOUS
 62
3
 10
0.422377007778469
 20
0.634713924039193
 30
0.0
 40
1.25000000026738
 50
44.3434847754206
 51
88.736079181096
  0
ARC
  8
3
  6
CONTINUOUS
 62
3
 10
4.10546369375591
 20
4.23434896902876
 30
0.0
 40
3.89999999910555
 50
224.34348479896
 51
315.656515212149
  0
ARC
  8
3
  6
CONTINUOUS
 62
3
 10
7.78855037945657
 20
0.634713924829053
 30
0.0
 40
1.24999999951737
 50
91.2639208013065
 51
135.656515206944
  0
ARC
  8
3
  6
CONTINUOUS
 62
3
 10
7.75546369383316
 20
2.13434897031719
 30
0.0
 40
0.249999999956536
 50
271.263920813874
 51
355.993508479485
  0
LINE
  8
3
  6
CONTINUOUS
 62
3
 10
8.00546369379218
 20
2.13434897036404
 30
0.0
 11
8.00546369380373
 21
6.84292761412674
 31
0.0
  0
ARC
  8
3
  6
CONTINUOUS
 62
3
 10
7.90546369382144
 20
6.84292761412612
 30
0.0
 40
0.0999999999822938
 50
3.55103413910876E-10
 51
45.0000000106447
  0
LINE
  8
3
  6
CONTINUOUS
 62
3
 10
7.97617437191444
 20
6.91363829224539
 30
0.0
 11
7.12158021735149
 21
7.76823244688611
 31
0.0
  0
ARC
  8
3
  6
CONTINUOUS
 62
3
 10
6.23769674088203
 20
6.88434897030333
 30
0.0
 40
1.25000000006072
 50
45.0000000036732
 51
90.0000000024119
  0
LINE
  8
3
  6
CONTINUOUS
 62
3
 10
6.23769674082942
 20
8.13434897036405
 30
0.0
 11
1.97323064676217
 21
8.13434897037505
 31
0.0
  0
ARC
  8
3
  6
CONTINUOUS
 62
3
 10
1.97323064664502
 20
6.88434897068437
 30
0.0
 40
1.24999999969067
 50
89.9999999946303
 51
135.000000006586
  0
LINE
  8
3
  6
CONTINUOUS
 62
3
 10
1.08934717027897
 20
7.76823244684723
 30
0.0
 11
0.234753015676018
 21
6.91363829224652
 31
0.0
  0
ARC
  8
3
  6
CONTINUOUS
 62
3
 10
0.305463693774919
 20
6.84292761413763
 30
0.0
 40
0.0999999999791285
 50
134.999999995952
 51
180.000000006242
  0
LINE
  8
3
  6
CONTINUOUS
 62
3
 10
0.205463693795791
 20
6.84292761412674
 30
0.0
 11
0.205463693795791
 21
2.13434897036405
 31
0.0
  0
ARC
  8
3
  6
CONTINUOUS
 62
3
 10
2.324881066607
 20
3.32749551701325
 30
0.0
 40
0.0499999999955096
 50
89.9999999948554
 51
180.000000005145
  0
LINE
  8
3
  6
CONTINUOUS
 62
3
 10
2.27488106661149
 20
2.62749551700876
 30
0.0
 11
2.27488106661149
 21
3.32749551700876
 31
0.0
  0
LINE
  8
3
  6
CONTINUOUS
 62
3
 10
2.02488106661149
 20
2.62749551700876
 30
0.0
 11
2.27488106661149
 21
2.62749551700876
 31
0.0
  0
LINE
  8
3
  6
CONTINUOUS
 62
3
 10
2.02488106661149
 20
2.37749551700876
 30
0.0
 11
2.02488106661149
 21
2.62749551700876
 31
0.0
  0
LINE
  8
3
  6
CONTINUOUS
 62
3
 10
2.2748810671125
 20
2.37749551720826
 30
0.0
 11
2.02488106661149
 21
2.37749551700876
 31
0.0
  0
ARC
  8
3
  6
CONTINUOUS
 62
3
 10
1.04056758487106
 20
5.11180899870059
 30
0.0
 40
2.99999999791895
 50
294.295188941157
 51
335.704811070359
  0
LINE
  8
3
  6
CONTINUOUS
 62
3
 10
3.52488106661149
 20
4.12749551700876
 30
0.0
 11
3.77488106661149
 21
4.12749551700876
 31
0.0
  0
LINE
  8
3
  6
CONTINUOUS
 62
3
 10
3.52488106661149
 20
3.87749551700876
 30
0.0
 11
3.52488106661149
 21
4.12749551700876
 31
0.0
  0
LINE
  8
3
  6
CONTINUOUS
 62
3
 10
2.52488106661149
 20
3.87749551700876
 30
0.0
 11
3.52488106661149
 21
3.87749551700876
 31
0.0
  0
LINE
  8
3
  6
CONTINUOUS
 62
3
 10
2.52488106661149
 20
4.12749551700876
 30
0.0
 11
2.52488106661149
 21
3.87749551700876
 31
0.0
  0
LINE
  8
3
  6
CONTINUOUS
 62
3
 10
2.02488106661149
 20
4.12749551700876
 30
0.0
 11
2.52488106661149
 21
4.12749551700876
 31
0.0
  0
LINE
  8
3
  6
CONTINUOUS
 62
3
 10
2.02488106661149
 20
3.62749551700876
 30
0.0
 11
2.02488106661149
 21
4.12749551700876
 31
0.0
  0
LINE
  8
3
  6
CONTINUOUS
 62
3
 10
2.39988106661149
 20
3.62749551699473
 30
0.0
 11
2.02488106661149
 21
3.62749551700876
 31
0.0
  0
ARC
  8
3
  6
CONTINUOUS
 62
3
 10
2.39988106661149
 20
3.50249551700174
 30
0.0
 40
0.124999999992985
 50
270
 51
90.0000000000001
  0
LINE
  8
3
  6
CONTINUOUS
 62
3
 10
2.32488106661149
 20
3.37749551700876
 30
0.0
 11
2.39988106661149
 21
3.37749551700876
 31
0.0
  0
ARC
  8
3
  6
CONTINUOUS
 62
3
 10
2.90480337959868
 20
4.89543362250929
 30
0.0
 40
0.04999999999551
 50
89.9999999948549
 51
180.000000005145
  0
LINE
  8
3
  6
CONTINUOUS
 62
3
 10
2.85480337960317
 20
4.1954336225048
 30
0.0
 11
2.85480337960317
 21
4.8954336225048
 31
0.0
  0
LINE
  8
3
  6
CONTINUOUS
 62
3
 10
2.60480337960317
 20
4.1954336225048
 30
0.0
 11
2.85480337960317
 21
4.1954336225048
 31
0.0
  0
LINE
  8
3
  6
CONTINUOUS
 62
3
 10
2.60480337960317
 20
3.9454336225048
 30
0.0
 11
2.60480337960317
 21
4.1954336225048
 31
0.0
  0
LINE
  8
3
  6
CONTINUOUS
 62
3
 10
2.85480338010419
 20
3.9454336227043
 30
0.0
 11
2.60480337960317
 21
3.9454336225048
 31
0.0
  0
ARC
  8
3
  6
CONTINUOUS
 62
3
 10
1.62048989786275
 20
6.67974710419662
 30
0.0
 40
2.99999999791894
 50
294.295188941158
 51
335.704811070359
  0
LINE
  8
3
  6
CONTINUOUS
 62
3
 10
4.35480337960317
 20
5.6954336225048
 30
0.0
 11
4.35480337960317
 21
5.4454336225048
 31
0.0
  0
LINE
  8
3
  6
CONTINUOUS
 62
3
 10
4.10480337960317
 20
5.4454336225048
 30
0.0
 11
4.10480337960317
 21
5.6954336225048
 31
0.0
  0
LINE
  8
3
  6
CONTINUOUS
 62
3
 10
3.10480337960317
 20
5.4454336225048
 30
0.0
 11
4.10480337960317
 21
5.4454336225048
 31
0.0
  0
LINE
  8
3
  6
CONTINUOUS
 62
3
 10
3.10480337960317
 20
5.6954336225048
 30
0.0
 11
3.10480337960317
 21
5.4454336225048
 31
0.0
  0
LINE
  8
3
  6
CONTINUOUS
 62
3
 10
2.60480337960317
 20
5.6954336225048
 30
0.0
 11
3.10480337960317
 21
5.6954336225048
 31
0.0
  0
LINE
  8
3
  6
CONTINUOUS
 62
3
 10
2.60480337960317
 20
5.1954336225048
 30
0.0
 11
2.60480337960317
 21
5.6954336225048
 31
0.0
  0
LINE
  8
3
  6
CONTINUOUS
 62
3
 10
2.97980337960317
 20
5.19543362249077
 30
0.0
 11
2.60480337960317
 21
5.1954336225048
 31
0.0
  0
ARC
  8
3
  6
CONTINUOUS
 62
3
 10
2.97980337960317
 20
5.07043362249778
 30
0.0
 40
0.124999999992985
 50
270
 51
90.0000000000001
  0
LINE
  8
3
  6
CONTINUOUS
 62
3
 10
2.90480337960317
 20
4.9454336225048
 30
0.0
 11
2.97980337960317
 21
4.9454336225048
 31
0.0
  0
ARC
  8
3
  6
CONTINUOUS
 62
3
 10
4.17204102650644
 20
3.34897412119813
 30
0.0
 40
0.04999999999551
 50
89.9999999948549
 51
180.000000005145
  0
LINE
  8
3
  6
CONTINUOUS
 62
3
 10
4.12204102651093
 20
2.64897412119364
 30
0.0
 11
4.12204102651093
 21
3.34897412119364
 31
0.0
  0
LINE
  8
3
  6
CONTINUOUS
 62
3
 10
3.87204102651093
 20
2.64897412119364
 30
0.0
 11
4.12204102651093
 21
2.64897412119364
 31
0.0
  0
LINE
  8
3
  6
CONTINUOUS
 62
3
 10
3.87204102651093
 20
2.39897412119364
 30
0.0
 11
3.87204102651093
 21
2.64897412119364
 31
0.0
  0
LINE
  8
3
  6
CONTINUOUS
 62
3
 10
4.12204102701195
 20
2.39897412139314
 30
0.0
 11
3.87204102651093
 21
2.39897412119364
 31
0.0
  0
ARC
  8
3
  6
CONTINUOUS
 62
3
 10
2.88772754477051
 20
5.13328760288546
 30
0.0
 40
2.99999999791893
 50
294.295188941158
 51
335.704811070359
  0
LINE
  8
3
  6
CONTINUOUS
 62
3
 10
5.62204102651093
 20
4.14897412119364
 30
0.0
 11
5.62204102651093
 21
3.89897412119364
 31
0.0
  0
LINE
  8
3
  6
CONTINUOUS
 62
3
 10
5.37204102651093
 20
4.14897412119364
 30
0.0
 11
5.62204102651093
 21
4.14897412119364
 31
0.0
  0
LINE
  8
3
  6
CONTINUOUS
 62
3
 10
5.37204102651093
 20
3.89897412119364
 30
0.0
 11
5.37204102651093
 21
4.14897412119364
 31
0.0
  0
LINE
  8
3
  6
CONTINUOUS
 62
3
 10
4.37204102651093
 20
3.89897412119364
 30
0.0
 11
5.37204102651093
 21
3.89897412119364
 31
0.0
  0
LINE
  8
3
  6
CONTINUOUS
 62
3
 10
4.37204102651093
 20
4.14897412119364
 30
0.0
 11
4.37204102651093
 21
3.89897412119364
 31
0.0
  0
LINE
  8
3
  6
CONTINUOUS
 62
3
 10
3.87204102651093
 20
4.14897412119364
 30
0.0
 11
4.37204102651093
 21
4.14897412119364
 31
0.0
  0
LINE
  8
3
  6
CONTINUOUS
 62
3
 10
4.24704102651093
 20
3.64897412117961
 30
0.0
 11
3.87204102651093
 21
3.64897412119364
 31
0.0
  0
ARC
  8
3
  6
CONTINUOUS
 62
3
 10
4.24704102651093
 20
3.52397412118662
 30
0.0
 40
0.124999999992985
 50
269.999999999999
 51
89.9999999999998
  0
LINE
  8
3
  6
CONTINUOUS
 62
3
 10
4.17204102651093
 20
3.39897412119364
 30
0.0
 11
4.24704102651093
 21
3.39897412119364
 31
0.0
  0
ARC
  8
3
  6
CONTINUOUS
 62
3
 10
4.75196333949813
 20
4.91691222669417
 30
0.0
 40
0.04999999999551
 50
89.9999999948549
 51
180.000000005145
  0
LINE
  8
3
  6
CONTINUOUS
 62
3
 10
4.70196333950262
 20
4.21691222668968
 30
0.0
 11
4.70196333950262
 21
4.91691222668968
 31
0.0
  0
LINE
  8
3
  6
CONTINUOUS
 62
3
 10
4.45196333950262
 20
4.21691222668968
 30
0.0
 11
4.70196333950262
 21
4.21691222668968
 31
0.0
  0
LINE
  8
3
  6
CONTINUOUS
 62
3
 10
4.45196333950262
 20
3.96691222668968
 30
0.0
 11
4.45196333950262
 21
4.21691222668968
 31
0.0
  0
LINE
  8
3
  6
CONTINUOUS
 62
3
 10
4.70196334000363
 20
3.96691222688918
 30
0.0
 11
4.45196333950262
 21
3.96691222668968
 31
0.0
  0
ARC
  8
3
  6
CONTINUOUS
 62
3
 10
3.46764985776219
 20
6.70122570838151
 30
0.0
 40
2.99999999791894
 50
294.295188941157
 51
335.704811070359
  0
LINE
  8
3
  6
CONTINUOUS
 62
3
 10
6.20196333950262
 20
5.71691222668968
 30
0.0
 11
6.20196333950262
 21
5.46691222668968
 31
0.0
  0
LINE
  8
3
  6
CONTINUOUS
 62
3
 10
5.95196333950262
 20
5.71691222668968
 30
0.0
 11
6.20196333950262
 21
5.71691222668968
 31
0.0
  0
LINE
  8
3
  6
CONTINUOUS
 62
3
 10
5.95196333950262
 20
5.46691222668968
 30
0.0
 11
5.95196333950262
 21
5.71691222668968
 31
0.0
  0
LINE
  8
3
  6
CONTINUOUS
 62
3
 10
4.95196333950262
 20
5.46691222668968
 30
0.0
 11
5.95196333950262
 21
5.46691222668968
 31
0.0
  0
LINE
  8
3
  6
CONTINUOUS
 62
3
 10
4.95196333950262
 20
5.71691222668968
 30
0.0
 11
4.95196333950262
 21
5.46691222668968
 31
0.0
  0
LINE
  8
3
  6
CONTINUOUS
 62
3
 10
4.45196333950262
 20
5.71691222668968
 30
0.0
 11
4.95196333950262
 21
5.71691222668968
 31
0.0
  0
LINE
  8
3
  6
CONTINUOUS
 62
3
 10
4.82696333950262
 20
5.21691222667565
 30
0.0
 11
4.45196333950262
 21
5.21691222668968
 31
0.0
  0
ARC
  8
3
  6
CONTINUOUS
 62
3
 10
4.82696333950262
 20
5.09191222668266
 30
0.0
 40
0.124999999992985
 50
269.999999999999
 51
89.9999999999998
  0
LINE
  8
3
  6
CONTINUOUS
 62
3
 10
4.75196333950262
 20
4.96691222668968
 30
0.0
 11
4.82696333950262
 21
4.96691222668968
 31
0.0
  0
LINE
  8
9
  6
CONTINUOUS
 62
9
 10
8.15330514901386
 20
2.11297740189623
 30
0.0
 11
8.00485272892664
 21
2.11688159634709
 31
0.0
  0
LINE
  8
9
  6
CONTINUOUS
 62
9
 10
8.05428229034796
 20
2.11124413613024
 30
0.0
 11
8.00485272892664
 21
2.11688159634709
 31
0.0
  0
LINE
  8
9
  6
CONTINUOUS
 62
9
 10
7.87788540284701
 20
2.6324269568365
 30
0.0
 11
7.90271291740308
 21
2.56602275282779
 31
0.0
  0
LINE
  8
9
  6
CONTINUOUS
 62
9
 10
7.88941780817798
 20
2.6139633678707
 30
0.0
 11
7.90271291740308
 21
2.56602275282779
 31
0.0
  0
LINE
  8
9
  6
CONTINUOUS
 62
9
 10
6.48283798611213
 20
2.63177694128034
 30
0.0
 11
6.55157725432546
 21
2.64576210347984
 31
0.0
  0
LINE
  8
9
  6
CONTINUOUS
 62
9
 10
6.5021470545072
 20
2.6401302435804
 30
0.0
 11
6.55157725432546
 21
2.64576210347984
 31
0.0
  0
LINE
  8
9
  6
CONTINUOUS
 62
9
 10
6.47672033248562
 20
2.98373589156178
 30
0.0
 11
6.48046369381132
 21
2.89799882199705
 31
0.0
  0
LINE
  8
9
  6
CONTINUOUS
 62
9
 10
6.48263375831741
 20
2.94770147102141
 30
0.0
 11
6.48046369381132
 21
2.89799882199705
 31
0.0
  0
LINE
  8
9
  6
CONTINUOUS
 62
9
 10
3.41796369378909
 20
2.38374882199705
 30
0.0
 11
3.41796369379579
 21
2.23449882199705
 31
0.0
  0
LINE
  8
9
  6
CONTINUOUS
 62
9
 10
3.46771369379579
 20
2.23449882200152
 30
0.0
 11
3.41796369379579
 21
2.23449882199705
 31
0.0
  0
LINE
  8
9
  6
CONTINUOUS
 62
9
 10
5.15217438969872
 20
1.35820487072358
 30
0.0
 11
5.0685695624553
 21
1.36921165502514
 31
0.0
  0
LINE
  8
9
  6
CONTINUOUS
 62
9
 10
5.1171402888115
 20
1.35844378424063
 30
0.0
 11
5.0685695624553
 21
1.36921165502514
 31
0.0
  0
LINE
  8
9
  6
CONTINUOUS
 62
9
 10
4.66638062491132
 20
1.48102193982266
 30
0.0
 11
4.73794366381835
 21
1.43365539768632
 31
0.0
  0
LINE
  8
9
  6
CONTINUOUS
 62
9
 10
4.69900890800539
 20
1.46462550084702
 30
0.0
 11
4.73794366381835
 21
1.43365539768632
 31
0.0
  0
LINE
  8
9
  6
CONTINUOUS
 62
9
 10
4.10826535964731
 20
1.16606860128625
 30
0.0
 11
4.19089873526546
 21
1.18288055158991
 31
0.0
  0
LINE
  8
9
  6
CONTINUOUS
 62
9
 10
4.1414685354472
 20
1.17724869169047
 30
0.0
 11
4.19089873526546
 21
1.18288055158991
 31
0.0
  0
LINE
  8
9
  6
CONTINUOUS
 62
9
 10
4.67336715449288
 20
0.860739225929734
 30
0.0
 11
4.66796369379579
 21
0.984498821997049
 31
0.0
  0
LINE
  8
9
  6
CONTINUOUS
 62
9
 10
4.66579362929005
 20
0.934796172972668
 30
0.0
 11
4.66796369379579
 21
0.984498821997049
 31
0.0
  0
LINE
  8
9
  6
CONTINUOUS
 62
9
 10
3.54420409772872
 20
0.919095361294402
 30
0.0
 11
3.66796369379579
 21
0.92449882199705
 31
0.0
  0
LINE
  8
9
  6
CONTINUOUS
 62
9
 10
3.6182610447717
 20
0.926668886509487
 30
0.0
 11
3.66796369379579
 21
0.92449882199705
 31
0.0
  0
LINE
  8
9
  6
CONTINUOUS
 62
9
 10
3.53922033248561
 20
1.48373589156178
 30
0.0
 11
3.54296369381132
 21
1.39799882199705
 31
0.0
  0
LINE
  8
9
  6
CONTINUOUS
 62
9
 10
3.54513375831741
 20
1.44770147102141
 30
0.0
 11
3.54296369381132
 21
1.39799882199705
 31
0.0
  0
LINE
  8
9
  6
CONTINUOUS
 62
9
 10
3.06136670235121
 20
1.35318399118529
 30
0.0
 11
3.1183366910781
 21
1.41535582422503
 31
0.0
  0
LINE
  8
9
  6
CONTINUOUS
 62
9
 10
3.08165714358164
 20
1.3817452113854
 30
0.0
 11
3.1183366910781
 21
1.41535582422503
 31
0.0
  0
LINE
  8
9
  6
CONTINUOUS
 62
9
 10
4.28070195764514
 20
5.78937162915904
 30
0.0
 11
4.28480337960317
 21
5.6954336225048
 31
0.0
  0
LINE
  8
9
  6
CONTINUOUS
 62
9
 10
4.28697344411784
 20
5.74513627152879
 30
0.0
 11
4.28480337960317
 21
5.6954336225048
 31
0.0
  0
LINE
  8
9
  6
CONTINUOUS
 62
9
 10
4.10172033248561
 20
6.00873589156178
 30
0.0
 11
4.10546369381132
 21
5.92299882199705
 31
0.0
  0
LINE
  8
9
  6
CONTINUOUS
 62
9
 10
4.10763375831741
 20
5.97270147102141
 30
0.0
 11
4.10546369381132
 21
5.92299882199705
 31
0.0
  0
LINE
  8
9
  6
CONTINUOUS
 62
9
 10
3.13062438652289
 20
6.7060452773823
 30
0.0
 11
3.19893976296872
 21
6.68709974677143
 31
0.0
  0
LINE
  8
9
  6
CONTINUOUS
 62
9
 10
3.1523403215502
 20
6.70452256397995
 30
0.0
 11
3.19893976296872
 21
6.68709974677143
 31
0.0
  0
LINE
  8
9
  6
CONTINUOUS
 62
9
 10
2.608956209603
 20
6.00745573720033
 30
0.0
 11
2.67544366381322
 21
6.06034224631849
 31
0.0
  0
LINE
  8
9
  6
CONTINUOUS
 62
9
 10
2.63395784417343
 20
6.03288338128706
 30
0.0
 11
2.67544366381322
 21
6.06034224631849
 31
0.0
  0
LINE
  8
9
  6
CONTINUOUS
 62
9
 10
1.73444302089315
 20
5.38195845906159
 30
0.0
 11
1.81273008246203
 21
5.41122879201
 31
0.0
  0
LINE
  8
9
  6
CONTINUOUS
 62
9
 10
1.7647894674188
 20
5.39793368278606
 30
0.0
 11
1.81273008246203
 21
5.41122879201
 31
0.0
  0
LINE
  8
9
  6
CONTINUOUS
 62
9
 10
1.73378605286125
 20
4.6359158007647
 30
0.0
 11
1.74172697527879
 21
4.70561238251308
 31
0.0
  0
LINE
  8
9
  6
CONTINUOUS
 62
9
 10
1.73180842055582
 20
4.65686112845529
 30
0.0
 11
1.74172697527879
 21
4.70561238251308
 31
0.0
  0
LINE
  8
9
  6
CONTINUOUS
 62
9
 10
1.73444927254124
 20
4.23792895697808
 30
0.0
 11
1.74399527502189
 21
4.32171314567561
 31
0.0
  0
LINE
  8
9
  6
CONTINUOUS
 62
9
 10
1.73407672029892
 20
4.27296189161781
 30
0.0
 11
1.74399527502189
 21
4.32171314567561
 31
0.0
  0
LINE
  8
9
  6
CONTINUOUS
 62
9
 10
1.0380325214968
 20
4.23248219758541
 30
0.0
 11
1.12073008246012
 21
4.20954813422366
 31
0.0
  0
LINE
  8
9
  6
CONTINUOUS
 62
9
 10
1.07413064103963
 20
4.22697095142693
 30
0.0
 11
1.12073008246012
 21
4.20954813422366
 31
0.0
  0
LINE
  8
9
  6
CONTINUOUS
 62
9
 10
0.329595624387895
 20
4.63130716647631
 30
0.0
 11
0.388712917398388
 21
4.59217828384245
 31
0.0
  0
LINE
  8
9
  6
CONTINUOUS
 62
9
 10
0.349778161585153
 20
4.62314838700282
 30
0.0
 11
0.388712917398388
 21
4.59217828384245
 31
0.0
  0
LINE
  8
9
  6
CONTINUOUS
 62
9
 10
0.333786052861257
 20
2.6359158007647
 30
0.0
 11
0.341726975278789
 21
2.70561238251308
 31
0.0
  0
LINE
  8
9
  6
CONTINUOUS
 62
9
 10
0.33180842055582
 20
2.65686112845529
 30
0.0
 11
0.341726975278789
 21
2.70561238251308
 31
0.0
  0
LINE
  8
9
  6
CONTINUOUS
 62
9
 10
1.73127016754423
 20
2.63801954616462
 30
0.0
 11
1.67955200555083
 21
2.68541051024295
 31
0.0
  0
LINE
  8
9
  6
CONTINUOUS
 62
9
 10
1.71316261838717
 20
2.64873096274348
 30
0.0
 11
1.67955200555083
 21
2.68541051024295
 31
0.0
  0
LINE
  8
9
  6
CONTINUOUS
 62
9
 10
1.72672033248562
 20
2.98373589156178
 30
0.0
 11
1.73046369381132
 21
2.89799882199705
 31
0.0
  0
LINE
  8
9
  6
CONTINUOUS
 62
9
 10
1.73263375831741
 20
2.94770147102141
 30
0.0
 11
1.73046369381132
 21
2.89799882199705
 31
0.0
  0
LINE
  8
9
  6
CONTINUOUS
 62
9
 10
1.72737135184339
 20
6.70817524522184
 30
0.0
 11
1.73046369380872
 21
6.63734897036405
 31
0.0
  0
LINE
  8
9
  6
CONTINUOUS
 62
9
 10
1.73263375831437
 20
6.68705161938843
 30
0.0
 11
1.73046369380872
 21
6.63734897036405
 31
0.0
  0
LINE
  8
9
  6
CONTINUOUS
 62
9
 10
1.72737135184339
 20
7.83317524522184
 30
0.0
 11
1.73046369380872
 21
7.76234897036405
 31
0.0
  0
LINE
  8
9
  6
CONTINUOUS
 62
9
 10
1.73263375831437
 20
7.81205161938843
 30
0.0
 11
1.73046369380872
 21
7.76234897036405
 31
0.0
  0
LINE
  8
9
  6
CONTINUOUS
 62
9
 10
3.13127016754423
 20
7.83786969453162
 30
0.0
 11
3.07955200555083
 21
7.88526065860995
 31
0.0
  0
LINE
  8
9
  6
CONTINUOUS
 62
9
 10
3.11316261838717
 20
7.84858111111048
 30
0.0
 11
3.07955200555083
 21
7.88526065860995
 31
0.0
  0
LINE
  8
9
  6
CONTINUOUS
 62
9
 10
4.10388265040555
 20
7.30729188729066
 30
0.0
 11
4.02027782316213
 21
7.31829867159222
 31
0.0
  0
LINE
  8
9
  6
CONTINUOUS
 62
9
 10
4.06884854951832
 20
7.30753080080771
 30
0.0
 11
4.02027782316213
 21
7.31829867159222
 31
0.0
  0
LINE
  8
9
  6
CONTINUOUS
 62
9
 10
4.8266678663147
 20
7.0959795718826
 30
0.0
 11
4.71862446300988
 21
7.12798348596158
 31
0.0
  0
LINE
  8
9
  6
CONTINUOUS
 62
9
 10
4.76491273702038
 20
7.10975004994065
 30
0.0
 11
4.71862446300988
 21
7.12798348596158
 31
0.0
  0
LINE
  8
9
  6
CONTINUOUS
 62
9
 10
5.19194979120733
 20
7.12083588498079
 30
0.0
 11
5.0435932573604
 21
7.12744668137657
 31
0.0
  0
LINE
  8
9
  6
CONTINUOUS
 62
9
 10
5.09291179122157
 20
7.12090873691487
 30
0.0
 11
5.0435932573604
 21
7.12744668137657
 31
0.0
  0
LINE
  8
9
  6
CONTINUOUS
 62
9
 10
5.34835097698499
 20
7.59701527434129
 30
0.0
 11
5.35105270731687
 21
7.5351354763069
 31
0.0
  0
LINE
  8
9
  6
CONTINUOUS
 62
9
 10
5.353222771836
 20
7.5848381253307
 30
0.0
 11
5.35105270731687
 21
7.5351354763069
 31
0.0
  0
LINE
  8
9
  6
CONTINUOUS
 62
9
 10
5.76854452142937
 20
7.1014137308992
 30
0.0
 11
5.71352520015979
 21
7.15182965013147
 31
0.0
  0
LINE
  8
9
  6
CONTINUOUS
 62
9
 10
5.74713581299613
 20
7.115150102632
 30
0.0
 11
5.71352520015979
 21
7.15182965013147
 31
0.0
  0
LINE
  8
9
  6
CONTINUOUS
 62
9
 10
5.38827105287684
 20
6.60874568186452
 30
0.0
 11
5.43691354780974
 21
6.66182965012898
 31
0.0
  0
LINE
  8
9
  6
CONTINUOUS
 62
9
 10
5.40023400031329
 20
6.62821903728936
 30
0.0
 11
5.43691354780974
 21
6.66182965012898
 31
0.0
  0
LINE
  8
9
  6
CONTINUOUS
 62
9
 10
5.60672961230168
 20
6.01404700165754
 30
0.0
 11
5.55584933205238
 21
6.0803554738293
 31
0.0
  0
LINE
  8
9
  6
CONTINUOUS
 62
9
 10
5.5825799875758
 20
6.03839674940531
 30
0.0
 11
5.55584933205238
 21
6.0803554738293
 31
0.0
  0
LINE
  8
9
  6
CONTINUOUS
 62
9
 10
6.48309247695121
 20
5.38727088186722
 30
0.0
 11
6.43084933205238
 21
5.45535547382929
 31
0.0
  0
LINE
  8
9
  6
CONTINUOUS
 62
9
 10
6.4575799875758
 20
5.41339674940531
 30
0.0
 11
6.43084933205238
 21
5.45535547382929
 31
0.0
  0
LINE
  8
9
  6
CONTINUOUS
 62
9
 10
6.48378605286125
 20
4.6359158007647
 30
0.0
 11
6.49172697527879
 21
4.70561238251308
 31
0.0
  0
LINE
  8
9
  6
CONTINUOUS
 62
9
 10
6.48180842055582
 20
4.65686112845529
 30
0.0
 11
6.49172697527879
 21
4.70561238251308
 31
0.0
  0
LINE
  8
9
  6
CONTINUOUS
 62
9
 10
6.48444927254124
 20
4.23792895697808
 30
0.0
 11
6.49399527502189
 21
4.32171314567561
 31
0.0
  0
LINE
  8
9
  6
CONTINUOUS
 62
9
 10
6.48407672029892
 20
4.27296189161781
 30
0.0
 11
6.49399527502189
 21
4.32171314567561
 31
0.0
  0
LINE
  8
9
  6
CONTINUOUS
 62
9
 10
7.17058134157292
 20
4.23960249391918
 30
0.0
 11
7.09019730514106
 21
4.20954813419411
 31
0.0
  0
LINE
  8
9
  6
CONTINUOUS
 62
9
 10
7.13813792018408
 20
4.2228432434188
 30
0.0
 11
7.09019730514106
 21
4.20954813419411
 31
0.0
  0
LINE
  8
9
  6
CONTINUOUS
 62
9
 10
7.87727203827505
 20
4.63536689140494
 30
0.0
 11
7.83814315564119
 21
4.57624959839445
 31
0.0
  0
LINE
  8
9
  6
CONTINUOUS
 62
9
 10
7.86911325880156
 20
4.61518435420769
 30
0.0
 11
7.83814315564119
 21
4.57624959839445
 31
0.0
  0
LINE
  8
9
  6
CONTINUOUS
 62
9
 10
7.87737135184339
 20
6.70817524522184
 30
0.0
 11
7.88046369380872
 21
6.63734897036405
 31
0.0
  0
LINE
  8
9
  6
CONTINUOUS
 62
9
 10
7.88263375831437
 20
6.68705161938843
 30
0.0
 11
7.88046369380872
 21
6.63734897036405
 31
0.0
  0
LINE
  8
9
  6
CONTINUOUS
 62
9
 10
6.48127016754423
 20
6.71286969453162
 30
0.0
 11
6.42955200555083
 21
6.76026065860995
 31
0.0
  0
LINE
  8
9
  6
CONTINUOUS
 62
9
 10
6.46316261838717
 20
6.72358111111048
 30
0.0
 11
6.42955200555083
 21
6.76026065860995
 31
0.0
  0
LINE
  8
9
  6
CONTINUOUS
 62
9
 10
0.331270167544236
 20
6.71286969453162
 30
0.0
 11
0.279552005550833
 21
6.76026065860995
 31
0.0
  0
LINE
  8
9
  6
CONTINUOUS
 62
9
 10
0.313162618387167
 20
6.72358111111048
 30
0.0
 11
0.279552005550833
 21
6.76026065860995
 31
0.0
  0
LINE
  8
0
  6
CONTINUOUS
 62
0
 10
0.205463693791575
 20
8.13434897036405
 30
0.0
 11
0.331270167544236
 21
6.71286969453162
 31
0.0
  0
LINE
  8
0
  6
CONTINUOUS
 62
0
 10
0.313162618387167
 20
6.72358111111048
 30
0.0
 11
6.48127016754423
 21
6.71286969453162
 31
0.0
  0
LINE
  8
0
  6
CONTINUOUS
 62
0
 10
6.46316261838717
 20
6.72358111111048
 30
0.0
 11
7.87737135184339
 21
6.70817524522184
 31
0.0
  0
LINE
  8
0
  6
CONTINUOUS
 62
0
 10
7.88263375831437
 20
6.68705161938843
 30
0.0
 11
7.87727203827505
 21
4.63536689140494
 31
0.0
  0
LINE
  8
0
  6
CONTINUOUS
 62
0
 10
7.86911325880156
 20
4.61518435420769
 30
0.0
 11
7.17058134157292
 21
4.23960249391918
 31
0.0
  0
LINE
  8
0
  6
CONTINUOUS
 62
0
 10
7.13813792018408
 20
4.2228432434188
 30
0.0
 11
6.48444927254124
 21
4.23792895697808
 31
0.0
  0
LINE
  8
0
  6
CONTINUOUS
 62
0
 10
6.48407672029892
 20
4.27296189161781
 30
0.0
 11
6.48378605286125
 21
4.6359158007647
 31
0.0
  0
LINE
  8
0
  6
CONTINUOUS
 62
0
 10
6.48180842055582
 20
4.65686112845529
 30
0.0
 11
6.48309247695121
 21
5.38727088186722
 31
0.0
  0
LINE
  8
0
  6
CONTINUOUS
 62
0
 10
6.4575799875758
 20
5.41339674940531
 30
0.0
 11
5.60672961230168
 21
6.01404700165754
 31
0.0
  0
LINE
  8
0
  6
CONTINUOUS
 62
0
 10
5.5825799875758
 20
6.03839674940531
 30
0.0
 11
5.38827105287684
 21
6.60874568186452
 31
0.0
  0
LINE
  8
0
  6
CONTINUOUS
 62
0
 10
5.40023400031329
 20
6.62821903728936
 30
0.0
 11
5.76854452142937
 21
7.1014137308992
 31
0.0
  0
LINE
  8
0
  6
CONTINUOUS
 62
0
 10
5.74713581299613
 20
7.115150102632
 30
0.0
 11
5.34835097698499
 21
7.59701527434129
 31
0.0
  0
LINE
  8
0
  6
CONTINUOUS
 62
0
 10
5.353222771836
 20
7.5848381253307
 30
0.0
 11
5.19194979120733
 21
7.12083588498079
 31
0.0
  0
LINE
  8
0
  6
CONTINUOUS
 62
0
 10
5.09291179122157
 20
7.12090873691487
 30
0.0
 11
4.8266678663147
 21
7.0959795718826
 31
0.0
  0
LINE
  8
0
  6
CONTINUOUS
 62
0
 10
4.76491273702038
 20
7.10975004994065
 30
0.0
 11
4.10388265040555
 21
7.30729188729066
 31
0.0
  0
LINE
  8
0
  6
CONTINUOUS
 62
0
 10
4.06884854951832
 20
7.30753080080771
 30
0.0
 11
3.13127016754423
 21
7.83786969453162
 31
0.0
  0
LINE
  8
0
  6
CONTINUOUS
 62
0
 10
3.11316261838717
 20
7.84858111111048
 30
0.0
 11
1.72737135184339
 21
7.83317524522184
 31
0.0
  0
LINE
  8
0
  6
CONTINUOUS
 62
0
 10
1.73263375831437
 20
7.81205161938843
 30
0.0
 11
1.72737135184339
 21
6.70817524522184
 31
0.0
  0
LINE
  8
0
  6
CONTINUOUS
 62
0
 10
1.73263375831437
 20
6.68705161938843
 30
0.0
 11
1.72672033248562
 21
2.98373589156178
 31
0.0
  0
LINE
  8
0
  6
CONTINUOUS
 62
0
 10
1.73263375831741
 20
2.94770147102141
 30
0.0
 11
1.73127016754423
 21
2.63801954616462
 31
0.0
  0
LINE
  8
0
  6
CONTINUOUS
 62
0
 10
1.71316261838717
 20
2.64873096274348
 30
0.0
 11
0.333786052861257
 21
2.6359158007647
 31
0.0
  0
LINE
  8
0
  6
CONTINUOUS
 62
0
 10
0.33180842055582
 20
2.65686112845529
 30
0.0
 11
0.329595624387895
 21
4.63130716647631
 31
0.0
  0
LINE
  8
0
  6
CONTINUOUS
 62
0
 10
0.349778161585153
 20
4.62314838700282
 30
0.0
 11
1.0380325214968
 21
4.23248219758541
 31
0.0
  0
LINE
  8
0
  6
CONTINUOUS
 62
0
 10
1.07413064103963
 20
4.22697095142693
 30
0.0
 11
1.73444927254124
 21
4.23792895697808
 31
0.0
  0
LINE
  8
0
  6
CONTINUOUS
 62
0
 10
1.73407672029892
 20
4.27296189161781
 30
0.0
 11
1.73378605286125
 21
4.6359158007647
 31
0.0
  0
LINE
  8
0
  6
CONTINUOUS
 62
0
 10
1.73180842055582
 20
4.65686112845529
 30
0.0
 11
1.73444302089315
 21
5.38195845906159
 31
0.0
  0
LINE
  8
0
  6
CONTINUOUS
 62
0
 10
1.7647894674188
 20
5.39793368278606
 30
0.0
 11
2.608956209603
 21
6.00745573720033
 31
0.0
  0
LINE
  8
0
  6
CONTINUOUS
 62
0
 10
2.63395784417343
 20
6.03288338128706
 30
0.0
 11
3.13062438652289
 21
6.7060452773823
 31
0.0
  0
LINE
  8
0
  6
CONTINUOUS
 62
0
 10
3.1523403215502
 20
6.70452256397995
 30
0.0
 11
4.10172033248561
 21
6.00873589156178
 31
0.0
  0
LINE
  8
0
  6
CONTINUOUS
 62
0
 10
4.10763375831741
 20
5.97270147102141
 30
0.0
 11
4.28070195764514
 21
5.78937162915904
 31
0.0
  0
LINE
  8
0
  6
CONTINUOUS
 62
0
 10
3.08165714358164
 20
1.3817452113854
 30
0.0
 11
3.53922033248561
 21
1.48373589156178
 31
0.0
  0
LINE
  8
0
  6
CONTINUOUS
 62
0
 10
3.54513375831741
 20
1.44770147102141
 30
0.0
 11
3.54420409772872
 21
0.919095361294402
 31
0.0
  0
LINE
  8
0
  6
CONTINUOUS
 62
0
 10
3.6182610447717
 20
0.926668886509487
 30
0.0
 11
4.67336715449288
 21
0.860739225929734
 31
0.0
  0
LINE
  8
0
  6
CONTINUOUS
 62
0
 10
4.66579362929005
 20
0.934796172972668
 30
0.0
 11
4.10826535964731
 21
1.16606860128625
 31
0.0
  0
LINE
  8
0
  6
CONTINUOUS
 62
0
 10
4.1414685354472
 20
1.17724869169047
 30
0.0
 11
4.66638062491132
 21
1.48102193982266
 31
0.0
  0
LINE
  8
0
  6
CONTINUOUS
 62
0
 10
4.69900890800539
 20
1.46462550084702
 30
0.0
 11
5.15217438969872
 21
1.35820487072358
 31
0.0
  0
LINE
  8
0
  6
CONTINUOUS
 62
0
 10
5.1171402888115
 20
1.35844378424063
 30
0.0
 11
3.41796369378909
 21
2.38374882199705
 31
0.0
  0
LINE
  8
0
  6
CONTINUOUS
 62
0
 10
3.46771369379579
 20
2.23449882200152
 30
0.0
 11
6.47672033248562
 21
2.98373589156178
 31
0.0
  0
LINE
  8
0
  6
CONTINUOUS
 62
0
 10
6.48263375831741
 20
2.94770147102141
 30
0.0
 11
6.48283798611213
 21
2.63177694128034
 31
0.0
  0
LINE
  8
0
  6
CONTINUOUS
 62
0
 10
6.5021470545072
 20
2.6401302435804
 30
0.0
 11
7.87788540284701
 21
2.6324269568365
 31
0.0
  0
LINE
  8
0
  6
CONTINUOUS
 62
0
 10
7.88941780817798
 20
2.6139633678707
 30
0.0
 11
8.15330514901386
 21
2.11297740189623
 31
0.0
  0
ARC
  8
3
  6
CONTINUOUS
 62
3
 10
7.75546369443399
 20
2.13434897033172
 30
0.0
 40
0.249999999358192
 50
355.993508466541
 51
7.40779258677534E-9
  0
ARC
  8
3
  6
CONTINUOUS
 62
3
 10
7.88046369380469
 20
2.63449882199058
 30
0.0
 40
0.0719999999911018
 50
288.000000015434
 51
1.54341386031669E-8
  0
ARC
  8
3
  6
CONTINUOUS
 62
3
 10
7.88046369379579
 20
2.63449882199705
 30
0.0
 40
0.0720000000000006
 50
179.999999999999
 51
288.000000020579
  0
ARC
  8
3
  6
CONTINUOUS
 62
3
 10
6.48046369388602
 20
2.63449882199543
 30
0.0
 40
0.0719999999178482
 50
1.28525026939552E-9
 51
9.00000001157498
  0
ARC
  8
3
  6
CONTINUOUS
 62
3
 10
6.48046369380356
 20
2.98449882198928
 30
0.0
 40
0.0864999999922325
 50
270.000000015434
 51
1.54341894920418E-8
  0
ARC
  8
3
  6
CONTINUOUS
 62
3
 10
6.48046369379579
 20
2.98449882199705
 30
0.0
 40
0.0865
 50
179.999999999999
 51
270.000000020579
  0
ARC
  8
3
  6
CONTINUOUS
 62
3
 10
5.1537554330909
 20
1.35419108765718
 30
0.0
 40
0.0864999999999964
 50
170.000000000154
 51
180.000000011573
  0
ARC
  8
3
  6
CONTINUOUS
 62
3
 10
4.66796369381969
 20
1.48449882198928
 30
0.0
 40
0.0864999999760954
 50
324.000000015434
 51
1.54335788255429E-8
  0
ARC
  8
3
  6
CONTINUOUS
 62
3
 10
4.66796369379579
 20
1.48449882199705
 30
0.0
 40
0.0864999999999999
 50
179.999999999999
 51
324.000000020579
  0
ARC
  8
3
  6
CONTINUOUS
 62
3
 10
4.10546369390419
 20
1.16934897036211
 30
0.0
 40
0.0864999999013067
 50
1.28377449202332E-9
 51
9.00000001157376
  0
LINE
  8
3
  6
CONTINUOUS
 62
3
 10
4.54296369379579
 20
0.984498821997049
 30
0.0
 11
4.66796369379579
 21
0.984498821997049
 31
0.0
  0
LINE
  8
3
  6
CONTINUOUS
 62
3
 10
4.66796369379579
 20
0.984498821997049
 30
0.0
 11
4.79296369379579
 21
0.984498821997049
 31
0.0
  0
LINE
  8
3
  6
CONTINUOUS
 62
3
 10
3.66796369379579
 20
0.984498821997049
 30
0.0
 11
3.66796369379579
 21
0.92449882199705
 31
0.0
  0
LINE
  8
3
  6
CONTINUOUS
 62
3
 10
3.66796369379579
 20
0.92449882199705
 30
0.0
 11
3.66796369379579
 21
0.734498821997049
 31
0.0
  0
ARC
  8
3
  6
CONTINUOUS
 62
3
 10
3.54296369380355
 20
1.48449882198928
 30
0.0
 40
0.086499999992234
 50
270.000000015434
 51
1.54337823810425E-8
  0
ARC
  8
3
  6
CONTINUOUS
 62
3
 10
3.54296369379579
 20
1.48449882199705
 30
0.0
 40
0.0865000000000007
 50
179.999999999999
 51
270.000000020578
  0
ARC
  8
3
  6
CONTINUOUS
 62
3
 10
3.05717195453108
 20
1.3541910876533
 30
0.0
 40
0.0864999999812466
 50
1.28448693627197E-9
 51
45.0000000115751
  0
LINE
  8
3
  6
CONTINUOUS
 62
3
 10
3.77488106661149
 20
4.12749551700876
 30
0.0
 11
3.77488106661149
 21
3.89749551700876
 31
0.0
  0
LINE
  8
3
  6
CONTINUOUS
 62
3
 10
3.77488106661149
 20
3.89749551700876
 30
0.0
 11
3.77488106661149
 21
3.87749551700876
 31
0.0
  0
LINE
  8
3
  6
CONTINUOUS
 62
3
 10
3.87204102651093
 20
3.64897412119364
 30
0.0
 11
3.87204102651093
 21
4.11897412119364
 31
0.0
  0
LINE
  8
3
  6
CONTINUOUS
 62
3
 10
3.87204102651093
 20
4.11897412119364
 30
0.0
 11
3.87204102651093
 21
4.14897412119364
 31
0.0
  0
LINE
  8
3
  6
CONTINUOUS
 62
3
 10
4.45196333950262
 20
5.21691222668968
 30
0.0
 11
4.45196333950262
 21
5.69691222668968
 31
0.0
  0
LINE
  8
3
  6
CONTINUOUS
 62
3
 10
4.45196333950262
 20
5.69691222668968
 30
0.0
 11
4.45196333950262
 21
5.71691222668968
 31
0.0
  0
LINE
  8
3
  6
CONTINUOUS
 62
3
 10
4.10480337960317
 20
5.6954336225048
 30
0.0
 11
4.28480337960317
 21
5.6954336225048
 31
0.0
  0
LINE
  8
3
  6
CONTINUOUS
 62
3
 10
4.28480337960317
 20
5.6954336225048
 30
0.0
 11
4.35480337960317
 21
5.6954336225048
 31
0.0
  0
ARC
  8
3
  6
CONTINUOUS
 62
3
 10
4.10546369380356
 20
6.00949882198928
 30
0.0
 40
0.0864999999922336
 50
270.000000015433
 51
1.54334770477931E-8
  0
ARC
  8
3
  6
CONTINUOUS
 62
3
 10
4.10546369379579
 20
6.00949882199705
 30
0.0
 40
0.0865000000000007
 50
179.999999999999
 51
270.000000020578
  0
ARC
  8
3
  6
CONTINUOUS
 62
3
 10
3.13046369383499
 20
6.70934897035597
 30
0.0
 40
0.0719999999591812
 50
342.000000008486
 51
6.42802907825986E-9
  0
ARC
  8
3
  6
CONTINUOUS
 62
3
 10
2.6054636938294
 20
6.00949882199511
 30
0.0
 40
0.0864999999760943
 50
1.28474138064648E-9
 51
36.0000000115747
  0
ARC
  8
3
  6
CONTINUOUS
 62
3
 10
1.73046369385454
 20
5.38449882199511
 30
0.0
 40
0.0864999999509593
 50
1.28387626977313E-9
 51
18.000000011574
  0
ARC
  8
3
  6
CONTINUOUS
 62
3
 10
1.73046369381144
 20
4.63449882199543
 30
0.0
 40
0.0719999999924301
 50
1.28575915814455E-9
 51
81.0000000115752
  0
ARC
  8
3
  6
CONTINUOUS
 62
3
 10
1.73046369381459
 20
4.23627810422038
 30
0.0
 40
0.0864999999909055
 50
1.2850467138959E-9
 51
81.0000000115759
  0
ARC
  8
3
  6
CONTINUOUS
 62
3
 10
1.03846369384483
 20
4.23627810421455
 30
0.0
 40
0.0864999999509587
 50
342.000000015433
 51
1.54340368254171E-8
  0
ARC
  8
3
  6
CONTINUOUS
 62
3
 10
1.03846369379579
 20
4.23627810422232
 30
0.0
 40
0.0865000000000001
 50
179.999999999999
 51
342.000000020578
  0
ARC
  8
3
  6
CONTINUOUS
 62
3
 10
0.33046369381569
 20
4.63449882199058
 30
0.0
 40
0.0719999999801018
 50
324.000000015436
 51
1.54358688249136E-8
  0
ARC
  8
3
  6
CONTINUOUS
 62
3
 10
0.330463693795793
 20
4.63449882199705
 30
0.0
 40
0.0719999999999998
 50
179.999999999999
 51
324.000000020579
  0
ARC
  8
3
  6
CONTINUOUS
 62
3
 10
0.330463693811443
 20
2.63449882199543
 30
0.0
 40
0.071999999992431
 50
1.28433426964726E-9
 51
81.0000000115753
  0
ARC
  8
3
  6
CONTINUOUS
 62
3
 10
1.7304636937974
 20
2.63449882199866
 30
0.0
 40
0.0720000000000001
 50
135.000000001285
 51
180.000000011576
  0
ARC
  8
3
  6
CONTINUOUS
 62
3
 10
1.73046369380356
 20
2.98449882198928
 30
0.0
 40
0.0864999999922329
 50
270.000000015434
 51
1.54338841587923E-8
  0
ARC
  8
3
  6
CONTINUOUS
 62
3
 10
1.73046369379579
 20
2.98449882199705
 30
0.0
 40
0.0864999999999996
 50
179.999999999999
 51
270.000000020579
  0
ARC
  8
3
  6
CONTINUOUS
 62
3
 10
1.73046369380225
 20
6.70934897035758
 30
0.0
 40
0.0719999999935348
 50
270.000000015434
 51
1.54345457141661E-8
  0
ARC
  8
3
  6
CONTINUOUS
 62
3
 10
1.73046369379579
 20
6.70934897036405
 30
0.0
 40
0.0720000000000003
 50
179.999999999999
 51
270.000000020579
  0
ARC
  8
3
  6
CONTINUOUS
 62
3
 10
1.73046369380225
 20
7.83434897035758
 30
0.0
 40
0.0719999999935348
 50
270.000000015435
 51
1.54338332699174E-8
  0
ARC
  8
3
  6
CONTINUOUS
 62
3
 10
1.73046369379579
 20
7.83434897036405
 30
0.0
 40
0.0720000000000007
 50
179.999999999998
 51
270.000000020579
  0
ARC
  8
3
  6
CONTINUOUS
 62
3
 10
3.1304636937974
 20
7.83434897036566
 30
0.0
 40
0.0719999999999998
 50
135.000000001286
 51
180.000000011576
  0
ARC
  8
3
  6
CONTINUOUS
 62
3
 10
4.10546369379773
 20
7.30327810422426
 30
0.0
 40
0.0864999999999997
 50
170.000000000158
 51
180.000000011577
  0
ARC
  8
3
  6
CONTINUOUS
 62
3
 10
4.77771937397933
 20
7.10763547631617
 30
0.0
 40
0.062499999992132
 50
89.9999999961412
 51
161.00000000543
  0
LINE
  8
3
  6
CONTINUOUS
 62
3
 10
5.39271937398354
 20
7.53513547630691
 30
0.0
 11
5.35105270731687
 21
7.5351354763069
 31
0.0
  0
LINE
  8
3
  6
CONTINUOUS
 62
3
 10
5.35105270731687
 20
7.5351354763069
 30
0.0
 11
5.26771937398354
 21
7.5351354763069
 31
0.0
  0
ARC
  8
3
  6
CONTINUOUS
 62
3
 10
5.75771937397933
 20
7.10763547632185
 30
0.0
 40
0.0624999999864507
 50
89.9999999961414
 51
135.000000006432
  0
ARC
  8
3
  6
CONTINUOUS
 62
3
 10
5.39271937399617
 20
6.61763547631342
 30
0.0
 40
0.0624999999864407
 50
45.0000000012864
 51
90.0000000115762
  0
ARC
  8
3
  6
CONTINUOUS
 62
3
 10
5.60546369379773
 20
6.00949882199899
 30
0.0
 40
0.0864999999999997
 50
125.000000000799
 51
180.000000011576
  0
ARC
  8
3
  6
CONTINUOUS
 62
3
 10
6.48046369379773
 20
5.38449882199899
 30
0.0
 40
0.0865
 50
125.0000000008
 51
180.000000011575
  0
ARC
  8
3
  6
CONTINUOUS
 62
3
 10
6.48046369381144
 20
4.63449882199543
 30
0.0
 40
0.071999999992431
 50
1.2850467138959E-9
 51
81.0000000115753
  0
ARC
  8
3
  6
CONTINUOUS
 62
3
 10
6.48046369381459
 20
4.23627810422038
 30
0.0
 40
0.0864999999909057
 50
1.28514849164571E-9
 51
81.0000000115757
  0
ARC
  8
3
  6
CONTINUOUS
 62
3
 10
7.17246369379702
 20
4.23627810421455
 30
0.0
 40
0.0864999999987688
 50
198.000000015434
 51
1.54337823810425E-8
  0
ARC
  8
3
  6
CONTINUOUS
 62
3
 10
7.17246369379579
 20
4.23627810422232
 30
0.0
 40
0.0865000000000006
 50
179.999999999999
 51
198.00000002058
  0
ARC
  8
3
  6
CONTINUOUS
 62
3
 10
7.88046369379908
 20
4.63449882199058
 30
0.0
 40
0.0719999999967061
 50
234.000000015434
 51
1.54343930475414E-8
  0
ARC
  8
3
  6
CONTINUOUS
 62
3
 10
7.88046369379579
 20
4.63449882199705
 30
0.0
 40
0.0720000000000006
 50
180
 51
234.00000002058
  0
ARC
  8
3
  6
CONTINUOUS
 62
3
 10
7.88046369380225
 20
6.70934897035758
 30
0.0
 40
0.0719999999935356
 50
270.000000015434
 51
1.54345457141661E-8
  0
ARC
  8
3
  6
CONTINUOUS
 62
3
 10
7.88046369379579
 20
6.70934897036405
 30
0.0
 40
0.0720000000000007
 50
179.999999999999
 51
270.000000020579
  0
ARC
  8
3
  6
CONTINUOUS
 62
3
 10
6.4804636937974
 20
6.70934897036566
 30
0.0
 40
0.0719999999999995
 50
135.000000001285
 51
180.000000011575
  0
ARC
  8
3
  6
CONTINUOUS
 62
3
 10
0.330463693797407
 20
6.70934897036566
 30
0.0
 40
0.0720000000000013
 50
135.000000001285
 51
180.000000011574
  0
LINE
  8
9
  6
CONTINUOUS
 62
9
 10
3.87204102651093
 20
4.14897412119364
 30
0.0
 11
3.78411294598319
 21
4.19660449653026
 31
0.0
  0
LINE
  8
9
  6
CONTINUOUS
 62
9
 10
3.87204102651093
 20
4.14897412119364
 30
0.0
 11
3.73442390394853
 21
4.20865265651118
 31
0.0
  0
LINE
  8
9
  6
CONTINUOUS
 62
9
 10
3.77488106661149
 20
3.89749551700876
 30
0.0
 11
3.82654062764621
 21
3.98311846810074
 31
0.0
  0
LINE
  8
9
  6
CONTINUOUS
 62
9
 10
3.77488106661149
 20
3.89749551700876
 30
0.0
 11
3.84088173997629
 21
4.03219485299596
 31
0.0
  0
LINE
  8
0
  6
CONTINUOUS
 62
0
 10
3.78411294598319
 20
4.19660449653026
 30
0.0
 11
3.84088173997629
 21
4.03219485299596
 31
0.0
  0
LINE
  8
0
  6
CONTINUOUS
 62
0
 10
3.06136670235121
 20
1.35318399118529
 30
0.0
 11
3.82654062764621
 21
3.98311846810074
 31
0.0
  0
LINE
  8
9
  6
CONTINUOUS
 62
9
 10
4.45196333950262
 20
5.69691222668968
 30
0.0
 11
4.39920238739212
 21
5.61196352491977
 31
0.0
  0
LINE
  8
9
  6
CONTINUOUS
 62
9
 10
4.45196333950262
 20
5.69691222668968
 30
0.0
 11
4.3910688327393
 21
5.57659170297299
 31
0.0
  0
LINE
  8
0
  6
CONTINUOUS
 62
0
 10
3.73442390394853
 20
4.20865265651118
 30
0.0
 11
4.39920238739212
 21
5.61196352491977
 31
0.0
  0
LINE
  8
0
  6
CONTINUOUS
 62
0
 10
4.28697344411784
 20
5.74513627152879
 30
0.0
 11
4.3910688327393
 21
5.57659170297299
 31
0.0
  0
ENDSEC
  0
EOF
