0
SECTION
2
HEADER
9
$INSUNITS
70
4
9
$ACADVER
1
AC1014
9
$HANDSEED
5
FFFF
0
ENDSEC
0
SECTION
2
TABLES
0
TABLE
2
VPORT
5
8
100
AcDbSymbolTable
0
ENDTAB
0
TABLE
2
LTYPE
5
5
100
AcDbSymbolTable
0
LTYPE
5
14
100
AcDbSymbolTableRecord
100
AcDbLinetypeTableRecord
2
BYBLOCK
70
0
0
LTYPE
5
15
100
AcDbSymbolTableRecord
100
AcDbLinetypeTableRecord
2
BYLAYER
70
0
0
ENDTAB
0
TABLE
2
LAYER
5
2
100
AcDbSymbolTable
70
2
0
LAYER
5
50
100
AcDbSymbolTableRecord
100
AcDbLayerTableRecord
2
0
70
0
6
CONTINUOUS
0
ENDTAB
0
TABLE
2
STYLE
5
3
100
AcDbSymbolTable
70
1
0
STYLE
5
11
100
AcDbSymbolTableRecord
100
AcDbTextStyleTableRecord
2
STANDARD
70
0
0
ENDTAB
0
TABLE
2
VIEW
5
6
100
AcDbSymbolTable
70
0
0
ENDTAB
0
TABLE
2
UCS
5
7
100
AcDbSymbolTable
70
0
0
ENDTAB
0
TABLE
2
APPID
5
9
100
AcDbSymbolTable
70
2
0
APPID
5
12
100
AcDbSymbolTableRecord
100
AcDbRegAppTableRecord
2
ACAD
70
0
0
ENDTAB
0
TABLE
2
DIMSTYLE
5
A
100
AcDbSymbolTable
70
1
0
ENDTAB
0
TABLE
2
BLOCK_RECORD
5
1
100
AcDbSymbolTable
70
1
0
BLOCK_RECORD
5
1F
100
AcDbSymbolTableRecord
100
AcDbBlockTableRecord
2
*MODEL_SPACE
0
BLOCK_RECORD
5
1B
100
AcDbSymbolTableRecord
100
AcDbBlockTableRecord
2
*PAPER_SPACE
0
ENDTAB
0
ENDSEC
0
SECTION
2
BLOCKS
0
BLOCK
5
20
100
AcDbEntity
100
AcDbBlockBegin
2
*MODEL_SPACE
0
ENDBLK
5
21
100
AcDbEntity
100
AcDbBlockEnd
0
BLOCK
5
1C
100
AcDbEntity
100
AcDbBlockBegin
2
*PAPER_SPACE
0
ENDBLK
5
1D
100
AcDbEntity
100
AcDbBlockEnd
0
ENDSEC
0
SECTION
2
ENTITIES
0
LINE
5
100
100
AcDbEntity
8
0
100
AcDbLine
10
-14.347770517723998
20
14.352141563442908
30
0
11
-33.156925537041523
21
47.01452237198108
31
0
0
LINE
5
101
100
AcDbEntity
8
0
100
AcDbLine
10
-23.765295204386039
20
51.663772802275744
30
0
11
-2.7652952043860473
21
15.290705843329327
31
0
0
LINE
5
102
100
AcDbEntity
8
0
100
AcDbLine
10
-34.656925537041531
20
49.612598583334361
30
0
11
-33.156925537041523
21
47.01452237198108
31
0
0
LINE
5
103
100
AcDbEntity
8
0
100
AcDbLine
10
-23.765295204386039
20
51.663772802275744
30
0
11
-25.563658797304917
21
54.86259858333441
31
0
0
ARC
5
104
100
AcDbEntity
8
0
100
AcDbCircle
10
-26.429684201089341
20
54.362598583334403
30
0
40
0.99999999999999178
100
AcDbArc
50
30.000000000000792
51
119.99999999999979
0
ARC
5
105
100
AcDbEntity
8
0
100
AcDbCircle
10
-33.790900133257097
20
50.112598583334361
30
0
40
0.99999999999999378
100
AcDbArc
50
119.99999999999903
51
210.00000000000014
0
LINE
5
106
100
AcDbEntity
8
0
100
AcDbLine
10
-26.929684201089334
20
55.228623987118837
30
0
11
-34.290900133257082
21
50.978623987118809
31
0
0
LINE
5
107
100
AcDbEntity
8
0
100
AcDbLine
10
-11.858561944122652
20
10.040705843329324
30
0
11
-32.858561944122648
21
46.413772802275744
31
0
0
ARC
5
108
100
AcDbEntity
8
0
100
AcDbCircle
10
-7.3417283615299365
20
12.717320588945388
30
0
40
5.2503382852237905
100
AcDbArc
50
-150.65041093332104
51
30.650410933322163
0
CIRCLE
5
109
100
AcDbEntity
8
0
100
AcDbCircle
10
-4.7631397853383319
20
2.7500000372529056
30
0
40
0.97500000000000009
0
CIRCLE
5
110
100
AcDbEntity
8
0
100
AcDbCircle
10
4.7631397853383337
20
2.7500000372529021
30
0
40
0.97500000000000009
0
CIRCLE
5
111
100
AcDbEntity
8
0
100
AcDbCircle
10
0
20
-5.500000074505806
30
0
40
0.97500000000000009
0
CIRCLE
5
112
100
AcDbEntity
8
0
100
AcDbCircle
10
0
20
0
30
0
40
2.4750000000000001
0
CIRCLE
5
113
100
AcDbEntity
8
0
100
AcDbCircle
10
0
20
0
30
0
40
67.5
0
ENDSEC
0
SECTION
2
OBJECTS
0
DICTIONARY
5
C
100
AcDbDictionary
3
ACAD_GROUP
350
D
3
ACAD_MLINESTYLE
350
17
0
DICTIONARY
5
D
100
AcDbDictionary
0
DICTIONARY
5
1A
330
C
100
AcDbDictionary
0
DICTIONARY
5
17
100
AcDbDictionary
0
ENDSEC
0
EOF
