0
SECTION
2
HEADER
9
$INSUNITS
70
4
9
$ACADVER
1
AC1014
9
$HANDSEED
5
FFFF
0
ENDSEC
0
SECTION
2
TABLES
0
TABLE
2
VPORT
5
8
100
AcDbSymbolTable
0
ENDTAB
0
TABLE
2
LTYPE
5
5
100
AcDbSymbolTable
0
LTYPE
5
14
100
AcDbSymbolTableRecord
100
AcDbLinetypeTableRecord
2
BYBLOCK
70
0
0
LTYPE
5
15
100
AcDbSymbolTableRecord
100
AcDbLinetypeTableRecord
2
BYLAYER
70
0
0
ENDTAB
0
TABLE
2
LAYER
5
2
100
AcDbSymbolTable
70
2
0
LAYER
5
50
100
AcDbSymbolTableRecord
100
AcDbLayerTableRecord
2
0
70
0
6
CONTINUOUS
0
ENDTAB
0
TABLE
2
STYLE
5
3
100
AcDbSymbolTable
70
1
0
STYLE
5
11
100
AcDbSymbolTableRecord
100
AcDbTextStyleTableRecord
2
STANDARD
70
0
0
ENDTAB
0
TABLE
2
VIEW
5
6
100
AcDbSymbolTable
70
0
0
ENDTAB
0
TABLE
2
UCS
5
7
100
AcDbSymbolTable
70
0
0
ENDTAB
0
TABLE
2
APPID
5
9
100
AcDbSymbolTable
70
2
0
APPID
5
12
100
AcDbSymbolTableRecord
100
AcDbRegAppTableRecord
2
ACAD
70
0
0
ENDTAB
0
TABLE
2
DIMSTYLE
5
A
100
AcDbSymbolTable
70
1
0
ENDTAB
0
TABLE
2
BLOCK_RECORD
5
1
100
AcDbSymbolTable
70
1
0
BLOCK_RECORD
5
1F
100
AcDbSymbolTableRecord
100
AcDbBlockTableRecord
2
*MODEL_SPACE
0
BLOCK_RECORD
5
1B
100
AcDbSymbolTableRecord
100
AcDbBlockTableRecord
2
*PAPER_SPACE
0
ENDTAB
0
ENDSEC
0
SECTION
2
BLOCKS
0
BLOCK
5
20
100
AcDbEntity
100
AcDbBlockBegin
2
*MODEL_SPACE
0
ENDBLK
5
21
100
AcDbEntity
100
AcDbBlockEnd
0
BLOCK
5
1C
100
AcDbEntity
100
AcDbBlockBegin
2
*PAPER_SPACE
0
ENDBLK
5
1D
100
AcDbEntity
100
AcDbBlockEnd
0
ENDSEC
0
SECTION
2
ENTITIES
0
LINE
5
100
100
AcDbEntity
8
0
100
AcDbLine
10
500.4667421215504
20
-502.38004382148699
30
0
11
533.0155410075289
21
-497.32178453515252
31
0
0
ARC
5
101
100
AcDbEntity
8
0
100
AcDbCircle
10
514.08915022233418
20
-559.37160152155002
30
0
40
64.87208996324479
100
AcDbArc
50
33.851907001477144
51
73.037283231917442
0
ARC
5
102
100
AcDbEntity
8
0
100
AcDbCircle
10
560.52609060219106
20
-527.4513209369602
30
0
40
8.5500999191677494
100
AcDbArc
50
-29.54875446472586
51
29.54875446472651
0
LINE
5
103
100
AcDbEntity
8
0
100
AcDbLine
10
567.96413344549808
20
-531.66792232775833
30
0
11
541.00000806152821
21
-529.00000788271427
31
0
0
ARC
5
104
100
AcDbEntity
8
0
100
AcDbCircle
10
540.37169004530324
20
-535.35030363600163
30
0
40
6.3813039172046668
100
AcDbArc
50
84.349368849365192
51
176.85322044064435
0
LINE
5
105
100
AcDbEntity
8
0
100
AcDbLine
10
534.00000795722008
20
-535.00000797212124
30
0
11
536.89135878399316
21
-684.3990448007122
31
0
0
LINE
5
106
100
AcDbEntity
8
0
100
AcDbLine
10
536.89135878399316
20
-684.3990448007122
30
0
11
562.33807342775151
21
-683.90656920658694
31
0
0
LINE
5
107
100
AcDbEntity
8
0
100
AcDbLine
10
587.81850396114487
20
-709.30863779131869
30
0
11
587.42580350383355
21
-733.44197170382245
31
0
0
LINE
5
108
100
AcDbEntity
8
0
100
AcDbLine
10
587.42580350383355
20
-733.44197170382245
30
0
11
559.46777652920014
21
-734.20318584393328
31
0
0
ARC
5
109
100
AcDbEntity
8
0
100
AcDbCircle
10
561.81064137868191
20
-820.25240012971926
30
0
40
86.08110300701334
100
AcDbArc
50
91.559608805432987
51
103.0570836078742
0
LINE
5
110
100
AcDbEntity
8
0
100
AcDbLine
10
542.36305186895106
20
-736.39688416824481
30
0
11
510.58427424879454
21
-767.53581711774825
31
0
0
ARC
5
111
100
AcDbEntity
8
0
100
AcDbCircle
10
506.41176203591294
20
-763.27756787248461
30
0
40
5.9617568552763531
100
AcDbArc
50
160.7094897102921
51
314.41734791180204
0
ARC
5
112
100
AcDbEntity
8
0
100
AcDbCircle
10
372.90946244546194
20
-716.34498012595157
30
0
40
135.54984494579014
100
AcDbArc
50
340.62747585671377
51
353.57866986419697
0
LINE
5
113
100
AcDbEntity
8
0
100
AcDbLine
10
507.60891544811386
20
-731.50472371263982
30
0
11
506.53510861310713
21
-547.91220642890141
31
0
0
LINE
5
114
100
AcDbEntity
8
0
100
AcDbLine
10
506.53510861310713
20
-547.91220642890141
30
0
11
500.0000074505806
21
-532.00000792741776
31
0
0
LINE
5
115
100
AcDbEntity
8
0
100
AcDbLine
10
500.0000074505806
20
-532.00000792741776
30
0
11
500.4667421215504
21
-502.38004382148699
31
0
0
LINE
5
116
100
AcDbEntity
8
0
100
AcDbLine
10
629.40409479241998
20
-530.10555858105022
30
0
11
603.11150462424939
21
-525.99279199704699
31
0
0
ARC
5
117
100
AcDbEntity
8
0
100
AcDbCircle
10
601.83802897421617
20
-534.13402069835422
30
0
40
8.2402272419038844
100
AcDbArc
50
81.109663564190853
51
139.14883396234075
0
ARC
5
118
100
AcDbEntity
8
0
100
AcDbCircle
10
624.59523647870174
20
-537.62863485116645
30
0
40
8.9287062247226245
100
AcDbArc
50
24.996308285931928
51
57.412702476265849
0
LINE
5
119
100
AcDbEntity
8
0
100
AcDbLine
10
595.60502847695329
20
-528.74411812044639
30
0
11
595.62684489676906
21
-734.10517916407287
31
0
0
LINE
5
120
100
AcDbEntity
8
0
100
AcDbLine
10
595.62684489676906
20
-734.10517916407287
30
0
11
624.22566905903125
21
-730.95691735498144
31
0
0
ARC
5
121
100
AcDbEntity
8
0
100
AcDbCircle
10
10.128091347121323
20
-674.13846240679595
30
0
40
636.35148146282222
100
AcDbArc
50
-2.8525522357628041
51
3.5567670796366047
0
ARC
5
122
100
AcDbEntity
8
0
100
AcDbCircle
10
211.80596925154279
20
-637.86616494776024
30
0
40
433.45972955066594
100
AcDbArc
50
0.42369039312107348
51
13.300993546162136
0
ARC
5
123
100
AcDbEntity
8
0
100
AcDbCircle
10
548.20010924653502
20
-554.84056288359307
30
0
40
87.054613052628611
100
AcDbArc
50
11.059146359132006
51
13.948741875601764
0
CIRCLE
5
124
100
AcDbEntity
8
0
100
AcDbCircle
10
562.82181307681935
20
-708.9018886874801
30
0
40
24.999999999999996
0
CIRCLE
5
125
100
AcDbEntity
8
0
100
AcDbCircle
10
620.69428607346038
20
-706.2075873800261
30
0
40
25.000000000000071
0
LINE
5
126
100
AcDbEntity
8
0
100
AcDbLine
10
536.89135878399316
20
-684.3990448007122
30
0
11
549.61471610587137
21
-684.15280700364963
31
0
0
CIRCLE
5
127
100
AcDbEntity
8
0
100
AcDbCircle
10
620.69428607346038
20
-706.2075873800261
30
0
40
25.000000000000071
0
LINE
5
128
100
AcDbEntity
8
0
100
AcDbLine
10
595.86579516209702
20
-734.07901144834466
30
0
11
624.22566895445652
21
-730.9569173699025
31
0
0
CIRCLE
5
129
100
AcDbEntity
8
0
100
AcDbCircle
10
562.82181307681935
20
-708.9018886874801
30
0
40
2.5000000000000409
0
CIRCLE
5
130
100
AcDbEntity
8
0
100
AcDbCircle
10
620.69428607346038
20
-706.2075873800261
30
0
40
2.4999999999999725
0
LINE
5
131
100
AcDbEntity
8
0
100
AcDbLine
10
646.44019956252009
20
-681.21722631041268
30
0
11
620.0001293113703
21
-681.21722631041268
31
0
0
LINE
5
132
100
AcDbEntity
8
0
100
AcDbLine
10
536.89135878399316
20
-684.3990448007122
30
0
11
537.98078712723498
21
-740.69091490757432
31
0
0
LINE
5
133
100
AcDbEntity
8
0
100
AcDbLine
10
646.44019956252009
20
-681.21722631041268
30
0
11
595.62122694760228
21
-681.22262503612785
31
0
0
ENDSEC
0
SECTION
2
OBJECTS
0
DICTIONARY
5
C
100
AcDbDictionary
3
ACAD_GROUP
350
D
3
ACAD_MLINESTYLE
350
17
0
DICTIONARY
5
D
100
AcDbDictionary
0
DICTIONARY
5
1A
330
C
100
AcDbDictionary
0
DICTIONARY
5
17
100
AcDbDictionary
0
ENDSEC
0
EOF
