ISO-10303-21;
HEADER;
/* Generated by software containing ST-Developer
 * from STEP Tools, Inc. (www.steptools.com) 
 */

FILE_DESCRIPTION(
/* description */ (''),
/* implementation_level */ '2;1');

FILE_NAME(
/* name */ 
'C:\\Users\\Eddie the Computer\\Documents\\Course\\Third Year\\FYP\\3D
 Printing\\STEP Files\\Azimuth Potentiometer Holder Inner.stp',
/* time_stamp */ '2018-04-22T20:07:12+01:00',
/* author */ ('Eddie the Computer'),
/* organization */ (''),
/* preprocessor_version */ 'ST-DEVELOPER v15.2',
/* originating_system */ 'Autodesk Inventor 2014',
/* authorisation */ '');

FILE_SCHEMA (('AUTOMOTIVE_DESIGN { 1 0 10303 214 3 1 1 }'));
ENDSEC;

DATA;
#10=SHAPE_REPRESENTATION_RELATIONSHIP('SRR','None',#625,#11);
#11=ADVANCED_BREP_SHAPE_REPRESENTATION($,(#347),#616);
#12=STYLED_ITEM($,(#633),#347);
#13=LINE($,#534,#27);
#14=LINE($,#536,#28);
#15=LINE($,#538,#29);
#16=LINE($,#539,#30);
#17=LINE($,#543,#31);
#18=LINE($,#545,#32);
#19=LINE($,#547,#33);
#20=LINE($,#548,#34);
#21=LINE($,#558,#35);
#22=LINE($,#563,#36);
#23=LINE($,#573,#37);
#24=LINE($,#579,#38);
#25=LINE($,#588,#39);
#26=LINE($,#591,#40);
#27=VECTOR($,#412,0.750000000000002);
#28=VECTOR($,#413,6.96491205974634);
#29=VECTOR($,#414,0.750000000000002);
#30=VECTOR($,#415,6.96491205974634);
#31=VECTOR($,#418,0.750000000000002);
#32=VECTOR($,#419,6.96491205974634);
#33=VECTOR($,#420,0.750000000000002);
#34=VECTOR($,#421,6.96491205974634);
#35=VECTOR($,#438,9.);
#36=VECTOR($,#439,9.);
#37=VECTOR($,#452,9.);
#38=VECTOR($,#455,9.);
#39=VECTOR($,#458,9.);
#40=VECTOR($,#461,9.);
#41=(
BOUNDED_CURVE()
B_SPLINE_CURVE(2,(#506,#507,#508),.UNSPECIFIED.,.F.,.F.)
B_SPLINE_CURVE_WITH_KNOTS((3,3),(0.,1.03527618041008),.UNSPECIFIED.)
CURVE()
GEOMETRIC_REPRESENTATION_ITEM()
RATIONAL_B_SPLINE_CURVE((1.,1.15470053837925,1.))
REPRESENTATION_ITEM($)
);
#42=(
BOUNDED_CURVE()
B_SPLINE_CURVE(2,(#510,#511,#512),.UNSPECIFIED.,.F.,.F.)
B_SPLINE_CURVE_WITH_KNOTS((3,3),(0.,1.03527618041008),.UNSPECIFIED.)
CURVE()
GEOMETRIC_REPRESENTATION_ITEM()
RATIONAL_B_SPLINE_CURVE((1.,1.15470053837925,1.))
REPRESENTATION_ITEM($)
);
#43=(
BOUNDED_CURVE()
B_SPLINE_CURVE(2,(#514,#515,#516),.UNSPECIFIED.,.F.,.F.)
B_SPLINE_CURVE_WITH_KNOTS((3,3),(0.,1.03527618041008),.UNSPECIFIED.)
CURVE()
GEOMETRIC_REPRESENTATION_ITEM()
RATIONAL_B_SPLINE_CURVE((1.,1.15470053837924,1.))
REPRESENTATION_ITEM($)
);
#44=(
BOUNDED_CURVE()
B_SPLINE_CURVE(2,(#518,#519,#520),.UNSPECIFIED.,.F.,.F.)
B_SPLINE_CURVE_WITH_KNOTS((3,3),(0.,1.03527618041008),.UNSPECIFIED.)
CURVE()
GEOMETRIC_REPRESENTATION_ITEM()
RATIONAL_B_SPLINE_CURVE((1.,1.15470053837925,1.))
REPRESENTATION_ITEM($)
);
#45=(
BOUNDED_CURVE()
B_SPLINE_CURVE(2,(#522,#523,#524),.UNSPECIFIED.,.F.,.F.)
B_SPLINE_CURVE_WITH_KNOTS((3,3),(0.,1.03527618041008),.UNSPECIFIED.)
CURVE()
GEOMETRIC_REPRESENTATION_ITEM()
RATIONAL_B_SPLINE_CURVE((1.,1.15470053837925,1.))
REPRESENTATION_ITEM($)
);
#46=(
BOUNDED_CURVE()
B_SPLINE_CURVE(2,(#525,#526,#527),.UNSPECIFIED.,.F.,.F.)
B_SPLINE_CURVE_WITH_KNOTS((3,3),(0.,1.03527618041008),.UNSPECIFIED.)
CURVE()
GEOMETRIC_REPRESENTATION_ITEM()
RATIONAL_B_SPLINE_CURVE((1.,1.15470053837925,1.))
REPRESENTATION_ITEM($)
);
#47=(
BOUNDED_CURVE()
B_SPLINE_CURVE(2,(#560,#561,#562),.UNSPECIFIED.,.F.,.F.)
B_SPLINE_CURVE_WITH_KNOTS((3,3),(0.,1.03527618041008),.UNSPECIFIED.)
CURVE()
GEOMETRIC_REPRESENTATION_ITEM()
RATIONAL_B_SPLINE_CURVE((1.,1.15470053837925,1.))
REPRESENTATION_ITEM($)
);
#48=(
BOUNDED_CURVE()
B_SPLINE_CURVE(2,(#574,#575,#576),.UNSPECIFIED.,.F.,.F.)
B_SPLINE_CURVE_WITH_KNOTS((3,3),(0.,1.03527618041008),.UNSPECIFIED.)
CURVE()
GEOMETRIC_REPRESENTATION_ITEM()
RATIONAL_B_SPLINE_CURVE((1.,1.15470053837925,1.))
REPRESENTATION_ITEM($)
);
#49=(
BOUNDED_CURVE()
B_SPLINE_CURVE(2,(#580,#581,#582),.UNSPECIFIED.,.F.,.F.)
B_SPLINE_CURVE_WITH_KNOTS((3,3),(0.,1.03527618041008),.UNSPECIFIED.)
CURVE()
GEOMETRIC_REPRESENTATION_ITEM()
RATIONAL_B_SPLINE_CURVE((1.,1.15470053837925,1.))
REPRESENTATION_ITEM($)
);
#50=(
BOUNDED_CURVE()
B_SPLINE_CURVE(2,(#585,#586,#587),.UNSPECIFIED.,.F.,.F.)
B_SPLINE_CURVE_WITH_KNOTS((3,3),(0.,1.03527618041008),.UNSPECIFIED.)
CURVE()
GEOMETRIC_REPRESENTATION_ITEM()
RATIONAL_B_SPLINE_CURVE((1.,1.15470053837925,1.))
REPRESENTATION_ITEM($)
);
#51=(
BOUNDED_CURVE()
B_SPLINE_CURVE(2,(#592,#593,#594),.UNSPECIFIED.,.F.,.F.)
B_SPLINE_CURVE_WITH_KNOTS((3,3),(0.,1.03527618041008),.UNSPECIFIED.)
CURVE()
GEOMETRIC_REPRESENTATION_ITEM()
RATIONAL_B_SPLINE_CURVE((1.,1.15470053837925,1.))
REPRESENTATION_ITEM($)
);
#52=(
BOUNDED_CURVE()
B_SPLINE_CURVE(2,(#596,#597,#598),.UNSPECIFIED.,.F.,.F.)
B_SPLINE_CURVE_WITH_KNOTS((3,3),(0.,1.03527618041008),.UNSPECIFIED.)
CURVE()
GEOMETRIC_REPRESENTATION_ITEM()
RATIONAL_B_SPLINE_CURVE((1.,1.15470053837925,1.))
REPRESENTATION_ITEM($)
);
#53=CONICAL_SURFACE($,#354,5.,45.);
#54=CONICAL_SURFACE($,#367,8.,45.);
#55=CONICAL_SURFACE($,#377,8.75,45.);
#56=CONICAL_SURFACE($,#379,8.75,45.);
#57=CONICAL_SURFACE($,#381,8.75,45.);
#58=CONICAL_SURFACE($,#383,8.75,45.);
#59=CONICAL_SURFACE($,#385,8.75,45.);
#60=CONICAL_SURFACE($,#387,8.75,45.);
#61=PLANE($,#352);
#62=PLANE($,#356);
#63=PLANE($,#357);
#64=PLANE($,#358);
#65=PLANE($,#359);
#66=PLANE($,#365);
#67=PLANE($,#366);
#68=PLANE($,#369);
#69=PLANE($,#372);
#70=PLANE($,#373);
#71=PLANE($,#374);
#72=PLANE($,#375);
#73=PLANE($,#376);
#74=PLANE($,#391);
#75=FACE_BOUND($,#110,.T.);
#76=FACE_BOUND($,#111,.T.);
#77=FACE_BOUND($,#112,.T.);
#78=FACE_BOUND($,#114,.T.);
#79=FACE_BOUND($,#120,.T.);
#80=FACE_BOUND($,#124,.T.);
#81=FACE_BOUND($,#127,.T.);
#82=FACE_BOUND($,#140,.T.);
#83=FACE_BOUND($,#141,.T.);
#84=FACE_BOUND($,#142,.T.);
#85=FACE_OUTER_BOUND($,#109,.T.);
#86=FACE_OUTER_BOUND($,#113,.T.);
#87=FACE_OUTER_BOUND($,#115,.T.);
#88=FACE_OUTER_BOUND($,#116,.T.);
#89=FACE_OUTER_BOUND($,#117,.T.);
#90=FACE_OUTER_BOUND($,#118,.T.);
#91=FACE_OUTER_BOUND($,#119,.T.);
#92=FACE_OUTER_BOUND($,#121,.T.);
#93=FACE_OUTER_BOUND($,#122,.T.);
#94=FACE_OUTER_BOUND($,#123,.T.);
#95=FACE_OUTER_BOUND($,#125,.T.);
#96=FACE_OUTER_BOUND($,#126,.T.);
#97=FACE_OUTER_BOUND($,#128,.T.);
#98=FACE_OUTER_BOUND($,#129,.T.);
#99=FACE_OUTER_BOUND($,#130,.T.);
#100=FACE_OUTER_BOUND($,#131,.T.);
#101=FACE_OUTER_BOUND($,#132,.T.);
#102=FACE_OUTER_BOUND($,#133,.T.);
#103=FACE_OUTER_BOUND($,#134,.T.);
#104=FACE_OUTER_BOUND($,#135,.T.);
#105=FACE_OUTER_BOUND($,#136,.T.);
#106=FACE_OUTER_BOUND($,#137,.T.);
#107=FACE_OUTER_BOUND($,#138,.T.);
#108=FACE_OUTER_BOUND($,#139,.T.);
#109=EDGE_LOOP($,(#230));
#110=EDGE_LOOP($,(#231));
#111=EDGE_LOOP($,(#232));
#112=EDGE_LOOP($,(#233));
#113=EDGE_LOOP($,(#234,#235,#236,#237,#238,#239));
#114=EDGE_LOOP($,(#240));
#115=EDGE_LOOP($,(#241));
#116=EDGE_LOOP($,(#242,#243,#244,#245));
#117=EDGE_LOOP($,(#246,#247,#248,#249));
#118=EDGE_LOOP($,(#250,#251,#252,#253));
#119=EDGE_LOOP($,(#254));
#120=EDGE_LOOP($,(#255,#256,#257,#258,#259,#260,#261,#262));
#121=EDGE_LOOP($,(#263,#264));
#122=EDGE_LOOP($,(#265,#266,#267,#268));
#123=EDGE_LOOP($,(#269));
#124=EDGE_LOOP($,(#270));
#125=EDGE_LOOP($,(#271,#272));
#126=EDGE_LOOP($,(#273));
#127=EDGE_LOOP($,(#274));
#128=EDGE_LOOP($,(#275,#276,#277,#278));
#129=EDGE_LOOP($,(#279,#280,#281,#282));
#130=EDGE_LOOP($,(#283,#284,#285,#286));
#131=EDGE_LOOP($,(#287,#288,#289,#290));
#132=EDGE_LOOP($,(#291,#292,#293,#294));
#133=EDGE_LOOP($,(#295,#296));
#134=EDGE_LOOP($,(#297,#298));
#135=EDGE_LOOP($,(#299,#300));
#136=EDGE_LOOP($,(#301,#302));
#137=EDGE_LOOP($,(#303,#304));
#138=EDGE_LOOP($,(#305,#306));
#139=EDGE_LOOP($,(#307));
#140=EDGE_LOOP($,(#308,#309,#310,#311,#312,#313));
#141=EDGE_LOOP($,(#314));
#142=EDGE_LOOP($,(#315));
#143=CIRCLE($,#350,5.5);
#144=CIRCLE($,#351,5.5);
#145=CIRCLE($,#353,3.5);
#146=CIRCLE($,#355,0.750000000000004);
#147=CIRCLE($,#360,3.5);
#148=CIRCLE($,#361,3.5);
#149=CIRCLE($,#363,3.5);
#150=CIRCLE($,#364,3.5);
#151=CIRCLE($,#368,13.);
#152=CIRCLE($,#371,13.);
#153=CIRCLE($,#378,10.);
#154=CIRCLE($,#380,10.);
#155=CIRCLE($,#382,10.);
#156=CIRCLE($,#384,10.);
#157=CIRCLE($,#386,10.);
#158=CIRCLE($,#388,10.);
#159=CIRCLE($,#390,10.);
#160=VERTEX_POINT($,#496);
#161=VERTEX_POINT($,#498);
#162=VERTEX_POINT($,#501);
#163=VERTEX_POINT($,#504);
#164=VERTEX_POINT($,#505);
#165=VERTEX_POINT($,#509);
#166=VERTEX_POINT($,#513);
#167=VERTEX_POINT($,#517);
#168=VERTEX_POINT($,#521);
#169=VERTEX_POINT($,#528);
#170=VERTEX_POINT($,#532);
#171=VERTEX_POINT($,#533);
#172=VERTEX_POINT($,#535);
#173=VERTEX_POINT($,#537);
#174=VERTEX_POINT($,#541);
#175=VERTEX_POINT($,#542);
#176=VERTEX_POINT($,#544);
#177=VERTEX_POINT($,#546);
#178=VERTEX_POINT($,#557);
#179=VERTEX_POINT($,#559);
#180=VERTEX_POINT($,#565);
#181=VERTEX_POINT($,#569);
#182=VERTEX_POINT($,#572);
#183=VERTEX_POINT($,#578);
#184=VERTEX_POINT($,#584);
#185=VERTEX_POINT($,#590);
#186=VERTEX_POINT($,#612);
#187=EDGE_CURVE($,#160,#160,#143,.T.);
#188=EDGE_CURVE($,#161,#161,#144,.T.);
#189=EDGE_CURVE($,#162,#162,#145,.T.);
#190=EDGE_CURVE($,#163,#164,#41,.T.);
#191=EDGE_CURVE($,#164,#165,#42,.T.);
#192=EDGE_CURVE($,#165,#166,#43,.T.);
#193=EDGE_CURVE($,#166,#167,#44,.T.);
#194=EDGE_CURVE($,#167,#168,#45,.T.);
#195=EDGE_CURVE($,#168,#163,#46,.T.);
#196=EDGE_CURVE($,#169,#169,#146,.T.);
#197=EDGE_CURVE($,#170,#171,#13,.T.);
#198=EDGE_CURVE($,#172,#170,#14,.T.);
#199=EDGE_CURVE($,#173,#172,#15,.T.);
#200=EDGE_CURVE($,#171,#173,#16,.T.);
#201=EDGE_CURVE($,#174,#175,#17,.T.);
#202=EDGE_CURVE($,#176,#174,#18,.T.);
#203=EDGE_CURVE($,#177,#176,#19,.T.);
#204=EDGE_CURVE($,#175,#177,#20,.T.);
#205=EDGE_CURVE($,#171,#174,#147,.T.);
#206=EDGE_CURVE($,#176,#173,#148,.T.);
#207=EDGE_CURVE($,#177,#175,#149,.T.);
#208=EDGE_CURVE($,#170,#172,#150,.T.);
#209=EDGE_CURVE($,#164,#178,#21,.T.);
#210=EDGE_CURVE($,#179,#178,#47,.T.);
#211=EDGE_CURVE($,#165,#179,#22,.T.);
#212=EDGE_CURVE($,#180,#180,#151,.T.);
#213=EDGE_CURVE($,#181,#181,#152,.T.);
#214=EDGE_CURVE($,#163,#182,#23,.T.);
#215=EDGE_CURVE($,#178,#182,#48,.T.);
#216=EDGE_CURVE($,#168,#183,#24,.T.);
#217=EDGE_CURVE($,#182,#183,#49,.T.);
#218=EDGE_CURVE($,#183,#184,#50,.T.);
#219=EDGE_CURVE($,#167,#184,#25,.T.);
#220=EDGE_CURVE($,#185,#166,#26,.T.);
#221=EDGE_CURVE($,#184,#185,#51,.T.);
#222=EDGE_CURVE($,#185,#179,#52,.T.);
#223=EDGE_CURVE($,#179,#185,#153,.T.);
#224=EDGE_CURVE($,#178,#179,#154,.T.);
#225=EDGE_CURVE($,#182,#178,#155,.T.);
#226=EDGE_CURVE($,#183,#182,#156,.T.);
#227=EDGE_CURVE($,#184,#183,#157,.T.);
#228=EDGE_CURVE($,#185,#184,#158,.T.);
#229=EDGE_CURVE($,#186,#186,#159,.T.);
#230=ORIENTED_EDGE($,*,*,#187,.T.);
#231=ORIENTED_EDGE($,*,*,#188,.F.);
#232=ORIENTED_EDGE($,*,*,#189,.T.);
#233=ORIENTED_EDGE($,*,*,#187,.F.);
#234=ORIENTED_EDGE($,*,*,#190,.T.);
#235=ORIENTED_EDGE($,*,*,#191,.T.);
#236=ORIENTED_EDGE($,*,*,#192,.T.);
#237=ORIENTED_EDGE($,*,*,#193,.T.);
#238=ORIENTED_EDGE($,*,*,#194,.T.);
#239=ORIENTED_EDGE($,*,*,#195,.T.);
#240=ORIENTED_EDGE($,*,*,#196,.T.);
#241=ORIENTED_EDGE($,*,*,#196,.F.);
#242=ORIENTED_EDGE($,*,*,#197,.F.);
#243=ORIENTED_EDGE($,*,*,#198,.F.);
#244=ORIENTED_EDGE($,*,*,#199,.F.);
#245=ORIENTED_EDGE($,*,*,#200,.F.);
#246=ORIENTED_EDGE($,*,*,#201,.F.);
#247=ORIENTED_EDGE($,*,*,#202,.F.);
#248=ORIENTED_EDGE($,*,*,#203,.F.);
#249=ORIENTED_EDGE($,*,*,#204,.F.);
#250=ORIENTED_EDGE($,*,*,#205,.F.);
#251=ORIENTED_EDGE($,*,*,#200,.T.);
#252=ORIENTED_EDGE($,*,*,#206,.F.);
#253=ORIENTED_EDGE($,*,*,#202,.T.);
#254=ORIENTED_EDGE($,*,*,#189,.F.);
#255=ORIENTED_EDGE($,*,*,#197,.T.);
#256=ORIENTED_EDGE($,*,*,#205,.T.);
#257=ORIENTED_EDGE($,*,*,#201,.T.);
#258=ORIENTED_EDGE($,*,*,#207,.F.);
#259=ORIENTED_EDGE($,*,*,#203,.T.);
#260=ORIENTED_EDGE($,*,*,#206,.T.);
#261=ORIENTED_EDGE($,*,*,#199,.T.);
#262=ORIENTED_EDGE($,*,*,#208,.F.);
#263=ORIENTED_EDGE($,*,*,#204,.T.);
#264=ORIENTED_EDGE($,*,*,#207,.T.);
#265=ORIENTED_EDGE($,*,*,#191,.F.);
#266=ORIENTED_EDGE($,*,*,#209,.T.);
#267=ORIENTED_EDGE($,*,*,#210,.F.);
#268=ORIENTED_EDGE($,*,*,#211,.F.);
#269=ORIENTED_EDGE($,*,*,#188,.T.);
#270=ORIENTED_EDGE($,*,*,#212,.T.);
#271=ORIENTED_EDGE($,*,*,#198,.T.);
#272=ORIENTED_EDGE($,*,*,#208,.T.);
#273=ORIENTED_EDGE($,*,*,#213,.F.);
#274=ORIENTED_EDGE($,*,*,#212,.F.);
#275=ORIENTED_EDGE($,*,*,#214,.T.);
#276=ORIENTED_EDGE($,*,*,#215,.F.);
#277=ORIENTED_EDGE($,*,*,#209,.F.);
#278=ORIENTED_EDGE($,*,*,#190,.F.);
#279=ORIENTED_EDGE($,*,*,#216,.T.);
#280=ORIENTED_EDGE($,*,*,#217,.F.);
#281=ORIENTED_EDGE($,*,*,#214,.F.);
#282=ORIENTED_EDGE($,*,*,#195,.F.);
#283=ORIENTED_EDGE($,*,*,#218,.F.);
#284=ORIENTED_EDGE($,*,*,#216,.F.);
#285=ORIENTED_EDGE($,*,*,#194,.F.);
#286=ORIENTED_EDGE($,*,*,#219,.T.);
#287=ORIENTED_EDGE($,*,*,#220,.F.);
#288=ORIENTED_EDGE($,*,*,#221,.F.);
#289=ORIENTED_EDGE($,*,*,#219,.F.);
#290=ORIENTED_EDGE($,*,*,#193,.F.);
#291=ORIENTED_EDGE($,*,*,#211,.T.);
#292=ORIENTED_EDGE($,*,*,#222,.F.);
#293=ORIENTED_EDGE($,*,*,#220,.T.);
#294=ORIENTED_EDGE($,*,*,#192,.F.);
#295=ORIENTED_EDGE($,*,*,#222,.T.);
#296=ORIENTED_EDGE($,*,*,#223,.T.);
#297=ORIENTED_EDGE($,*,*,#210,.T.);
#298=ORIENTED_EDGE($,*,*,#224,.T.);
#299=ORIENTED_EDGE($,*,*,#215,.T.);
#300=ORIENTED_EDGE($,*,*,#225,.T.);
#301=ORIENTED_EDGE($,*,*,#217,.T.);
#302=ORIENTED_EDGE($,*,*,#226,.T.);
#303=ORIENTED_EDGE($,*,*,#218,.T.);
#304=ORIENTED_EDGE($,*,*,#227,.T.);
#305=ORIENTED_EDGE($,*,*,#221,.T.);
#306=ORIENTED_EDGE($,*,*,#228,.T.);
#307=ORIENTED_EDGE($,*,*,#229,.F.);
#308=ORIENTED_EDGE($,*,*,#228,.F.);
#309=ORIENTED_EDGE($,*,*,#223,.F.);
#310=ORIENTED_EDGE($,*,*,#224,.F.);
#311=ORIENTED_EDGE($,*,*,#225,.F.);
#312=ORIENTED_EDGE($,*,*,#226,.F.);
#313=ORIENTED_EDGE($,*,*,#227,.F.);
#314=ORIENTED_EDGE($,*,*,#229,.T.);
#315=ORIENTED_EDGE($,*,*,#213,.T.);
#316=CYLINDRICAL_SURFACE($,#349,5.5);
#317=CYLINDRICAL_SURFACE($,#362,3.5);
#318=CYLINDRICAL_SURFACE($,#370,13.);
#319=CYLINDRICAL_SURFACE($,#389,10.);
#320=ADVANCED_FACE($,(#85,#75),#316,.T.);
#321=ADVANCED_FACE($,(#76,#77),#61,.T.);
#322=ADVANCED_FACE($,(#86,#78),#53,.F.);
#323=ADVANCED_FACE($,(#87),#62,.F.);
#324=ADVANCED_FACE($,(#88),#63,.T.);
#325=ADVANCED_FACE($,(#89),#64,.T.);
#326=ADVANCED_FACE($,(#90),#65,.T.);
#327=ADVANCED_FACE($,(#91,#79),#317,.F.);
#328=ADVANCED_FACE($,(#92),#66,.T.);
#329=ADVANCED_FACE($,(#93),#67,.T.);
#330=ADVANCED_FACE($,(#94,#80),#54,.T.);
#331=ADVANCED_FACE($,(#95),#68,.T.);
#332=ADVANCED_FACE($,(#96,#81),#318,.T.);
#333=ADVANCED_FACE($,(#97),#69,.F.);
#334=ADVANCED_FACE($,(#98),#70,.F.);
#335=ADVANCED_FACE($,(#99),#71,.F.);
#336=ADVANCED_FACE($,(#100),#72,.F.);
#337=ADVANCED_FACE($,(#101),#73,.F.);
#338=ADVANCED_FACE($,(#102),#55,.F.);
#339=ADVANCED_FACE($,(#103),#56,.F.);
#340=ADVANCED_FACE($,(#104),#57,.F.);
#341=ADVANCED_FACE($,(#105),#58,.F.);
#342=ADVANCED_FACE($,(#106),#59,.F.);
#343=ADVANCED_FACE($,(#107),#60,.F.);
#344=ADVANCED_FACE($,(#108,#82),#319,.F.);
#345=ADVANCED_FACE($,(#83,#84),#74,.F.);
#346=CLOSED_SHELL($,(#320,#321,#322,#323,#324,#325,#326,#327,#328,#329,
#330,#331,#332,#333,#334,#335,#336,#337,#338,#339,#340,#341,#342,#343,#344,
#345));
#347=MANIFOLD_SOLID_BREP('Solid1',#346);
#348=AXIS2_PLACEMENT_3D('placement',#494,#392,#393);
#349=AXIS2_PLACEMENT_3D($,#495,#394,#395);
#350=AXIS2_PLACEMENT_3D($,#497,#396,#397);
#351=AXIS2_PLACEMENT_3D($,#499,#398,#399);
#352=AXIS2_PLACEMENT_3D($,#500,#400,#401);
#353=AXIS2_PLACEMENT_3D($,#502,#402,#403);
#354=AXIS2_PLACEMENT_3D($,#503,#404,#405);
#355=AXIS2_PLACEMENT_3D($,#529,#406,#407);
#356=AXIS2_PLACEMENT_3D($,#530,#408,#409);
#357=AXIS2_PLACEMENT_3D($,#531,#410,#411);
#358=AXIS2_PLACEMENT_3D($,#540,#416,#417);
#359=AXIS2_PLACEMENT_3D($,#549,#422,#423);
#360=AXIS2_PLACEMENT_3D($,#550,#424,#425);
#361=AXIS2_PLACEMENT_3D($,#551,#426,#427);
#362=AXIS2_PLACEMENT_3D($,#552,#428,#429);
#363=AXIS2_PLACEMENT_3D($,#553,#430,#431);
#364=AXIS2_PLACEMENT_3D($,#554,#432,#433);
#365=AXIS2_PLACEMENT_3D($,#555,#434,#435);
#366=AXIS2_PLACEMENT_3D($,#556,#436,#437);
#367=AXIS2_PLACEMENT_3D($,#564,#440,#441);
#368=AXIS2_PLACEMENT_3D($,#566,#442,#443);
#369=AXIS2_PLACEMENT_3D($,#567,#444,#445);
#370=AXIS2_PLACEMENT_3D($,#568,#446,#447);
#371=AXIS2_PLACEMENT_3D($,#570,#448,#449);
#372=AXIS2_PLACEMENT_3D($,#571,#450,#451);
#373=AXIS2_PLACEMENT_3D($,#577,#453,#454);
#374=AXIS2_PLACEMENT_3D($,#583,#456,#457);
#375=AXIS2_PLACEMENT_3D($,#589,#459,#460);
#376=AXIS2_PLACEMENT_3D($,#595,#462,#463);
#377=AXIS2_PLACEMENT_3D($,#599,#464,#465);
#378=AXIS2_PLACEMENT_3D($,#600,#466,#467);
#379=AXIS2_PLACEMENT_3D($,#601,#468,#469);
#380=AXIS2_PLACEMENT_3D($,#602,#470,#471);
#381=AXIS2_PLACEMENT_3D($,#603,#472,#473);
#382=AXIS2_PLACEMENT_3D($,#604,#474,#475);
#383=AXIS2_PLACEMENT_3D($,#605,#476,#477);
#384=AXIS2_PLACEMENT_3D($,#606,#478,#479);
#385=AXIS2_PLACEMENT_3D($,#607,#480,#481);
#386=AXIS2_PLACEMENT_3D($,#608,#482,#483);
#387=AXIS2_PLACEMENT_3D($,#609,#484,#485);
#388=AXIS2_PLACEMENT_3D($,#610,#486,#487);
#389=AXIS2_PLACEMENT_3D($,#611,#488,#489);
#390=AXIS2_PLACEMENT_3D($,#613,#490,#491);
#391=AXIS2_PLACEMENT_3D($,#614,#492,#493);
#392=DIRECTION('axis',(0.,0.,1.));
#393=DIRECTION('refdir',(1.,0.,0.));
#394=DIRECTION('center_axis',(0.,-1.,0.));
#395=DIRECTION('ref_axis',(-1.,0.,0.));
#396=DIRECTION('center_axis',(0.,-1.,0.));
#397=DIRECTION('ref_axis',(-1.,0.,0.));
#398=DIRECTION('center_axis',(0.,-1.,0.));
#399=DIRECTION('ref_axis',(-1.,0.,0.));
#400=DIRECTION('center_axis',(0.,1.,0.));
#401=DIRECTION('ref_axis',(0.,0.,1.));
#402=DIRECTION('center_axis',(0.,-1.,0.));
#403=DIRECTION('ref_axis',(-1.,0.,0.));
#404=DIRECTION('center_axis',(0.,-1.,0.));
#405=DIRECTION('ref_axis',(-1.,0.,0.));
#406=DIRECTION('center_axis',(0.,1.,0.));
#407=DIRECTION('ref_axis',(-1.,0.,0.));
#408=DIRECTION('center_axis',(0.,1.,0.));
#409=DIRECTION('ref_axis',(0.,0.,1.));
#410=DIRECTION('center_axis',(1.,0.,1.83872649115617E-016));
#411=DIRECTION('ref_axis',(1.83186799063151E-016,0.,-1.));
#412=DIRECTION($,(0.,1.,0.));
#413=DIRECTION($,(-1.83872649115617E-016,0.,1.));
#414=DIRECTION($,(0.,-1.,0.));
#415=DIRECTION($,(1.83872649115617E-016,0.,-1.));
#416=DIRECTION('center_axis',(-1.,0.,-3.12583503496548E-016));
#417=DIRECTION('ref_axis',(-3.10862446895044E-016,0.,1.));
#418=DIRECTION($,(0.,-1.,0.));
#419=DIRECTION($,(-3.12583503496548E-016,0.,1.));
#420=DIRECTION($,(0.,1.,0.));
#421=DIRECTION($,(3.12583503496548E-016,0.,-1.));
#422=DIRECTION('center_axis',(0.,1.,0.));
#423=DIRECTION('ref_axis',(0.,0.,1.));
#424=DIRECTION('center_axis',(0.,-1.,0.));
#425=DIRECTION('ref_axis',(-1.,0.,0.));
#426=DIRECTION('center_axis',(0.,-1.,0.));
#427=DIRECTION('ref_axis',(-1.,0.,0.));
#428=DIRECTION('center_axis',(0.,1.,0.));
#429=DIRECTION('ref_axis',(-1.,0.,0.));
#430=DIRECTION('center_axis',(0.,1.,0.));
#431=DIRECTION('ref_axis',(-1.,0.,0.));
#432=DIRECTION('center_axis',(0.,1.,0.));
#433=DIRECTION('ref_axis',(-1.,0.,0.));
#434=DIRECTION('center_axis',(0.,1.,0.));
#435=DIRECTION('ref_axis',(0.,0.,1.));
#436=DIRECTION('center_axis',(3.33066907387547E-016,0.,1.));
#437=DIRECTION('ref_axis',(1.,0.,-3.5527136788005E-016));
#438=DIRECTION($,(0.,-1.,0.));
#439=DIRECTION($,(0.,-1.,0.));
#440=DIRECTION('center_axis',(0.,-1.,0.));
#441=DIRECTION('ref_axis',(-1.,0.,0.));
#442=DIRECTION('center_axis',(0.,1.,0.));
#443=DIRECTION('ref_axis',(-1.,0.,0.));
#444=DIRECTION('center_axis',(0.,1.,0.));
#445=DIRECTION('ref_axis',(0.,0.,1.));
#446=DIRECTION('center_axis',(0.,1.,0.));
#447=DIRECTION('ref_axis',(1.,0.,0.));
#448=DIRECTION('center_axis',(0.,-1.,0.));
#449=DIRECTION('ref_axis',(1.,0.,0.));
#450=DIRECTION('center_axis',(-0.866025403784439,0.,-0.5));
#451=DIRECTION('ref_axis',(0.5,0.,-0.866025403784439));
#452=DIRECTION($,(0.,-1.,0.));
#453=DIRECTION('center_axis',(-0.866025403784439,0.,0.5));
#454=DIRECTION('ref_axis',(-0.5,0.,-0.866025403784439));
#455=DIRECTION($,(0.,-1.,0.));
#456=DIRECTION('center_axis',(-1.11022302462516E-016,0.,1.));
#457=DIRECTION('ref_axis',(-1.,0.,-1.77635683940025E-016));
#458=DIRECTION($,(0.,-1.,0.));
#459=DIRECTION('center_axis',(0.866025403784439,0.,0.5));
#460=DIRECTION('ref_axis',(-0.5,0.,0.866025403784439));
#461=DIRECTION($,(0.,1.,0.));
#462=DIRECTION('center_axis',(0.866025403784439,0.,-0.5));
#463=DIRECTION('ref_axis',(0.5,0.,0.866025403784439));
#464=DIRECTION('center_axis',(0.,-1.,0.));
#465=DIRECTION('ref_axis',(-1.,0.,0.));
#466=DIRECTION('center_axis',(0.,-1.,0.));
#467=DIRECTION('ref_axis',(-1.,0.,0.));
#468=DIRECTION('center_axis',(0.,-1.,0.));
#469=DIRECTION('ref_axis',(-1.,0.,0.));
#470=DIRECTION('center_axis',(0.,-1.,0.));
#471=DIRECTION('ref_axis',(-1.,0.,0.));
#472=DIRECTION('center_axis',(0.,-1.,0.));
#473=DIRECTION('ref_axis',(-1.,0.,0.));
#474=DIRECTION('center_axis',(0.,-1.,0.));
#475=DIRECTION('ref_axis',(-1.,0.,0.));
#476=DIRECTION('center_axis',(0.,-1.,0.));
#477=DIRECTION('ref_axis',(-1.,0.,0.));
#478=DIRECTION('center_axis',(0.,-1.,0.));
#479=DIRECTION('ref_axis',(-1.,0.,0.));
#480=DIRECTION('center_axis',(0.,-1.,0.));
#481=DIRECTION('ref_axis',(-1.,0.,0.));
#482=DIRECTION('center_axis',(0.,-1.,0.));
#483=DIRECTION('ref_axis',(-1.,0.,0.));
#484=DIRECTION('center_axis',(0.,-1.,0.));
#485=DIRECTION('ref_axis',(-1.,0.,0.));
#486=DIRECTION('center_axis',(0.,-1.,0.));
#487=DIRECTION('ref_axis',(-1.,0.,0.));
#488=DIRECTION('center_axis',(0.,1.,0.));
#489=DIRECTION('ref_axis',(-1.,0.,0.));
#490=DIRECTION('center_axis',(0.,1.,0.));
#491=DIRECTION('ref_axis',(-1.,0.,0.));
#492=DIRECTION('center_axis',(0.,1.,0.));
#493=DIRECTION('ref_axis',(0.,0.,1.));
#494=CARTESIAN_POINT('',(0.,0.,0.));
#495=CARTESIAN_POINT('Origin',(0.,25.,0.));
#496=CARTESIAN_POINT('',(5.5,25.,-6.73555739531044E-016));
#497=CARTESIAN_POINT('Origin',(0.,25.,0.));
#498=CARTESIAN_POINT('',(5.5,19.5,6.73555739531044E-016));
#499=CARTESIAN_POINT('Origin',(0.,19.5,0.));
#500=CARTESIAN_POINT('Origin',(-2.24345254752611E-016,25.,-8.41078048958452E-017));
#501=CARTESIAN_POINT('',(3.5,25.,-4.28626379701574E-016));
#502=CARTESIAN_POINT('Origin',(0.,25.,0.));
#503=CARTESIAN_POINT('Origin',(0.,17.,0.));
#504=CARTESIAN_POINT('',(-10.,12.,8.52416032955559E-016));
#505=CARTESIAN_POINT('',(-5.,12.,-8.66025403784439));
#506=CARTESIAN_POINT('Ctrl Pts',(-10.,12.,-6.66133814775094E-015));
#507=CARTESIAN_POINT('Ctrl Pts',(-7.5,14.5,-4.33012701892219));
#508=CARTESIAN_POINT('Ctrl Pts',(-5.00000000000001,12.,-8.66025403784438));
#509=CARTESIAN_POINT('',(5.,12.,-8.66025403784439));
#510=CARTESIAN_POINT('Ctrl Pts',(-4.99999999999999,12.,-8.66025403784439));
#511=CARTESIAN_POINT('Ctrl Pts',(-9.42551046587224E-016,14.5,-8.66025403784439));
#512=CARTESIAN_POINT('Ctrl Pts',(4.99999999999999,12.,-8.66025403784439));
#513=CARTESIAN_POINT('',(10.,12.,2.71613242587905E-015));
#514=CARTESIAN_POINT('Ctrl Pts',(5.00000000000001,12.,-8.66025403784437));
#515=CARTESIAN_POINT('Ctrl Pts',(7.50000000000001,14.5,-4.33012701892219));
#516=CARTESIAN_POINT('Ctrl Pts',(10.,12.,-6.66133814775094E-015));
#517=CARTESIAN_POINT('',(5.,12.,8.66025403784439));
#518=CARTESIAN_POINT('Ctrl Pts',(10.,12.,1.60982338570648E-014));
#519=CARTESIAN_POINT('Ctrl Pts',(7.5,14.5,4.3301270189222));
#520=CARTESIAN_POINT('Ctrl Pts',(5.00000000000001,12.,8.66025403784438));
#521=CARTESIAN_POINT('',(-5.,12.,8.66025403784439));
#522=CARTESIAN_POINT('Ctrl Pts',(4.99999999999999,12.,8.66025403784439));
#523=CARTESIAN_POINT('Ctrl Pts',(1.11022302462516E-015,14.5,8.66025403784439));
#524=CARTESIAN_POINT('Ctrl Pts',(-4.99999999999999,12.,8.66025403784439));
#525=CARTESIAN_POINT('Ctrl Pts',(-5.,12.,8.66025403784438));
#526=CARTESIAN_POINT('Ctrl Pts',(-7.5,14.5,4.33012701892219));
#527=CARTESIAN_POINT('Ctrl Pts',(-10.,12.,7.77156117237609E-015));
#528=CARTESIAN_POINT('',(0.750000000000004,21.25,-9.1848509936052E-017));
#529=CARTESIAN_POINT('Origin',(0.,21.25,0.));
#530=CARTESIAN_POINT('Origin',(-1.18032060367666E-016,21.25,-4.62592926927149E-017));
#531=CARTESIAN_POINT('Origin',(0.349999999999999,22.,3.77374989552913));
#532=CARTESIAN_POINT('',(0.35,22.,3.48245602987317));
#533=CARTESIAN_POINT('',(0.35,22.75,3.48245602987317));
#534=CARTESIAN_POINT($,(0.35,22.,3.48245602987317));
#535=CARTESIAN_POINT('',(0.350000000000001,22.,-3.48245602987317));
#536=CARTESIAN_POINT($,(0.35,22.,1.88687494776457));
#537=CARTESIAN_POINT('',(0.350000000000001,22.75,-3.48245602987317));
#538=CARTESIAN_POINT($,(0.350000000000001,22.,-3.48245602987317));
#539=CARTESIAN_POINT($,(0.350000000000001,22.75,-3.77374989552913));
#540=CARTESIAN_POINT('Origin',(-0.349999999999999,22.,-3.77374989552913));
#541=CARTESIAN_POINT('',(-0.350000000000001,22.75,3.48245602987317));
#542=CARTESIAN_POINT('',(-0.350000000000001,22.,3.48245602987317));
#543=CARTESIAN_POINT($,(-0.350000000000001,22.,3.48245602987317));
#544=CARTESIAN_POINT('',(-0.349999999999999,22.75,-3.48245602987317));
#545=CARTESIAN_POINT($,(-0.350000000000001,22.75,3.77374989552913));
#546=CARTESIAN_POINT('',(-0.349999999999999,22.,-3.48245602987317));
#547=CARTESIAN_POINT($,(-0.349999999999999,22.,-3.48245602987317));
#548=CARTESIAN_POINT($,(-0.35,22.,-1.88687494776457));
#549=CARTESIAN_POINT('Origin',(-6.93889390390723E-017,22.75,0.));
#550=CARTESIAN_POINT('Origin',(0.,22.75,0.));
#551=CARTESIAN_POINT('Origin',(0.,22.75,0.));
#552=CARTESIAN_POINT('Origin',(0.,22.,0.));
#553=CARTESIAN_POINT('Origin',(0.,22.,0.));
#554=CARTESIAN_POINT('Origin',(0.,22.,0.));
#555=CARTESIAN_POINT('Origin',(-1.3267006990763E-016,22.,0.));
#556=CARTESIAN_POINT('Origin',(-5.,12.,-8.66025403784439));
#557=CARTESIAN_POINT('',(-5.,3.,-8.66025403784439));
#558=CARTESIAN_POINT($,(-5.,12.,-8.66025403784439));
#559=CARTESIAN_POINT('',(5.,3.,-8.66025403784439));
#560=CARTESIAN_POINT('Ctrl Pts',(5.,3.,-8.66025403784439));
#561=CARTESIAN_POINT('Ctrl Pts',(-2.4980018054066E-015,5.5,-8.66025403784439));
#562=CARTESIAN_POINT('Ctrl Pts',(-5.,3.,-8.66025403784439));
#563=CARTESIAN_POINT($,(5.,12.,-8.66025403784439));
#564=CARTESIAN_POINT('Origin',(0.,17.,0.));
#565=CARTESIAN_POINT('',(13.,12.,-1.59204083889156E-015));
#566=CARTESIAN_POINT('Origin',(0.,12.,0.));
#567=CARTESIAN_POINT('Origin',(-1.3267006990763E-016,22.,0.));
#568=CARTESIAN_POINT('Origin',(0.,0.,0.));
#569=CARTESIAN_POINT('',(-13.,0.,1.59204083889156E-015));
#570=CARTESIAN_POINT('Origin',(0.,0.,0.));
#571=CARTESIAN_POINT('Origin',(-10.,12.,8.52416032955559E-016));
#572=CARTESIAN_POINT('',(-10.,3.,8.52416032955558E-016));
#573=CARTESIAN_POINT($,(-10.,12.,8.52416032955559E-016));
#574=CARTESIAN_POINT('Ctrl Pts',(-5.,3.,-8.66025403784439));
#575=CARTESIAN_POINT('Ctrl Pts',(-7.5,5.5,-4.3301270189222));
#576=CARTESIAN_POINT('Ctrl Pts',(-10.,3.,0.));
#577=CARTESIAN_POINT('Origin',(-5.,12.,8.66025403784439));
#578=CARTESIAN_POINT('',(-5.,3.,8.66025403784439));
#579=CARTESIAN_POINT($,(-5.,12.,8.66025403784439));
#580=CARTESIAN_POINT('Ctrl Pts',(-10.,3.,7.61295788314393E-015));
#581=CARTESIAN_POINT('Ctrl Pts',(-7.5,5.49999999999999,4.3301270189222));
#582=CARTESIAN_POINT('Ctrl Pts',(-5.00000000000001,3.,8.66025403784438));
#583=CARTESIAN_POINT('Origin',(5.,12.,8.66025403784439));
#584=CARTESIAN_POINT('',(5.,3.,8.66025403784439));
#585=CARTESIAN_POINT('Ctrl Pts',(-5.,3.,8.66025403784439));
#586=CARTESIAN_POINT('Ctrl Pts',(-1.11022302462516E-015,5.5,8.66025403784439));
#587=CARTESIAN_POINT('Ctrl Pts',(5.,3.,8.66025403784439));
#588=CARTESIAN_POINT($,(5.,12.,8.66025403784439));
#589=CARTESIAN_POINT('Origin',(10.,12.,2.71613242587905E-015));
#590=CARTESIAN_POINT('',(10.,3.,1.22464679914735E-015));
#591=CARTESIAN_POINT($,(10.,12.,2.71613242587905E-015));
#592=CARTESIAN_POINT('Ctrl Pts',(5.,3.,8.66025403784439));
#593=CARTESIAN_POINT('Ctrl Pts',(7.5,5.5,4.33012701892219));
#594=CARTESIAN_POINT('Ctrl Pts',(10.,3.,3.80647894157197E-015));
#595=CARTESIAN_POINT('Origin',(5.,12.,-8.66025403784439));
#596=CARTESIAN_POINT('Ctrl Pts',(10.,3.,-6.34413156928661E-016));
#597=CARTESIAN_POINT('Ctrl Pts',(7.5,5.5,-4.3301270189222));
#598=CARTESIAN_POINT('Ctrl Pts',(5.,3.,-8.66025403784439));
#599=CARTESIAN_POINT('Origin',(0.,4.25,0.));
#600=CARTESIAN_POINT('Origin',(0.,3.,0.));
#601=CARTESIAN_POINT('Origin',(0.,4.25,0.));
#602=CARTESIAN_POINT('Origin',(0.,3.,0.));
#603=CARTESIAN_POINT('Origin',(0.,4.25,0.));
#604=CARTESIAN_POINT('Origin',(0.,3.,0.));
#605=CARTESIAN_POINT('Origin',(0.,4.25,0.));
#606=CARTESIAN_POINT('Origin',(0.,3.,0.));
#607=CARTESIAN_POINT('Origin',(0.,4.25,0.));
#608=CARTESIAN_POINT('Origin',(0.,3.,0.));
#609=CARTESIAN_POINT('Origin',(0.,4.25,0.));
#610=CARTESIAN_POINT('Origin',(0.,3.,0.));
#611=CARTESIAN_POINT('Origin',(0.,0.,0.));
#612=CARTESIAN_POINT('',(10.,0.,1.22464679914735E-015));
#613=CARTESIAN_POINT('Origin',(0.,0.,0.));
#614=CARTESIAN_POINT('Origin',(1.3267006990763E-016,0.,0.));
#615=UNCERTAINTY_MEASURE_WITH_UNIT(LENGTH_MEASURE(0.01),#617,
'DISTANCE_ACCURACY_VALUE',
'Maximum model space distance between geometric entities at asserted c
onnectivities');
#616=(
GEOMETRIC_REPRESENTATION_CONTEXT(3)
GLOBAL_UNCERTAINTY_ASSIGNED_CONTEXT((#615))
GLOBAL_UNIT_ASSIGNED_CONTEXT((#617,#620,#618))
REPRESENTATION_CONTEXT('','3D')
);
#617=(
LENGTH_UNIT()
NAMED_UNIT(*)
SI_UNIT(.MILLI.,.METRE.)
);
#618=(
NAMED_UNIT(*)
SI_UNIT($,.STERADIAN.)
SOLID_ANGLE_UNIT()
);
#619=DIMENSIONAL_EXPONENTS(0.,0.,0.,0.,0.,0.,0.);
#620=(
CONVERSION_BASED_UNIT('degree',#622)
NAMED_UNIT(#619)
PLANE_ANGLE_UNIT()
);
#621=(
NAMED_UNIT(*)
PLANE_ANGLE_UNIT()
SI_UNIT($,.RADIAN.)
);
#622=PLANE_ANGLE_MEASURE_WITH_UNIT(PLANE_ANGLE_MEASURE(0.01745329252),#621);
#623=SHAPE_DEFINITION_REPRESENTATION(#624,#625);
#624=PRODUCT_DEFINITION_SHAPE('',$,#627);
#625=SHAPE_REPRESENTATION('',(#348),#616);
#626=PRODUCT_DEFINITION_CONTEXT('3D Mechanical Parts',#630,'design');
#627=PRODUCT_DEFINITION('Above3','Above3',#628,#626);
#628=PRODUCT_DEFINITION_FORMATION('',$,#632);
#629=APPLICATION_PROTOCOL_DEFINITION('international standard',
'automotive_design',2009,#630);
#630=APPLICATION_CONTEXT(
'Core Data for Automotive Mechanical Design Process');
#631=PRODUCT_CONTEXT('3D Mechanical Parts',#630,'mechanical');
#632=PRODUCT('Above3','Above3',$,(#631));
#633=PRESENTATION_STYLE_ASSIGNMENT((#634));
#634=SURFACE_STYLE_USAGE(.BOTH.,#635);
#635=SURFACE_SIDE_STYLE($,(#636));
#636=SURFACE_STYLE_FILL_AREA(#637);
#637=FILL_AREA_STYLE($,(#638));
#638=FILL_AREA_STYLE_COLOUR($,#639);
#639=COLOUR_RGB('',0.749019607843137,0.749019607843137,0.749019607843137);
ENDSEC;
END-ISO-10303-21;
