 0
SECTION
 2
ENTITIES
  0
LINE
 8
Layer0
10
-1.11022302462516e-015
20
4.26258428111381
30
-1.05951899540464e-016
11
6.20037995051465
21
4.26258428111381
31
-1.69580692382804e-016
  0
LINE
 8
Layer0
10
6.20037995051465
20
4.26258428111381
30
-1.69580692382804e-016
11
10.1386922230653
21
3.09092582628907
31
-1.80872920377244e-016
  0
LINE
 8
Layer0
10
10.1386922230653
20
3.09092582628907
30
-1.80872920377244e-016
11
10.3798731779628
21
2.99102540378444
31
-1.25353636521502e-016
  0
LINE
 8
Layer0
10
10.3798731779628
20
2.99102540378444
30
-1.25353636521502e-016
11
10.5869799591493
21
2.83210678118655
31
-1.79040011567941e-016
  0
LINE
 8
Layer0
10
10.5869799591493
20
2.83210678118655
30
-1.79040011567941e-016
11
10.7458985817472
21
2.625
31
-1.75522947304198e-016
  0
LINE
 8
Layer0
10
10.7458985817472
20
2.625
30
-1.75522947304198e-016
11
10.8457990042519
21
2.38381904510252
31
5.14913278461492e-017
  0
LINE
 8
Layer0
10
10.8457990042519
20
2.38381904510252
30
5.14913278461492e-017
11
10.8798731779628
21
2.13129214055691
31
-1.64626074781371e-016
  0
LINE
 8
Layer0
10
10.8798731779628
20
2.13129214055691
30
-1.64626074781371e-016
11
10.8798731779628
21
2.125
31
-1.64469675705079e-016
  0
LINE
 8
Layer0
10
10.8798731779628
20
2.125
30
-1.64469675705079e-016
11
10.8457990042519
21
1.86618095489748
31
-1.0217557933153e-016
  0
LINE
 8
Layer0
10
10.8457990042519
20
1.86618095489748
30
-1.0217557933153e-016
11
10.7458985817472
21
1.625
31
-1.50666688154109e-016
  0
LINE
 8
Layer0
10
10.7458985817472
20
1.625
30
-1.50666688154109e-016
11
10.5869799591493
21
1.41789321881345
31
-8.83768015367659e-017
  0
LINE
 8
Layer0
10
10.5869799591493
20
1.41789321881345
30
-8.83768015367659e-017
11
10.3798731779628
21
1.25897459621556
31
-1.37812484018705e-016
  0
LINE
 8
Layer0
10
10.3798731779628
20
1.25897459621556
30
-1.37812484018705e-016
11
10.1386922230653
21
1.15907417371093
31
-1.32854315061233e-016
  0
LINE
 8
Layer0
10
6.20037995051465
20
1.77635683940025e-015
30
-1.74651095304855e-016
11
10.1386922230653
21
1.15907417371093
31
-1.32854315061233e-016
  0
LINE
 8
Layer0
10
6.20037995051465
20
1.77635683940025e-015
30
-1.74651095304855e-016
11
0.0
21
0.0
31
0.0
  0
LINE
 8
Layer0
10
-1.11022302462516e-015
20
4.26258428111381
30
-1.05951899540464e-016
11
0.0
21
0.0
31
0.0
  0
LINE
 8
Layer0
10
6.57537995051465
20
3.63477735373043
30
-4.68017381015349e-017
11
6.57537995051465
21
2.3812921405569
31
-7.1155936033346e-017
  0
LINE
 8
Layer0
10
6.57537995051465
20
2.3812921405569
30
-7.1155936033346e-017
11
9.32848164267741
21
2.3812921405569
31
-9.94084848517419e-017
  0
LINE
 8
Layer0
10
9.32848164267741
20
2.3812921405569
30
-9.94084848517419e-017
11
9.32848164267741
21
2.81572222265377
31
-1.10206791554936e-016
  0
LINE
 8
Layer0
10
9.32848164267741
20
2.81572222265377
30
-1.10206791554936e-016
11
6.57537995051465
21
3.63477735373043
31
-4.68017381015349e-017
  0
LINE
 8
Layer0
10
9.87987317796279
20
2.0
30
-1.51100563672625e-016
11
9.84752079732497
21
2.00425927171387
31
-1.50874430527529e-016
  0
LINE
 8
Layer0
10
9.9122255586006
20
2.00425927171387
30
-1.51538435940742e-016
11
9.87987317796279
21
2.0
31
-1.51100563672625e-016
  0
LINE
 8
Layer0
10
9.94237317796279
20
2.01674682452695
30
-1.52158207060426e-016
11
9.9122255586006
21
2.00425927171387
31
-1.51538435940742e-016
  0
LINE
 8
Layer0
10
9.9682615256111
20
2.03661165235168
30
6.91269642709406e-017
11
9.94237317796279
21
2.01674682452695
31
-1.52158207060426e-016
  0
LINE
 8
Layer0
10
9.98812635343584
20
2.0625
30
6.827962234768e-017
11
9.9682615256111
21
2.03661165235168
31
6.91269642709406e-017
  0
LINE
 8
Layer0
10
10.0006139062489
20
2.09264761936218
30
-1.54642487878436e-016
11
9.98812635343584
21
2.0625
31
6.827962234768e-017
  0
LINE
 8
Layer0
10
10.0048731779628
20
2.125
30
-9.99792047899648e-017
11
10.0006139062489
21
2.09264761936218
31
-1.54642487878436e-016
  0
LINE
 8
Layer0
10
10.0040448019433
20
2.13129214055691
30
-1.00127103005573e-016
11
10.0048731779628
21
2.125
31
-9.99792047899648e-017
  0
LINE
 8
Layer0
10
10.0006139062489
20
2.15735238063781
30
-1.56250806192948e-016
11
10.0040448019433
21
2.13129214055691
31
-1.00127103005573e-016
  0
LINE
 8
Layer0
10
9.98812635343584
20
2.1875
30
6.51725899539189e-017
11
10.0006139062489
21
2.15735238063781
31
-1.56250806192948e-016
  0
LINE
 8
Layer0
10
9.96826152561111
20
2.21338834764832
30
6.47329569209511e-017
11
9.98812635343584
21
2.1875
31
6.51725899539189e-017
  0
LINE
 8
Layer0
10
9.94237317796279
20
2.23325317547305
30
-1.57539745027183e-016
11
9.96826152561111
21
2.21338834764832
31
6.47329569209511e-017
  0
LINE
 8
Layer0
10
9.9122255586006
20
2.24574072828613
30
-1.02029610373985e-016
11
9.94237317796279
21
2.23325317547305
31
-1.57539745027183e-016
  0
LINE
 8
Layer0
10
9.87987317796279
20
2.25
30
-1.01803477228889e-016
11
9.9122255586006
21
2.24574072828613
31
-1.02029610373985e-016
  0
LINE
 8
Layer0
10
9.84752079732497
20
2.24574072828613
30
-1.01365604960772e-016
11
9.87987317796279
21
2.25
31
-1.01803477228889e-016
  0
LINE
 8
Layer0
10
9.81737317796279
20
2.23325317547306
30
-1.56256985072346e-016
11
9.84752079732497
21
2.24574072828613
31
-1.01365604960772e-016
  0
LINE
 8
Layer0
10
9.79148483031447
20
2.21338834764832
30
-1.55497551478681e-016
11
9.81737317796279
21
2.23325317547306
31
-1.56256985072346e-016
  0
LINE
 8
Layer0
10
9.77162000248973
20
2.1875
30
6.73943953696107e-017
11
9.79148483031447
21
2.21338834764832
31
-1.55497551478681e-016
  0
LINE
 8
Layer0
10
9.75913244967665
20
2.15735238063782
30
-1.53772704254336e-016
11
9.77162000248973
21
2.1875
31
6.73943953696107e-017
  0
LINE
 8
Layer0
10
9.75570155398228
20
2.13129214055691
30
-9.75785848172655e-017
11
9.75913244967665
21
2.15735238063782
31
-1.53772704254336e-016
  0
LINE
 8
Layer0
10
9.75487317796279
20
2.125
30
-9.74136848802915e-017
11
9.75570155398228
21
2.13129214055691
31
-9.75785848172655e-017
  0
LINE
 8
Layer0
10
9.75913244967666
20
2.09264761936218
30
-1.52164385939824e-016
11
9.75487317796279
21
2.125
31
-9.74136848802915e-017
  0
LINE
 8
Layer0
10
9.77162000248974
20
2.0625
30
-1.51543177161659e-016
11
9.75913244967666
21
2.09264761936218
31
-1.52164385939824e-016
  0
LINE
 8
Layer0
10
9.79148483031446
20
2.03661165235168
30
7.09410607963397e-017
11
9.77162000248974
21
2.0625
31
-1.51543177161659e-016
  0
LINE
 8
Layer0
10
9.81737317796279
20
2.01674682452695
30
-1.50875447105589e-016
11
9.79148483031446
21
2.03661165235168
31
7.09410607963397e-017
  0
LINE
 8
Layer0
10
9.84752079732497
20
2.00425927171387
30
-1.50874430527529e-016
11
9.81737317796279
21
2.01674682452695
31
-1.50875447105589e-016
  0
LINE
 8
Layer0
10
9.32848164267742
20
1.88129214055691
30
7.95530984170765e-017
11
6.57537995051465
21
1.8812921405569
31
1.07805647235472e-016
  0
LINE
 8
Layer0
10
6.57537995051465
20
1.8812921405569
30
1.07805647235472e-016
11
6.57537995051465
21
0.626268674828872
31
-2.75326179547212e-017
  0
LINE
 8
Layer0
10
9.32848164267742
20
1.43652668591315
30
9.06083038187091e-017
11
6.57537995051465
21
0.626268674828872
31
-2.75326179547212e-017
  0
LINE
 8
Layer0
10
9.32848164267742
20
1.43652668591315
30
9.06083038187091e-017
11
9.32848164267742
21
1.88129214055691
31
7.95530984170765e-017
  0
LINE
 8
Layer0
10
3.10521530658984
20
2.13129214055691
30
-8.48419165417469e-017
11
4.8030422181468
21
1.46937034526786
31
-3.03011006088061e-017
  0
LINE
 8
Layer0
10
4.8030422181468
20
1.46937034526786
30
-3.03011006088061e-017
11
4.8030422181468
21
2.79321393584595
31
1.03326553723373e-016
  0
LINE
 8
Layer0
10
4.8030422181468
20
2.79321393584595
30
1.03326553723373e-016
11
3.10521530658984
21
2.13129214055691
31
-8.48419165417469e-017
  0
LINE
 8
Layer0
10
0.374999999999999
20
0.418412367778931
30
-1.42484461096258e-017
11
3.18340008395021
21
1.00752522599571
31
1.64332991624109e-016
  0
LINE
 8
Layer0
10
3.18340008395021
20
1.00752522599571
30
1.64332991624109e-016
11
0.374999999999998
21
1.00752522599571
31
-2.88915879821122e-017
  0
LINE
 8
Layer0
10
0.374999999999998
20
1.00752522599571
30
-2.88915879821122e-017
11
0.374999999999999
21
0.418412367778931
31
-1.42484461096258e-017
  0
LINE
 8
Layer0
10
1.18463099123226
20
1.38252522599571
30
-4.65211828733756e-017
11
3.99341122691453
21
1.38252522599571
31
-7.5345109339535e-017
  0
LINE
 8
Layer0
10
3.99341122691453
20
1.38252522599571
30
-7.5345109339535e-017
11
2.58902110907339
21
1.93004654384025
31
-1.90313266417402e-017
  0
LINE
 8
Layer0
10
2.58902110907339
20
1.93004654384025
30
-1.90313266417402e-017
11
1.18463099123226
21
1.38252522599571
31
-4.65211828733756e-017
  0
LINE
 8
Layer0
10
1.18463099123226
20
2.88005905511811
30
-2.82331205848105e-017
11
2.5890211090734
21
2.33253773727356
31
-8.45469032826053e-017
  0
LINE
 8
Layer0
10
2.5890211090734
20
2.33253773727356
30
-8.45469032826053e-017
11
3.99341122691454
21
2.88005905511811
31
-1.12568198282228e-016
  0
LINE
 8
Layer0
10
3.99341122691454
20
2.88005905511811
30
-1.12568198282228e-016
11
1.18463099123226
21
2.88005905511811
31
-2.82331205848105e-017
  0
LINE
 8
Layer0
10
0.374999999999999
20
3.25505905511811
30
-2.92457200561145e-017
11
3.18340008395019
21
3.25505905511811
31
-1.13576896606182e-016
  0
LINE
 8
Layer0
10
3.18340008395019
20
3.25505905511811
30
-1.13576896606182e-016
11
0.374999999999999
21
3.84417191333488
31
-4.38888619286007e-017
  0
LINE
 8
Layer0
10
0.374999999999999
20
3.84417191333488
30
-4.38888619286007e-017
11
0.374999999999999
21
3.25505905511811
31
-2.92457200561145e-017
  0
LINE
 8
Layer0
10
0.374999999999999
20
1.46937034526786
30
1.81673274971086e-016
11
2.07282691155695
21
2.13129214055691
31
1.47797140311175e-016
  0
LINE
 8
Layer0
10
2.07282691155695
20
2.13129214055691
30
1.47797140311175e-016
11
0.374999999999999
21
2.79321393584595
31
-7.32771293155394e-017
  0
LINE
 8
Layer0
10
0.374999999999999
20
2.79321393584595
30
-7.32771293155394e-017
11
0.374999999999999
21
1.46937034526786
31
1.81673274971086e-016
  0
LINE
 8
Layer0
10
6.31487744385396
20
1.0075252259957
30
-1.64415931783024e-015
11
6.31487744385396
21
0.375
31
2.58942034968845e-016
  0
LINE
 8
Layer0
10
5.14486891207162
20
1.00752522599571
30
-7.7840362623919e-017
11
6.31487744385396
21
1.0075252259957
31
-1.64415931783024e-015
  0
LINE
 8
Layer0
10
5.14486891207162
20
0.375
30
2.70948755699946e-016
11
5.14486891207162
21
1.00752522599571
31
-7.7840362623919e-017
  0
LINE
 8
Layer0
10
5.14486891207162
20
0.375
30
2.70948755699946e-016
11
6.31487744385396
21
0.375
31
2.58942034968845e-016
  0
LINE
 8
Layer0
10
1.99464213419659
20
0.374999999999999
30
-1.40812576075618e-016
11
4.80304221814679
21
0.375
31
3.8547891091815e-016
  0
LINE
 8
Layer0
10
4.80304221814679
20
0.375
30
3.8547891091815e-016
11
4.80304221814679
21
0.964112858216772
31
1.48791164120632e-016
  0
LINE
 8
Layer0
10
4.80304221814679
20
0.964112858216772
30
1.48791164120632e-016
11
1.99464213419659
21
0.374999999999999
31
-1.40812576075618e-016
  0
LINE
 8
Layer0
10
4.8030422181468
20
3.29847142289704
30
-1.31276862237323e-016
11
4.80304221814679
21
3.88758428111381
31
-1.4592000410981e-016
  0
LINE
 8
Layer0
10
4.80304221814679
20
3.88758428111381
30
-1.4592000410981e-016
11
1.9946421341966
21
3.88758428111381
31
-6.15888275597417e-017
  0
LINE
 8
Layer0
10
1.9946421341966
20
3.88758428111381
30
-6.15888275597417e-017
11
4.8030422181468
21
3.29847142289704
31
-1.31276862237323e-016
  0
LINE
 8
Layer0
10
6.31487744385396
20
2.8800590551181
30
-2.52337077242308e-015
11
6.31487744385396
21
1.3825252259957
31
-2.09756962486159e-015
  0
LINE
 8
Layer0
10
5.14486891207162
20
2.88005905511811
30
-1.24384548747895e-016
11
6.31487744385396
21
2.8800590551181
31
-2.52337077242308e-015
  0
LINE
 8
Layer0
10
5.14486891207162
20
1.38252522599571
30
1.34883145119829e-016
11
5.14486891207162
21
2.88005905511811
31
-1.24384548747895e-016
  0
LINE
 8
Layer0
10
5.14486891207162
20
1.38252522599571
30
1.34883145119829e-016
11
6.31487744385396
21
1.3825252259957
31
-2.09756962486159e-015
  0
LINE
 8
Layer0
10
5.14486891207162
20
3.24687708945242
30
8.85423320547957e-017
11
6.31487744385396
21
3.24687708945241
31
-2.53248849654542e-015
  0
LINE
 8
Layer0
10
6.31487744385396
20
3.88758428111381
30
-5.0412275134083e-017
11
6.31487744385396
21
3.24687708945241
31
-2.53248849654542e-015
  0
LINE
 8
Layer0
10
5.14486891207162
20
3.88758428111381
30
-1.49427856865498e-016
11
6.31487744385396
21
3.88758428111381
31
-5.0412275134083e-017
  0
LINE
 8
Layer0
10
5.14486891207162
20
3.24687708945242
30
8.85423320547957e-017
11
5.14486891207162
21
3.88758428111381
31
-1.49427856865498e-016
  0
LINE
 8
Layer0
10
0.269144421677288
20
0.2225
30
-8.29249915045743e-018
11
0.258020118095437
21
0.236997474683056
31
-8.53869364891938e-018
  0
LINE
 8
Layer0
10
0.258020118095437
20
0.236997474683056
30
-8.53869364891938e-018
11
0.24352264341238
21
0.248121778264907
31
-8.66642798185667e-018
  0
LINE
 8
Layer0
10
0.24352264341238
20
0.248121778264907
30
-8.66642798185667e-018
11
0.226639976569554
21
0.255114807840233
31
-8.66699726557058e-018
  0
LINE
 8
Layer0
10
0.226639976569554
20
0.255114807840233
30
-8.66699726557058e-018
11
0.208522643412379
21
0.257499999999998
31
-8.54036270431679e-018
  0
LINE
 8
Layer0
10
0.208522643412379
20
0.257499999999998
30
-8.54036270431679e-018
11
0.190405310255201
21
0.255114807840233
31
-8.29515423417121e-018
  0
LINE
 8
Layer0
10
0.190405310255201
20
0.255114807840233
30
-8.29515423417121e-018
11
0.17352264341238
21
0.248121778264909
31
-7.94808240714815e-018
  0
LINE
 8
Layer0
10
0.17352264341238
20
0.248121778264909
30
-7.94808240714815e-018
11
0.159025168729321
21
0.236997474683057
31
-7.52279959469589e-018
  0
LINE
 8
Layer0
10
0.159025168729321
20
0.236997474683057
30
-7.52279959469589e-018
11
0.147900865147466
21
0.222499999999998
31
-7.04828811766993e-018
  0
LINE
 8
Layer0
10
0.147900865147466
20
0.222499999999998
30
-7.04828811766993e-018
11
0.140907835572143
21
0.205617333157174
31
-6.55688514906235e-018
  0
LINE
 8
Layer0
10
0.140907835572143
20
0.205617333157174
30
-6.55688514906235e-018
11
0.138522643412379
21
0.187499999999998
31
2.15962525935929e-016
  0
LINE
 8
Layer0
10
0.138522643412379
20
0.187499999999998
30
2.15962525935929e-016
11
0.140907835572143
21
0.169382666842821
31
2.16388378032096e-016
  0
LINE
 8
Layer0
10
0.140907835572143
20
0.169382666842821
30
2.16388378032096e-016
11
0.147900865147465
21
0.152499999999999
31
2.16736254947868e-016
  0
LINE
 8
Layer0
10
0.147900865147465
20
0.152499999999999
30
2.16736254947868e-016
11
0.159025168729322
21
0.138002525316937
31
-5.0621554787016e-018
  0
LINE
 8
Layer0
10
0.159025168729322
20
0.138002525316937
30
-5.0621554787016e-018
11
0.173522643412379
21
0.126878221735088
31
-4.93442114576434e-018
  0
LINE
 8
Layer0
10
0.173522643412379
20
0.126878221735088
30
-4.93442114576434e-018
11
0.190405310255201
21
0.119885192159763
31
5.05772993692074e-017
  0
LINE
 8
Layer0
10
0.190405310255201
20
0.119885192159763
30
5.05772993692074e-017
11
0.20852264341238
21
0.1175
31
5.04506648079536e-017
  0
LINE
 8
Layer0
10
0.20852264341238
20
0.1175
30
5.04506648079536e-017
11
0.226639976569553
21
0.119885192159764
31
5.0205456337808e-017
  0
LINE
 8
Layer0
10
0.226639976569553
20
0.119885192159764
30
5.0205456337808e-017
11
0.243522643412379
21
0.126878221735089
31
-5.65276672047291e-018
  0
LINE
 8
Layer0
10
0.243522643412379
20
0.126878221735089
30
-5.65276672047291e-018
11
0.258020118095437
21
0.138002525316939
31
-6.07804953292516e-018
  0
LINE
 8
Layer0
10
0.258020118095437
20
0.138002525316939
30
-6.07804953292516e-018
11
0.269144421677288
21
0.152499999999999
31
-6.55256100995109e-018
  0
LINE
 8
Layer0
10
0.269144421677288
20
0.152499999999999
30
-6.55256100995109e-018
11
0.276137451252611
21
0.16938266684282
31
2.15000640946473e-016
  0
LINE
 8
Layer0
10
0.276137451252611
20
0.16938266684282
30
2.15000640946473e-016
11
0.278522643412378
21
0.187499999999997
31
2.14525834786512e-016
  0
LINE
 8
Layer0
10
0.278522643412378
20
0.187499999999997
30
2.14525834786512e-016
11
0.276137451252612
21
0.205617333157175
31
-7.94462223468524e-018
  0
LINE
 8
Layer0
10
0.276137451252612
20
0.205617333157175
30
-7.94462223468524e-018
11
0.269144421677288
21
0.2225
31
-8.29249915045743e-018
  0
LINE
 8
Layer0
10
1.26914442167729
20
0.2225
30
2.0349002613588e-016
11
1.25802011809544
21
0.236997474683056
31
2.03243831637419e-016
  0
LINE
 8
Layer0
10
1.25802011809544
20
0.236997474683056
30
2.03243831637419e-016
11
1.24352264341238
21
0.24812177826491
31
-1.89285076205501e-017
  0
LINE
 8
Layer0
10
1.24352264341238
20
0.24812177826491
30
-1.89285076205501e-017
11
1.22663997656955
21
0.255114807840233
31
-1.8929076904264e-017
  0
LINE
 8
Layer0
10
1.22663997656955
20
0.255114807840233
30
-1.8929076904264e-017
11
1.20852264341238
21
0.257499999999998
31
-1.88024423430102e-017
  0
LINE
 8
Layer0
10
1.20852264341238
20
0.257499999999998
30
-1.88024423430102e-017
11
1.1904053102552
21
0.255114807840234
31
-1.85572338728646e-017
  0
LINE
 8
Layer0
10
1.1904053102552
20
0.255114807840234
30
-1.85572338728646e-017
11
1.17352264341238
21
0.24812177826491
31
-1.82101620458415e-017
  0
LINE
 8
Layer0
10
1.17352264341238
20
0.24812177826491
30
-1.82101620458415e-017
11
1.15902516872932
21
0.236997474683056
31
2.04259725691642e-016
  0
LINE
 8
Layer0
10
1.15902516872932
20
0.236997474683056
30
2.04259725691642e-016
11
1.14790086514746
21
0.222500000000002
31
2.04734237168668e-016
  0
LINE
 8
Layer0
10
1.14790086514746
20
0.222500000000002
30
2.04734237168668e-016
11
1.14090783557214
21
0.205617333157173
31
2.05225640137276e-016
  0
LINE
 8
Layer0
10
1.14090783557214
20
0.205617333157173
30
2.05225640137276e-016
11
1.13852264341238
21
0.187499999999998
31
-1.63441586277954e-017
  0
LINE
 8
Layer0
10
1.13852264341238
20
0.187499999999998
30
-1.63441586277954e-017
11
1.14090783557214
21
0.169382666842822
31
-1.59183065316292e-017
  0
LINE
 8
Layer0
10
1.14090783557214
20
0.169382666842822
30
-1.59183065316292e-017
11
1.14790086514746
21
0.152499999999999
31
3.99407216154008e-017
  0
LINE
 8
Layer0
10
1.14790086514746
20
0.152499999999999
30
3.99407216154008e-017
11
1.15902516872932
21
0.138002525316936
31
4.01869161138629e-017
  0
LINE
 8
Layer0
10
1.15902516872932
20
0.138002525316936
30
4.01869161138629e-017
11
1.17352264341238
21
0.126878221735089
31
4.03146504468001e-017
  0
LINE
 8
Layer0
10
1.17352264341238
20
0.126878221735089
30
4.03146504468001e-017
11
1.1904053102552
21
0.119885192159761
31
-1.51959315007438e-017
  0
LINE
 8
Layer0
10
1.1904053102552
20
0.119885192159761
30
-1.51959315007438e-017
11
1.20852264341238
21
0.117499999999999
31
-1.53225660619976e-017
  0
LINE
 8
Layer0
10
1.20852264341238
20
0.117499999999999
30
-1.53225660619976e-017
11
1.22663997656955
21
0.119885192159762
31
-1.55677745321432e-017
  0
LINE
 8
Layer0
10
1.22663997656955
20
0.119885192159762
30
-1.55677745321432e-017
11
1.24352264341238
21
0.126878221735088
31
-1.59148463591663e-017
  0
LINE
 8
Layer0
10
1.24352264341238
20
0.126878221735088
30
-1.59148463591663e-017
11
1.25802011809544
21
0.13800252531694
31
3.91710220596393e-017
  0
LINE
 8
Layer0
10
1.25802011809544
20
0.13800252531694
30
3.91710220596393e-017
11
1.26914442167729
21
0.152499999999998
31
3.86965105826133e-017
  0
LINE
 8
Layer0
10
1.26914442167729
20
0.152499999999998
30
3.86965105826133e-017
11
1.27613745125261
21
0.16938266684282
31
3.82051076140058e-017
  0
LINE
 8
Layer0
10
1.27613745125261
20
0.16938266684282
30
3.82051076140058e-017
11
1.27852264341238
21
0.187499999999996
31
-1.77808497772124e-017
  0
LINE
 8
Layer0
10
1.27852264341238
20
0.187499999999996
30
-1.77808497772124e-017
11
1.27613745125261
21
0.205617333157173
31
2.03837903051653e-016
  0
LINE
 8
Layer0
10
1.27613745125261
20
0.205617333157173
30
2.03837903051653e-016
11
1.26914442167729
21
0.2225
31
2.0349002613588e-016
  0
LINE
 8
Layer0
10
2.14790086514746
20
0.222499999999999
30
-2.75724473950567e-017
11
2.15902516872932
21
0.236997474683056
31
-2.80469588720827e-017
  0
LINE
 8
Layer0
10
2.14090783557214
20
0.205617333157172
30
2.84301068048087e-017
11
2.14790086514746
21
0.222499999999999
31
-2.75724473950567e-017
  0
LINE
 8
Layer0
10
2.13852264341238
20
0.187499999999997
30
2.89049129647691e-017
11
2.14090783557214
21
0.205617333157172
31
2.84301068048087e-017
  0
LINE
 8
Layer0
10
2.14090783557214
20
0.16938266684282
30
-2.61803861703225e-017
11
2.13852264341238
21
0.187499999999997
31
2.89049129647691e-017
  0
LINE
 8
Layer0
10
2.14790086514747
20
0.152499999999997
30
-2.58325092545504e-017
11
2.14090783557214
21
0.16938266684282
31
-2.61803861703225e-017
  0
LINE
 8
Layer0
10
2.15902516872932
20
0.13800252531694
30
1.96458290168943e-016
11
2.14790086514747
21
0.152499999999997
31
-2.58325092545504e-017
  0
LINE
 8
Layer0
10
2.17352264341238
20
0.12687822173509
30
1.9658602450188e-016
11
2.15902516872932
21
0.13800252531694
31
1.96458290168943e-016
  0
LINE
 8
Layer0
10
2.1904053102552
20
0.119885192159763
30
1.96586593785594e-016
11
2.17352264341238
21
0.12687822173509
31
1.9658602450188e-016
  0
LINE
 8
Layer0
10
2.20852264341238
20
0.117499999999999
30
1.9645995922434e-016
11
2.1904053102552
21
0.119885192159763
31
1.96586593785594e-016
  0
LINE
 8
Layer0
10
2.22663997656955
20
0.11988519215976
30
1.96214750754195e-016
11
2.20852264341238
21
0.117499999999999
31
1.9645995922434e-016
  0
LINE
 8
Layer0
10
2.24352264341238
20
0.126878221735087
30
1.95867678927172e-016
11
2.22663997656955
21
0.11988519215976
31
1.96214750754195e-016
  0
LINE
 8
Layer0
10
2.25802011809544
20
0.13800252531694
30
1.95442396114719e-016
11
2.24352264341238
21
0.126878221735087
31
1.95867678927172e-016
  0
LINE
 8
Layer0
10
2.26914442167729
20
0.152500000000001
30
-2.70767202873379e-017
11
2.25802011809544
21
0.13800252531694
31
1.95442396114719e-016
  0
LINE
 8
Layer0
10
2.27613745125261
20
0.169382666842822
30
-2.75681232559454e-017
11
2.26914442167729
21
0.152500000000001
31
-2.70767202873379e-017
  0
LINE
 8
Layer0
10
2.27852264341238
20
0.187499999999996
30
2.7468221815352e-017
11
2.27613745125261
21
0.169382666842822
31
-2.75681232559454e-017
  0
LINE
 8
Layer0
10
2.27613745125261
20
0.205617333157175
30
2.70423697191858e-017
11
2.27852264341238
21
0.187499999999996
31
2.7468221815352e-017
  0
LINE
 8
Layer0
10
2.26914442167729
20
0.222500000000002
30
-2.88166584278442e-017
11
2.27613745125261
21
0.205617333157175
31
2.70423697191858e-017
  0
LINE
 8
Layer0
10
2.25802011809544
20
0.236997474683057
30
-2.90628529263062e-017
11
2.26914442167729
21
0.222500000000002
31
-2.88166584278442e-017
  0
LINE
 8
Layer0
10
2.24352264341238
20
0.24812177826491
30
1.92854017665788e-016
11
2.25802011809544
21
0.236997474683057
31
-2.90628529263062e-017
  0
LINE
 8
Layer0
10
2.22663997656955
20
0.255114807840232
30
1.92853448382074e-016
11
2.24352264341238
21
0.24812177826491
31
1.92854017665788e-016
  0
LINE
 8
Layer0
10
2.20852264341238
20
0.257499999999996
30
1.92980082943328e-016
11
2.22663997656955
21
0.255114807840232
31
1.92853448382074e-016
  0
LINE
 8
Layer0
10
2.1904053102552
20
0.255114807840232
30
1.93225291413473e-016
11
2.20852264341238
21
0.257499999999996
31
1.92980082943328e-016
  0
LINE
 8
Layer0
10
2.17352264341238
20
0.248121778264911
30
1.93572363240496e-016
11
2.1904053102552
21
0.255114807840232
31
1.93225291413473e-016
  0
LINE
 8
Layer0
10
2.15902516872932
20
0.236997474683056
30
-2.80469588720827e-017
11
2.17352264341238
21
0.248121778264911
31
1.93572363240496e-016
  0
LINE
 8
Layer0
10
3.26914442167729
20
0.222499999999998
30
1.64324131647202e-017
11
3.25802011809543
21
0.236997474683058
31
1.61862186662583e-017
  0
LINE
 8
Layer0
10
3.25802011809543
20
0.236997474683058
30
1.61862186662583e-017
11
3.24352264341238
21
0.24812177826491
31
1.60584843333209e-017
  0
LINE
 8
Layer0
10
3.24352264341238
20
0.24812177826491
30
1.60584843333209e-017
11
3.22663997656955
21
0.255114807840232
31
1.60579150496071e-017
  0
LINE
 8
Layer0
10
3.22663997656955
20
0.255114807840232
30
1.60579150496071e-017
11
3.20852264341238
21
0.257499999999999
31
1.61845496108609e-017
  0
LINE
 8
Layer0
10
3.20852264341238
20
0.257499999999999
30
1.61845496108609e-017
11
3.1904053102552
21
0.255114807840231
31
1.64297580810065e-017
  0
LINE
 8
Layer0
10
3.1904053102552
20
0.255114807840231
30
1.64297580810065e-017
11
3.17352264341238
21
0.24812177826491
31
1.67768299080295e-017
  0
LINE
 8
Layer0
10
3.17352264341238
20
0.24812177826491
30
1.67768299080295e-017
11
3.15902516872932
21
0.236997474683059
31
1.72021127204817e-017
  0
LINE
 8
Layer0
10
3.15902516872932
20
0.236997474683059
30
1.72021127204817e-017
11
3.14790086514746
21
0.222499999999998
31
1.76766241975077e-017
  0
LINE
 8
Layer0
10
3.14790086514746
20
0.222499999999998
30
1.76766241975077e-017
11
3.14090783557214
21
0.205617333157175
31
-3.73431240651425e-017
  0
LINE
 8
Layer0
10
3.14090783557214
20
0.205617333157175
30
-3.73431240651425e-017
11
3.13852264341238
21
0.187499999999998
31
-3.68683179051822e-017
  0
LINE
 8
Layer0
10
3.13852264341238
20
0.187499999999998
30
-3.68683179051822e-017
11
3.14090783557214
21
0.169382666842822
31
1.85602139116015e-016
  0
LINE
 8
Layer0
10
3.14090783557214
20
0.169382666842822
30
1.85602139116015e-016
11
3.14790086514747
21
0.152499999999999
31
1.85950016031787e-016
  0
LINE
 8
Layer0
10
3.14790086514747
20
0.152499999999999
30
1.85950016031787e-016
11
3.15902516872932
21
0.13800252531694
31
-3.58483943947818e-017
  0
LINE
 8
Layer0
10
3.15902516872932
20
0.13800252531694
30
-3.58483943947818e-017
11
3.17352264341238
21
0.126878221735089
31
-3.57206600618445e-017
  0
LINE
 8
Layer0
10
3.17352264341238
20
0.126878221735089
30
-3.57206600618445e-017
11
3.1904053102552
21
0.119885192159765
31
-3.57200907781306e-017
  0
LINE
 8
Layer0
10
3.1904053102552
20
0.119885192159765
30
-3.57200907781306e-017
11
3.20852264341238
21
0.117500000000001
31
-3.58467253393844e-017
  0
LINE
 8
Layer0
10
3.20852264341238
20
0.117500000000001
30
-3.58467253393844e-017
11
3.22663997656955
21
0.119885192159762
31
-3.609193380953e-017
  0
LINE
 8
Layer0
10
3.22663997656955
20
0.119885192159762
30
-3.609193380953e-017
11
3.24352264341238
21
0.12687822173509
31
-3.64390056365531e-017
  0
LINE
 8
Layer0
10
3.24352264341238
20
0.12687822173509
30
-3.64390056365531e-017
11
3.25802011809543
21
0.13800252531694
31
-3.68642884490054e-017
  0
LINE
 8
Layer0
10
3.25802011809543
20
0.13800252531694
30
-3.68642884490054e-017
11
3.26914442167729
21
0.1525
31
1.84705804999e-016
  0
LINE
 8
Layer0
10
3.26914442167729
20
0.1525
30
1.84705804999e-016
11
3.27613745125261
21
0.169382666842822
31
1.84214402030392e-016
  0
LINE
 8
Layer0
10
3.27613745125261
20
0.169382666842822
30
1.84214402030392e-016
11
3.27852264341238
21
0.1875
31
1.83739595870432e-016
  0
LINE
 8
Layer0
10
3.27852264341238
20
0.1875
30
1.83739595870432e-016
11
3.27613745125261
21
0.205617333157175
31
-3.87308611507654e-017
  0
LINE
 8
Layer0
10
3.27613745125261
20
0.205617333157175
30
-3.87308611507654e-017
11
3.26914442167729
21
0.222499999999998
31
1.64324131647202e-017
  0
LINE
 8
Layer0
10
4.14790086514747
20
0.222499999999999
30
1.73947998252588e-016
11
4.15902516872932
21
0.236997474683056
31
-4.85711181494694e-017
  0
LINE
 8
Layer0
10
4.14090783557214
20
0.205617333157173
30
1.74439401221195e-016
11
4.14790086514747
21
0.222499999999999
31
1.73947998252588e-016
  0
LINE
 8
Layer0
10
4.13852264341237
20
0.187499999999998
30
-4.71303975438755e-017
11
4.14090783557214
21
0.205617333157173
31
1.74439401221195e-016
  0
LINE
 8
Layer0
10
4.14090783557214
20
0.169382666842822
30
-4.67045454477093e-017
11
4.13852264341237
21
0.187499999999998
31
-4.71303975438755e-017
  0
LINE
 8
Layer0
10
4.14790086514746
20
0.152499999999999
30
9.15448269932059e-018
11
4.14090783557214
21
0.169382666842822
31
-4.67045454477093e-017
  0
LINE
 8
Layer0
10
4.15902516872932
20
0.13800252531694
30
9.40067719778257e-018
11
4.14790086514746
21
0.152499999999999
31
9.15448269932059e-018
  0
LINE
 8
Layer0
10
4.17352264341238
20
0.126878221735087
30
9.52841153071994e-018
11
4.15902516872932
21
0.13800252531694
31
9.40067719778257e-018
  0
LINE
 8
Layer0
10
4.1904053102552
20
0.119885192159763
30
9.52898081443382e-018
11
4.17352264341238
21
0.126878221735087
31
9.52841153071994e-018
  0
LINE
 8
Layer0
10
4.20852264341238
20
0.1175
30
9.40234625317998e-018
11
4.1904053102552
21
0.119885192159763
31
9.52898081443382e-018
  0
LINE
 8
Layer0
10
4.22663997656955
20
0.119885192159763
30
9.15713778303445e-018
11
4.20852264341238
21
0.1175
31
9.40234625317998e-018
  0
LINE
 8
Layer0
10
4.24352264341238
20
0.126878221735089
30
8.81006595601134e-018
11
4.22663997656955
21
0.119885192159763
31
9.15713778303445e-018
  0
LINE
 8
Layer0
10
4.25802011809544
20
0.13800252531694
30
8.38478314355909e-018
11
4.24352264341238
21
0.126878221735089
31
8.81006595601134e-018
  0
LINE
 8
Layer0
10
4.26914442167729
20
0.152499999999998
30
7.91027166653317e-018
11
4.25802011809544
21
0.13800252531694
31
8.38478314355909e-018
  0
LINE
 8
Layer0
10
4.27613745125261
20
0.169382666842821
30
-4.80922825333322e-017
11
4.26914442167729
21
0.152499999999998
31
7.91027166653317e-018
  0
LINE
 8
Layer0
10
4.27852264341238
20
0.187499999999996
30
-4.85670886932926e-017
11
4.27613745125261
21
0.169382666842821
31
-4.80922825333322e-017
  0
LINE
 8
Layer0
10
4.27613745125261
20
0.205617333157175
30
1.73051664135572e-016
11
4.27852264341238
21
0.187499999999996
31
-4.85670886932926e-017
  0
LINE
 8
Layer0
10
4.26914442167729
20
0.222499999999997
30
1.727037872198e-016
11
4.27613745125261
21
0.205617333157175
31
1.73051664135572e-016
  0
LINE
 8
Layer0
10
4.25802011809544
20
0.236997474683058
30
-4.9587012203693e-017
11
4.26914442167729
21
0.222499999999997
31
1.727037872198e-016
  0
LINE
 8
Layer0
10
4.24352264341238
20
0.24812177826491
30
-4.97147465366303e-017
11
4.25802011809544
21
0.236997474683058
31
-4.9587012203693e-017
  0
LINE
 8
Layer0
10
4.22663997656955
20
0.255114807840234
30
-4.97153158203442e-017
11
4.24352264341238
21
0.24812177826491
31
-4.97147465366303e-017
  0
LINE
 8
Layer0
10
4.20852264341238
20
0.257499999999997
30
-4.95886812590904e-017
11
4.22663997656955
21
0.255114807840234
31
-4.97153158203442e-017
  0
LINE
 8
Layer0
10
4.1904053102552
20
0.255114807840231
30
-4.93434727889447e-017
11
4.20852264341238
21
0.257499999999997
31
-4.95886812590904e-017
  0
LINE
 8
Layer0
10
4.17352264341237
20
0.248121778264911
30
-4.89964009619217e-017
11
4.1904053102552
21
0.255114807840231
31
-4.93434727889447e-017
  0
LINE
 8
Layer0
10
4.15902516872932
20
0.236997474683056
30
-4.85711181494694e-017
11
4.17352264341237
21
0.248121778264911
31
-4.89964009619217e-017
  0
LINE
 8
Layer0
10
5.1438295186986
20
0.2225
30
-5.8316905829642e-017
11
5.15495382228045
21
0.236997474683058
31
-5.87914173066679e-017
  0
LINE
 8
Layer0
10
5.13683648912328
20
0.205617333157174
30
-2.31435162977654e-018
11
5.1438295186986
21
0.2225
31
-5.8316905829642e-017
  0
LINE
 8
Layer0
10
5.13445129696351
20
0.187499999999997
30
-1.83954546981616e-018
11
5.13683648912328
21
0.205617333157174
31
-2.31435162977654e-018
  0
LINE
 8
Layer0
10
5.13683648912328
20
0.169382666842822
30
-1.41369337364998e-018
11
5.13445129696351
21
0.187499999999997
31
-1.83954546981616e-018
  0
LINE
 8
Layer0
10
5.1438295186986
20
0.1525
30
-1.06581645787786e-018
11
5.13683648912328
21
0.169382666842822
31
-1.41369337364998e-018
  0
LINE
 8
Layer0
10
5.15495382228045
20
0.138002525316941
30
-8.19621959415883e-019
11
5.1438295186986
21
0.1525
31
-1.06581645787786e-018
  0
LINE
 8
Layer0
10
5.16945129696351
20
0.126878221735087
30
1.65841566067295e-016
11
5.15495382228045
21
0.138002525316941
31
-8.19621959415883e-019
  0
LINE
 8
Layer0
10
5.18633396380633
20
0.119885192159763
30
1.65842135351009e-016
11
5.16945129696351
21
0.126878221735087
31
1.65841566067295e-016
  0
LINE
 8
Layer0
10
5.20445129696351
20
0.1175
30
1.65715500789755e-016
11
5.18633396380633
21
0.119885192159763
31
1.65842135351009e-016
  0
LINE
 8
Layer0
10
5.22256863012069
20
0.119885192159762
30
1.6547029231961e-016
11
5.20445129696351
21
0.1175
31
1.65715500789755e-016
  0
LINE
 8
Layer0
10
5.23945129696351
20
0.12687822173509
30
1.65123220492586e-016
11
5.22256863012069
21
0.119885192159762
31
1.6547029231961e-016
  0
LINE
 8
Layer0
10
5.25394877164657
20
0.138002525316944
30
1.64697937680134e-016
11
5.23945129696351
21
0.12687822173509
31
1.65123220492586e-016
  0
LINE
 8
Layer0
10
5.26507307522842
20
0.152499999999998
30
-2.31002749066531e-018
11
5.25394877164657
21
0.138002525316944
31
1.64697937680134e-016
  0
LINE
 8
Layer0
10
5.27206610480375
20
0.169382666842822
30
-2.80143045927285e-018
11
5.26507307522842
21
0.152499999999998
31
-2.31002749066531e-018
  0
LINE
 8
Layer0
10
5.27445129696351
20
0.187499999999998
30
-3.27623661923324e-018
11
5.27206610480375
21
0.169382666842822
31
-2.80143045927285e-018
  0
LINE
 8
Layer0
10
5.27206610480375
20
0.205617333157176
30
-3.70208871539946e-018
11
5.27445129696351
21
0.187499999999998
31
-3.27623661923324e-018
  0
LINE
 8
Layer0
10
5.26507307522842
20
0.222500000000001
30
-5.95611168624295e-017
11
5.27206610480375
21
0.205617333157176
31
-3.70208871539946e-018
  0
LINE
 8
Layer0
10
5.25394877164657
20
0.236997474683057
30
-5.98073113608914e-017
11
5.26507307522842
21
0.222500000000001
31
-5.95611168624295e-017
  0
LINE
 8
Layer0
10
5.23945129696351
20
0.248121778264908
30
1.62109559231203e-016
11
5.25394877164657
21
0.236997474683057
31
-5.98073113608914e-017
  0
LINE
 8
Layer0
10
5.22256863012069
20
0.255114807840232
30
1.62108989947489e-016
11
5.23945129696351
21
0.248121778264908
31
1.62109559231203e-016
  0
LINE
 8
Layer0
10
5.20445129696351
20
0.257499999999998
30
1.62235624508742e-016
11
5.22256863012069
21
0.255114807840232
31
1.62108989947489e-016
  0
LINE
 8
Layer0
10
5.18633396380634
20
0.255114807840233
30
1.62480832978888e-016
11
5.20445129696351
21
0.257499999999998
31
1.62235624508742e-016
  0
LINE
 8
Layer0
10
5.16945129696351
20
0.248121778264911
30
1.62827904805911e-016
11
5.18633396380634
21
0.255114807840233
31
1.62480832978888e-016
  0
LINE
 8
Layer0
10
5.15495382228045
20
0.236997474683058
30
-5.87914173066679e-017
11
5.16945129696351
21
0.248121778264911
31
1.62827904805911e-016
  0
LINE
 8
Layer0
10
6.01596530567252
20
0.222499999999998
30
-1.1755681500065e-017
11
6.00484100209067
21
0.236997474683054
31
-1.2001875998527e-017
  0
LINE
 8
Layer0
10
6.00484100209067
20
0.236997474683054
30
-1.2001875998527e-017
11
5.99034352740761
21
0.248121778264911
31
-6.76407615627222e-017
  0
LINE
 8
Layer0
10
5.99034352740761
20
0.248121778264911
30
-6.76407615627222e-017
11
5.97346086056479
21
0.255114807840233
31
-6.76413308464361e-017
  0
LINE
 8
Layer0
10
5.97346086056479
20
0.255114807840233
30
-6.76413308464361e-017
11
5.95534352740761
21
0.257499999999999
31
-6.75146962851823e-017
  0
LINE
 8
Layer0
10
5.95534352740761
20
0.257499999999999
30
-6.75146962851823e-017
11
5.93722619425043
21
0.255114807840233
31
-6.72694878150367e-017
  0
LINE
 8
Layer0
10
5.93722619425043
20
0.255114807840233
30
-6.72694878150367e-017
11
5.92034352740761
21
0.248121778264909
31
-6.69224159880137e-017
  0
LINE
 8
Layer0
10
5.92034352740761
20
0.248121778264909
30
-6.69224159880137e-017
11
5.90584605272455
21
0.236997474683055
31
-1.09859819443035e-017
  0
LINE
 8
Layer0
10
5.90584605272455
20
0.236997474683055
30
-1.09859819443035e-017
11
5.8947217491427
21
0.222499999999998
31
-1.05114704672776e-017
  0
LINE
 8
Layer0
10
5.8947217491427
20
0.222499999999998
30
-1.05114704672776e-017
11
5.88772871956738
21
0.205617333157173
31
-1.002006749867e-017
  0
LINE
 8
Layer0
10
5.88772871956738
20
0.205617333157173
30
-1.002006749867e-017
11
5.88534352740761
21
0.187499999999997
31
-9.54526133870962e-018
  0
LINE
 8
Layer0
10
5.88534352740761
20
0.187499999999997
30
-9.54526133870962e-018
11
5.88772871956738
21
0.169382666842822
31
-9.11940924254342e-018
  0
LINE
 8
Layer0
10
5.88772871956738
20
0.169382666842822
30
-9.11940924254342e-018
11
5.8947217491427
21
0.1525
31
1.57761921367002e-016
  0
LINE
 8
Layer0
10
5.8947217491427
20
0.1525
30
1.57761921367002e-016
11
5.90584605272455
21
0.13800252531694
31
1.58008115865464e-016
  0
LINE
 8
Layer0
10
5.90584605272455
20
0.13800252531694
30
1.58008115865464e-016
11
5.92034352740761
21
0.126878221735089
31
-6.39087547266299e-017
  0
LINE
 8
Layer0
10
5.92034352740761
20
0.126878221735089
30
-6.39087547266299e-017
11
5.93722619425043
21
0.119885192159763
31
-6.39081854429159e-017
  0
LINE
 8
Layer0
10
5.93722619425043
20
0.119885192159763
30
-6.39081854429159e-017
11
5.95534352740761
21
0.1175
31
-6.40348200041697e-017
  0
LINE
 8
Layer0
10
5.95534352740761
20
0.1175
30
-6.40348200041697e-017
11
5.97346086056479
21
0.119885192159764
31
-6.42800284743153e-017
  0
LINE
 8
Layer0
10
5.97346086056479
20
0.119885192159764
30
-6.42800284743153e-017
11
5.99034352740761
21
0.12687822173509
31
-6.46271003013384e-017
  0
LINE
 8
Layer0
10
5.99034352740761
20
0.12687822173509
30
-6.46271003013384e-017
11
6.00484100209067
21
0.13800252531694
31
1.56992221811241e-016
  0
LINE
 8
Layer0
10
6.00484100209067
20
0.13800252531694
30
1.56992221811241e-016
11
6.01596530567252
21
0.152499999999996
31
1.56517710334215e-016
  0
LINE
 8
Layer0
10
6.01596530567252
20
0.152499999999996
30
1.56517710334215e-016
11
6.02295833524785
21
0.16938266684282
31
1.56026307365607e-016
  0
LINE
 8
Layer0
10
6.02295833524785
20
0.16938266684282
30
1.56026307365607e-016
11
6.02534352740761
21
0.187499999999996
31
-1.09819524881267e-017
  0
LINE
 8
Layer0
10
6.02534352740761
20
0.187499999999996
30
-1.09819524881267e-017
11
6.02295833524785
21
0.205617333157175
31
-1.14078045842929e-017
  0
LINE
 8
Layer0
10
6.02295833524785
20
0.205617333157175
30
-1.14078045842929e-017
11
6.01596530567252
21
0.222499999999998
31
-1.1755681500065e-017
  0
LINE
 8
Layer0
10
0.147900865147469
20
1.23002522599571
30
2.34195549959857e-017
11
0.159025168729321
21
1.24452270067876
31
2.29450435189598e-017
  0
LINE
 8
Layer0
10
0.140907835572146
20
1.21314255915288
30
-3.16001932666646e-017
11
0.147900865147469
21
1.23002522599571
31
2.34195549959857e-017
  0
LINE
 8
Layer0
10
0.138522643412378
20
1.19502522599571
30
-3.11253871067041e-017
11
0.140907835572146
21
1.21314255915288
31
-3.16001932666646e-017
  0
LINE
 8
Layer0
10
0.140907835572146
20
1.17690789283853
30
1.91345069914493e-016
11
0.138522643412378
21
1.19502522599571
31
-3.11253871067041e-017
  0
LINE
 8
Layer0
10
0.14790086514747
20
1.16002522599571
30
1.91692946830266e-016
11
0.140907835572146
21
1.17690789283853
31
1.91345069914493e-016
  0
LINE
 8
Layer0
10
0.159025168729321
20
1.14552775131265
30
-3.01054635963038e-017
11
0.14790086514747
21
1.16002522599571
31
1.91692946830266e-016
  0
LINE
 8
Layer0
10
0.173522643412378
20
1.13440344773079
30
-2.99777292633665e-017
11
0.159025168729321
21
1.14552775131265
31
-3.01054635963038e-017
  0
LINE
 8
Layer0
10
0.190405310255204
20
1.12741041815547
30
-2.99771599796526e-017
11
0.173522643412378
21
1.13440344773079
31
-2.99777292633665e-017
  0
LINE
 8
Layer0
10
0.208522643412379
20
1.1250252259957
30
-3.01037945409064e-017
11
0.190405310255204
21
1.12741041815547
31
-2.99771599796526e-017
  0
LINE
 8
Layer0
10
0.226639976569557
20
1.12741041815547
30
-3.03490030110519e-017
11
0.208522643412379
21
1.1250252259957
31
-3.01037945409064e-017
  0
LINE
 8
Layer0
10
0.243522643412379
20
1.13440344773079
30
-3.0696074838075e-017
11
0.226639976569557
21
1.12741041815547
31
-3.03490030110519e-017
  0
LINE
 8
Layer0
10
0.258020118095437
20
1.14552775131265
30
-3.11213576505273e-017
11
0.243522643412379
21
1.13440344773079
31
-3.0696074838075e-017
  0
LINE
 8
Layer0
10
0.269144421677292
20
1.16002522599571
30
1.90448735797478e-016
11
0.258020118095437
21
1.14552775131265
31
-3.11213576505273e-017
  0
LINE
 8
Layer0
10
0.276137451252615
20
1.17690789283853
30
1.89957332828871e-016
11
0.269144421677292
21
1.16002522599571
31
1.90448735797478e-016
  0
LINE
 8
Layer0
10
0.278522643412379
20
1.19502522599571
30
1.8948252666891e-016
11
0.276137451252615
21
1.17690789283853
31
1.89957332828871e-016
  0
LINE
 8
Layer0
10
0.276137451252615
20
1.21314255915288
30
-3.29879303522874e-017
11
0.278522643412379
21
1.19502522599571
31
1.8948252666891e-016
  0
LINE
 8
Layer0
10
0.269144421677292
20
1.23002522599571
30
2.21753439631982e-017
11
0.276137451252615
21
1.21314255915288
31
-3.29879303522874e-017
  0
LINE
 8
Layer0
10
0.258020118095437
20
1.24452270067876
30
2.19291494647363e-017
11
0.269144421677292
21
1.23002522599571
31
2.21753439631982e-017
  0
LINE
 8
Layer0
10
0.243522643412378
20
1.25564700426062
30
2.1801415131799e-017
11
0.258020118095437
21
1.24452270067876
31
2.19291494647363e-017
  0
LINE
 8
Layer0
10
0.226639976569558
20
1.26264003383594
30
2.1800845848085e-017
11
0.243522643412378
21
1.25564700426062
31
2.1801415131799e-017
  0
LINE
 8
Layer0
10
0.208522643412379
20
1.26502522599571
30
-3.3583670821919e-017
11
0.226639976569558
21
1.26264003383594
31
2.1800845848085e-017
  0
LINE
 8
Layer0
10
0.190405310255204
20
1.26264003383594
30
2.21726888794844e-017
11
0.208522643412379
21
1.26502522599571
31
-3.3583670821919e-017
  0
LINE
 8
Layer0
10
0.173522643412378
20
1.25564700426062
30
2.25197607065075e-017
11
0.190405310255204
21
1.26264003383594
31
2.21726888794844e-017
  0
LINE
 8
Layer0
10
0.159025168729321
20
1.24452270067876
30
2.29450435189598e-017
11
0.173522643412378
21
1.25564700426062
31
2.25197607065075e-017
  0
LINE
 8
Layer0
10
1.21712753686722
20
1.26449432566333
30
-4.39208583662842e-017
11
1.19885440619277
21
1.26435433380091
31
-4.37298583700433e-017
  0
LINE
 8
Layer0
10
1.19885440619277
20
1.26435433380091
30
-4.37298583700433e-017
11
1.18124014990732
21
1.25948967781333
31
-4.34281823193623e-017
  0
LINE
 8
Layer0
10
1.18124014990732
20
1.25948967781333
30
-4.34281823193623e-017
11
1.16548515046778
21
1.25023187596692
31
-4.30363889385517e-017
  0
LINE
 8
Layer0
10
1.16548515046778
20
1.25023187596692
30
-4.30363889385517e-017
11
1.1526630850496
21
1.23721183215827
31
-4.25811782990446e-017
  0
LINE
 8
Layer0
10
1.1526630850496
20
1.23721183215827
30
-4.25811782990446e-017
11
1.14364775622156
21
1.22131684085631
31
1.79951032671379e-016
  0
LINE
 8
Layer0
10
1.14364775622156
20
1.22131684085631
30
1.79951032671379e-016
11
1.13905354374475
21
1.20363011945055
31
1.8043780457647e-016
  0
LINE
 8
Layer0
10
1.13905354374475
20
1.20363011945055
30
1.8043780457647e-016
11
1.13919353560718
21
1.1853569887761
31
-4.11540352846744e-017
  0
LINE
 8
Layer0
10
1.13919353560718
20
1.1853569887761
30
-4.11540352846744e-017
11
1.14405819159476
21
1.16774273249065
31
-4.07661322528665e-017
  0
LINE
 8
Layer0
10
1.14405819159476
20
1.16774273249065
30
-4.07661322528665e-017
11
1.15331599344116
21
1.15198773305111
31
1.50416250275429e-017
  0
LINE
 8
Layer0
10
1.15331599344116
20
1.15198773305111
30
1.50416250275429e-017
11
1.16633603724981
21
1.13916566763293
31
1.5226720881953e-017
  0
LINE
 8
Layer0
10
1.16633603724981
20
1.13916566763293
30
1.5226720881953e-017
11
1.18223102855177
21
1.13015033880489
31
1.5287692565029e-017
  0
LINE
 8
Layer0
10
1.18223102855177
20
1.13015033880489
30
1.5287692565029e-017
11
1.19991774995754
21
1.12555612632808
31
-4.0290766273928e-017
  0
LINE
 8
Layer0
10
1.19991774995754
20
1.12555612632808
30
-4.0290766273928e-017
11
1.21819088063199
21
1.1256961181905
31
-4.04817662701688e-017
  0
LINE
 8
Layer0
10
1.21819088063199
20
1.1256961181905
30
-4.04817662701688e-017
11
1.23580513691744
21
1.13056077417808
31
1.4727708910408e-017
  0
LINE
 8
Layer0
10
1.23580513691744
20
1.13056077417808
30
1.4727708910408e-017
11
1.25156013635697
21
1.13981857602449
31
1.43359155295974e-017
  0
LINE
 8
Layer0
10
1.25156013635697
20
1.13981857602449
30
1.43359155295974e-017
11
1.26438220177516
21
1.15283861983314
31
1.38807048900903e-017
  0
LINE
 8
Layer0
10
1.26438220177516
20
1.15283861983314
30
1.38807048900903e-017
11
1.2733975306032
21
1.1687336111351
31
1.3393098844698e-017
  0
LINE
 8
Layer0
10
1.2733975306032
20
1.1687336111351
30
1.3393098844698e-017
11
1.27799174308001
21
1.18642033254086
31
-4.26048242916511e-017
  0
LINE
 8
Layer0
10
1.27799174308001
20
1.18642033254086
30
-4.26048242916511e-017
11
1.27785175121758
21
1.20469346321531
31
1.78987015569494e-016
  0
LINE
 8
Layer0
10
1.27785175121758
20
1.20469346321531
30
1.78987015569494e-016
11
1.27298709523
21
1.22230771950077
31
1.78599112537686e-016
  0
LINE
 8
Layer0
10
1.27298709523
20
1.22230771950077
30
1.78599112537686e-016
11
1.26372929338359
21
1.2380627189403
31
1.78302506488534e-016
  0
LINE
 8
Layer0
10
1.26372929338359
20
1.2380627189403
30
1.78302506488534e-016
11
1.25070924957495
21
1.25088478435848
31
-4.39271942909073e-017
  0
LINE
 8
Layer0
10
1.25070924957495
20
1.25088478435848
30
-4.39271942909073e-017
11
1.23481425827299
21
1.25990011318653
31
-4.39881659739833e-017
  0
LINE
 8
Layer0
10
1.23481425827299
20
1.25990011318653
30
-4.39881659739833e-017
11
1.21712753686722
21
1.26449432566333
31
-4.39208583662842e-017
  0
LINE
 8
Layer0
10
2.27613745125261
20
1.17690789283853
30
2.89971985771023e-018
11
2.27852264341238
21
1.19502522599571
31
2.4249136977498e-018
  0
LINE
 8
Layer0
10
2.27852264341238
20
1.19502522599571
30
2.4249136977498e-018
11
2.27613745125261
21
1.21314255915288
31
1.99906160158362e-018
  0
LINE
 8
Layer0
10
2.27613745125261
20
1.21314255915288
30
1.99906160158362e-018
11
2.26914442167729
21
1.23002522599571
31
-5.38599665454463e-017
  0
LINE
 8
Layer0
10
2.26914442167729
20
1.23002522599571
30
-5.38599665454463e-017
11
2.25802011809543
21
1.24452270067876
31
-5.41061610439083e-017
  0
LINE
 8
Layer0
10
2.25802011809543
20
1.24452270067876
30
-5.41061610439083e-017
11
2.24352264341238
21
1.25564700426062
31
1.67810709548186e-016
  0
LINE
 8
Layer0
10
2.24352264341238
20
1.25564700426062
30
1.67810709548186e-016
11
2.22663997656955
21
1.26264003383594
31
1.67810140264472e-016
  0
LINE
 8
Layer0
10
2.22663997656955
20
1.26264003383594
30
1.67810140264472e-016
11
2.20852264341238
21
1.26502522599571
31
1.67936774825726e-016
  0
LINE
 8
Layer0
10
2.20852264341238
20
1.26502522599571
30
1.67936774825726e-016
11
2.1904053102552
21
1.26264003383594
31
1.68181983295871e-016
  0
LINE
 8
Layer0
10
2.1904053102552
20
1.26264003383594
30
1.68181983295871e-016
11
2.17352264341238
21
1.25564700426062
31
1.68529055122894e-016
  0
LINE
 8
Layer0
10
2.17352264341238
20
1.25564700426062
30
1.68529055122894e-016
11
2.15902516872932
21
1.24452270067876
31
1.68954337935347e-016
  0
LINE
 8
Layer0
10
2.15902516872932
20
1.24452270067876
30
1.68954337935347e-016
11
2.14790086514747
21
1.23002522599571
31
-5.26157555126589e-017
  0
LINE
 8
Layer0
10
2.14790086514747
20
1.23002522599571
30
-5.26157555126589e-017
11
2.14090783557214
21
1.21314255915288
31
-5.21243525440513e-017
  0
LINE
 8
Layer0
10
2.14090783557214
20
1.21314255915288
30
-5.21243525440513e-017
11
2.13852264341238
21
1.19502522599571
31
3.86160484716687e-018
  0
LINE
 8
Layer0
10
2.13852264341238
20
1.19502522599571
30
3.86160484716687e-018
11
2.14090783557214
21
1.17690789283853
31
4.2874569433331e-018
  0
LINE
 8
Layer0
10
2.14090783557214
20
1.17690789283853
30
4.2874569433331e-018
11
2.14790086514747
21
1.16002522599571
31
-5.08758173721526e-017
  0
LINE
 8
Layer0
10
2.14790086514747
20
1.16002522599571
30
-5.08758173721526e-017
11
2.15902516872932
21
1.14552775131265
31
-5.06296228736906e-017
  0
LINE
 8
Layer0
10
2.15902516872932
20
1.14552775131265
30
-5.06296228736906e-017
11
2.17352264341238
21
1.13440344773079
31
1.71542716384278e-016
  0
LINE
 8
Layer0
10
2.17352264341238
20
1.13440344773079
30
1.71542716384278e-016
11
2.1904053102552
21
1.12741041815547
31
1.71543285667992e-016
  0
LINE
 8
Layer0
10
2.1904053102552
20
1.12741041815547
30
1.71543285667992e-016
11
2.20852264341238
21
1.12502522599571
31
1.71416651106738e-016
  0
LINE
 8
Layer0
10
2.20852264341238
20
1.12502522599571
30
1.71416651106738e-016
11
2.22663997656955
21
1.12741041815547
31
1.71171442636593e-016
  0
LINE
 8
Layer0
10
2.22663997656955
20
1.12741041815547
30
1.71171442636593e-016
11
2.24352264341238
21
1.1344034477308
31
1.7082437080957e-016
  0
LINE
 8
Layer0
10
2.24352264341238
20
1.1344034477308
30
1.7082437080957e-016
11
2.25802011809544
21
1.14552775131265
31
-5.16455169279141e-017
  0
LINE
 8
Layer0
10
2.25802011809544
20
1.14552775131265
30
-5.16455169279141e-017
11
2.26914442167729
21
1.16002522599571
31
-5.212002840494e-017
  0
LINE
 8
Layer0
10
2.26914442167729
20
1.16002522599571
30
-5.212002840494e-017
11
2.27613745125261
21
1.17690789283853
31
2.89971985771023e-018
  0
LINE
 8
Layer0
10
3.26914442167729
20
1.23002522599571
30
-8.61089495288189e-018
11
3.25802011809543
21
1.24452270067876
31
-8.85708945134389e-018
  0
LINE
 8
Layer0
10
3.25802011809543
20
1.24452270067876
30
-8.85708945134389e-018
11
3.24352264341238
21
1.25564700426062
31
-8.9848237842812e-018
  0
LINE
 8
Layer0
10
3.24352264341238
20
1.25564700426062
30
-8.9848237842812e-018
11
3.22663997656955
21
1.26264003383594
31
-6.44965442992529e-017
  0
LINE
 8
Layer0
10
3.22663997656955
20
1.26264003383594
30
-6.44965442992529e-017
11
3.20852264341238
21
1.26502522599571
31
-6.43699097379991e-017
  0
LINE
 8
Layer0
10
3.20852264341238
20
1.26502522599571
30
-6.43699097379991e-017
11
3.1904053102552
21
1.26264003383594
31
-6.41247012678536e-017
  0
LINE
 8
Layer0
10
3.1904053102552
20
1.26264003383594
30
-6.41247012678536e-017
11
3.17352264341238
21
1.25564700426062
31
-8.26647820957262e-018
  0
LINE
 8
Layer0
10
3.17352264341238
20
1.25564700426062
30
-8.26647820957262e-018
11
3.15902516872932
21
1.24452270067876
31
-7.84119539712037e-018
  0
LINE
 8
Layer0
10
3.15902516872932
20
1.24452270067876
30
-7.84119539712037e-018
11
3.14790086514747
21
1.23002522599571
31
-7.36668392009443e-018
  0
LINE
 8
Layer0
10
3.14790086514747
20
1.23002522599571
30
-7.36668392009443e-018
11
3.14090783557214
21
1.21314255915288
31
-6.23864321827447e-017
  0
LINE
 8
Layer0
10
3.14090783557214
20
1.21314255915288
30
-6.23864321827447e-017
11
3.13852264341238
21
1.19502522599571
31
-6.19116260227843e-017
  0
LINE
 8
Layer0
10
3.13852264341238
20
1.19502522599571
30
-6.19116260227843e-017
11
3.14090783557214
21
1.17690789283853
31
1.60558830998413e-016
  0
LINE
 8
Layer0
10
3.14090783557214
20
1.17690789283853
30
1.60558830998413e-016
11
3.14790086514747
21
1.16002522599571
31
1.60906707914185e-016
  0
LINE
 8
Layer0
10
3.14790086514747
20
1.16002522599571
30
1.60906707914185e-016
11
3.15902516872932
21
1.14552775131265
31
-6.08917025123839e-017
  0
LINE
 8
Layer0
10
3.15902516872932
20
1.14552775131265
30
-6.08917025123839e-017
11
3.17352264341238
21
1.1344034477308
31
-6.07639681794467e-017
  0
LINE
 8
Layer0
10
3.17352264341238
20
1.1344034477308
30
-6.07639681794467e-017
11
3.1904053102552
21
1.12741041815547
31
-6.07633988957327e-017
  0
LINE
 8
Layer0
10
3.1904053102552
20
1.12741041815547
30
-6.07633988957327e-017
11
3.20852264341238
21
1.1250252259957
31
-6.08900334569865e-017
  0
LINE
 8
Layer0
10
3.20852264341238
20
1.1250252259957
30
-6.08900334569865e-017
11
3.22663997656955
21
1.12741041815547
31
-6.11352419271321e-017
  0
LINE
 8
Layer0
10
3.22663997656955
20
1.12741041815547
30
-6.11352419271321e-017
11
3.24352264341238
21
1.13440344773079
31
-6.14823137541552e-017
  0
LINE
 8
Layer0
10
3.24352264341238
20
1.13440344773079
30
-6.14823137541552e-017
11
3.25802011809543
21
1.14552775131265
31
-6.19075965666075e-017
  0
LINE
 8
Layer0
10
3.25802011809543
20
1.14552775131265
30
-6.19075965666075e-017
11
3.26914442167729
21
1.16002522599571
31
1.59662496881398e-016
  0
LINE
 8
Layer0
10
3.26914442167729
20
1.16002522599571
30
1.59662496881398e-016
11
3.27613745125261
21
1.17690789283853
31
1.5917109391279e-016
  0
LINE
 8
Layer0
10
3.27613745125261
20
1.17690789283853
30
1.5917109391279e-016
11
3.27852264341238
21
1.19502522599571
31
-6.33483171722014e-017
  0
LINE
 8
Layer0
10
3.27852264341238
20
1.19502522599571
30
-6.33483171722014e-017
11
3.27613745125261
21
1.21314255915288
31
-6.37741692683676e-017
  0
LINE
 8
Layer0
10
3.27613745125261
20
1.21314255915288
30
-6.37741692683676e-017
11
3.26914442167729
21
1.23002522599571
31
-8.61089495288189e-018
  0
LINE
 8
Layer0
10
4.17352264341238
20
1.1344034477308
30
-1.55148965868822e-017
11
4.1904053102552
21
1.12741041815547
31
-1.55143273031683e-017
  0
LINE
 8
Layer0
10
4.1904053102552
20
1.12741041815547
30
-1.55143273031683e-017
11
4.20852264341238
21
1.12502522599571
31
-1.56409618644221e-017
  0
LINE
 8
Layer0
10
4.20852264341238
20
1.12502522599571
30
-1.56409618644221e-017
11
4.22663997656955
21
1.12741041815547
31
-1.58861703345677e-017
  0
LINE
 8
Layer0
10
4.22663997656955
20
1.12741041815547
30
-1.58861703345677e-017
11
4.24352264341238
21
1.1344034477308
31
-1.62332421615908e-017
  0
LINE
 8
Layer0
10
4.24352264341238
20
1.1344034477308
30
-1.62332421615908e-017
11
4.25802011809544
21
1.14552775131265
31
-1.6658524974043e-017
  0
LINE
 8
Layer0
10
4.25802011809544
20
1.14552775131265
30
-1.6658524974043e-017
11
4.26914442167729
21
1.16002522599571
31
-1.7133036451069e-017
  0
LINE
 8
Layer0
10
4.26914442167729
20
1.16002522599571
30
-1.7133036451069e-017
11
4.27613745125261
21
1.17690789283853
31
-7.31355906509344e-017
  0
LINE
 8
Layer0
10
4.27613745125261
20
1.17690789283853
30
-7.31355906509344e-017
11
4.27852264341238
21
1.19502522599571
31
-7.36103968108948e-017
  0
LINE
 8
Layer0
10
4.27852264341238
20
1.19502522599571
30
-7.36103968108948e-017
11
4.27613745125261
21
1.21314255915288
31
1.4800835601797e-016
  0
LINE
 8
Layer0
10
4.27613745125261
20
1.21314255915288
30
1.4800835601797e-016
11
4.26914442167729
21
1.23002522599571
31
1.47660479102198e-016
  0
LINE
 8
Layer0
10
4.26914442167729
20
1.23002522599571
30
1.47660479102198e-016
11
4.25802011809543
21
1.24452270067876
31
-7.46303203212951e-017
  0
LINE
 8
Layer0
10
4.25802011809543
20
1.24452270067876
30
-7.46303203212951e-017
11
4.24352264341238
21
1.25564700426062
31
-7.47580546542324e-017
  0
LINE
 8
Layer0
10
4.24352264341238
20
1.25564700426062
30
-7.47580546542324e-017
11
4.22663997656955
21
1.26264003383594
31
-7.47586239379463e-017
  0
LINE
 8
Layer0
10
4.22663997656955
20
1.26264003383594
30
-7.47586239379463e-017
11
4.20852264341238
21
1.26502522599571
31
-7.46319893766926e-017
  0
LINE
 8
Layer0
10
4.20852264341238
20
1.26502522599571
30
-7.46319893766926e-017
11
4.1904053102552
21
1.26264003383594
31
-7.4386780906547e-017
  0
LINE
 8
Layer0
10
4.1904053102552
20
1.26264003383594
30
-7.4386780906547e-017
11
4.17352264341238
21
1.25564700426062
31
-7.40397090795239e-017
  0
LINE
 8
Layer0
10
4.17352264341238
20
1.25564700426062
30
-7.40397090795239e-017
11
4.15902516872932
21
1.24452270067876
31
-7.36144262670716e-017
  0
LINE
 8
Layer0
10
4.15902516872932
20
1.24452270067876
30
-7.36144262670716e-017
11
4.14790086514747
21
1.23002522599571
31
1.48904690134986e-016
  0
LINE
 8
Layer0
10
4.14790086514747
20
1.23002522599571
30
1.48904690134986e-016
11
4.14090783557214
21
1.21314255915288
31
1.49396093103593e-016
  0
LINE
 8
Layer0
10
4.14090783557214
20
1.21314255915288
30
1.49396093103593e-016
11
4.13852264341238
21
1.19502522599571
31
1.49870899263554e-016
  0
LINE
 8
Layer0
10
4.13852264341238
20
1.19502522599571
30
1.49870899263554e-016
11
4.14090783557214
21
1.17690789283853
31
-7.17478535653115e-017
  0
LINE
 8
Layer0
10
4.14090783557214
20
1.17690789283853
30
-7.17478535653115e-017
11
4.14790086514747
21
1.1600252259957
31
-1.58888254182815e-017
  0
LINE
 8
Layer0
10
4.14790086514747
20
1.1600252259957
30
-1.58888254182815e-017
11
4.15902516872932
21
1.14552775131265
31
-1.56426309198195e-017
  0
LINE
 8
Layer0
10
4.15902516872932
20
1.14552775131265
30
-1.56426309198195e-017
11
4.17352264341238
21
1.1344034477308
31
-1.55148965868822e-017
  0
LINE
 8
Layer0
10
5.13706772389912
20
1.21314255915288
30
-3.04915788853353e-016
11
5.13468253173936
21
1.19502522599571
31
-1.93418680230877e-016
  0
LINE
 8
Layer0
10
5.13468253173936
20
1.19502522599571
30
-1.93418680230877e-016
11
5.13706772389912
21
1.17690789283853
31
-1.92992828134711e-016
  0
LINE
 8
Layer0
10
5.13706772389912
20
1.17690789283853
30
-1.92992828134711e-016
11
5.14406075347445
21
1.16002522599571
31
-3.03667253681454e-016
  0
LINE
 8
Layer0
10
5.14406075347445
20
1.16002522599571
30
-3.03667253681454e-016
11
5.1551850570563
21
1.14552775131265
31
-3.03421059182992e-016
  0
LINE
 8
Layer0
10
5.1551850570563
20
1.14552775131265
30
-3.03421059182992e-016
11
5.16968253173936
21
1.1344034477308
31
-1.36759871156281e-016
  0
LINE
 8
Layer0
10
5.16968253173936
20
1.1344034477308
30
-1.36759871156281e-016
11
5.18656519858218
21
1.12741041815547
31
-1.36759301872567e-016
  0
LINE
 8
Layer0
10
5.18656519858218
20
1.12741041815547
30
-1.36759301872567e-016
11
5.20468253173936
21
1.12502522599571
31
-1.36885936433821e-016
  0
LINE
 8
Layer0
10
5.20468253173936
20
1.12502522599571
30
-1.36885936433821e-016
11
5.22279986489654
21
1.12741041815547
31
-1.37131144903967e-016
  0
LINE
 8
Layer0
10
5.22279986489654
20
1.12741041815547
30
-1.37131144903967e-016
11
5.23968253173936
21
1.13440344773079
31
-1.3747821673099e-016
  0
LINE
 8
Layer0
10
5.23968253173936
20
1.13440344773079
30
-1.3747821673099e-016
11
5.25418000642242
21
1.14552775131265
31
-3.04436953237216e-016
  0
LINE
 8
Layer0
10
5.25418000642242
20
1.14552775131265
30
-3.04436953237216e-016
11
5.26530431000427
21
1.16002522599571
31
-3.04911464714242e-016
  0
LINE
 8
Layer0
10
5.26530431000427
20
1.16002522599571
30
-3.04911464714242e-016
11
5.2722973395796
21
1.17690789283853
31
-1.94380565220334e-016
  0
LINE
 8
Layer0
10
5.2722973395796
20
1.17690789283853
30
-1.94380565220334e-016
11
5.27468253173936
21
1.19502522599571
31
-1.94855371380294e-016
  0
LINE
 8
Layer0
10
5.27468253173936
20
1.19502522599571
30
-1.94855371380294e-016
11
5.2722973395796
21
1.21314255915288
31
-3.06303525938976e-016
  0
LINE
 8
Layer0
10
5.2722973395796
20
1.21314255915288
30
-3.06303525938976e-016
11
5.26530431000427
21
1.23002522599571
31
-3.06651402854748e-016
  0
LINE
 8
Layer0
10
5.26530431000427
20
1.23002522599571
30
-3.06651402854748e-016
11
5.25418000642242
21
1.24452270067876
31
-1.40364143659436e-016
  0
LINE
 8
Layer0
10
5.25418000642242
20
1.24452270067876
30
-1.40364143659436e-016
11
5.23968253173936
21
1.25564700426062
31
-1.40491877992374e-016
  0
LINE
 8
Layer0
10
5.23968253173936
20
1.25564700426062
30
-1.40491877992374e-016
11
5.22279986489654
21
1.26264003383594
31
-1.40492447276088e-016
  0
LINE
 8
Layer0
10
5.22279986489654
20
1.26264003383594
30
-1.40492447276088e-016
11
5.20468253173937
21
1.2650252259957
31
-1.40365812714834e-016
  0
LINE
 8
Layer0
10
5.20468253173937
20
1.2650252259957
30
-1.40365812714834e-016
11
5.18656519858218
21
1.26264003383594
31
-1.40120604244688e-016
  0
LINE
 8
Layer0
10
5.18656519858218
20
1.26264003383594
30
-1.40120604244688e-016
11
5.16968253173936
21
1.25564700426062
31
-1.39773532417665e-016
  0
LINE
 8
Layer0
10
5.16968253173936
20
1.25564700426062
30
-1.39773532417665e-016
11
5.1551850570563
21
1.24452270067876
31
-1.39348249605213e-016
  0
LINE
 8
Layer0
10
5.1551850570563
20
1.24452270067876
30
-1.39348249605213e-016
11
5.14406075347445
21
1.23002522599571
31
-3.0540719182196e-016
  0
LINE
 8
Layer0
10
5.14406075347445
20
1.23002522599571
30
-3.0540719182196e-016
11
5.13706772389912
21
1.21314255915288
31
-3.04915788853353e-016
  0
LINE
 8
Layer0
10
5.91777627937229
20
1.13595999193156
30
1.33080197518557e-016
11
5.93434355978692
21
1.12824947171371
31
-8.89427674687686e-017
  0
LINE
 8
Layer0
10
5.93434355978692
20
1.12824947171371
30
-8.89427674687686e-017
11
5.95234195329082
21
1.12508960879802
31
-8.9048926044763e-017
  0
LINE
 8
Layer0
10
5.95234195329082
20
1.12508960879802
30
-8.9048926044763e-017
11
5.97054489911044
21
1.12669574262028
31
-8.92756486029388e-017
  0
LINE
 8
Layer0
10
5.97054489911044
20
1.12669574262028
30
-8.92756486029388e-017
11
5.98771189656997
21
1.13295841781477
31
-8.96074843756327e-017
  0
LINE
 8
Layer0
10
5.98771189656997
20
1.13295841781477
30
-8.96074843756327e-017
11
6.00267304316235
21
1.14345084341654
31
1.32022785621711e-016
  0
LINE
 8
Layer0
10
6.00267304316235
20
1.14345084341654
30
1.32022785621711e-016
11
6.01440876147176
21
1.15745797796038
31
1.31554187779631e-016
  0
LINE
 8
Layer0
10
6.01440876147176
20
1.15745797796038
30
1.31554187779631e-016
11
6.02211928168961
21
1.17402525837502
31
1.31063261191701e-016
  0
LINE
 8
Layer0
10
6.02211928168961
20
1.17402525837502
30
1.31063261191701e-016
11
6.0252791446053
21
1.19202365187892
31
-9.14611432314369e-017
  0
LINE
 8
Layer0
10
6.0252791446053
20
1.19202365187892
30
-9.14611432314369e-017
11
6.02367301078304
21
1.21022659769854
31
-3.63859668655722e-017
  0
LINE
 8
Layer0
10
6.02367301078304
20
1.21022659769854
30
-3.63859668655722e-017
11
6.01741033558855
21
1.22739359515807
31
-3.6748406131658e-017
  0
LINE
 8
Layer0
10
6.01741033558855
20
1.22739359515807
30
-3.6748406131658e-017
11
6.00691790998678
21
1.24235474175044
31
-3.70126101614121e-017
  0
LINE
 8
Layer0
10
6.00691790998678
20
1.24235474175044
30
-3.70126101614121e-017
11
5.99291077544294
21
1.25409046005985
31
-9.26717251180823e-017
  0
LINE
 8
Layer0
10
5.99291077544294
20
1.25409046005985
30
-9.26717251180823e-017
11
5.9763434950283
21
1.2618009802777
31
-9.26933650557877e-017
  0
LINE
 8
Layer0
10
5.9763434950283
20
1.2618009802777
30
-9.26933650557877e-017
11
5.9583451015244
21
1.26496084319339
31
-9.25872064797933e-017
  0
LINE
 8
Layer0
10
5.9583451015244
20
1.26496084319339
30
-9.25872064797933e-017
11
5.94014215570478
21
1.26335470937113
31
-9.23604839216176e-017
  0
LINE
 8
Layer0
10
5.94014215570478
20
1.26335470937113
30
-9.23604839216176e-017
11
5.92297515824525
21
1.25709203417664
31
-9.20286481489236e-017
  0
LINE
 8
Layer0
10
5.92297515824525
20
1.25709203417664
30
-9.20286481489236e-017
11
5.90801401165288
21
1.24659960857487
31
-9.16143132212359e-017
  0
LINE
 8
Layer0
10
5.90801401165288
20
1.24659960857487
30
-9.16143132212359e-017
11
5.89627829334347
21
1.23259247403103
31
-3.56345641478977e-017
  0
LINE
 8
Layer0
10
5.89627829334347
20
1.23259247403103
30
-3.56345641478977e-017
11
5.88856777312561
21
1.2160251936164
31
-3.5143637559968e-017
  0
LINE
 8
Layer0
10
5.88856777312561
20
1.2160251936164
30
-3.5143637559968e-017
11
5.88540791020993
21
1.19802680011249
31
-9.01749892931194e-017
  0
LINE
 8
Layer0
10
5.88540791020993
20
1.19802680011249
30
-9.01749892931194e-017
11
5.88701404403219
21
1.17982385429287
31
-8.97390144277263e-017
  0
LINE
 8
Layer0
10
5.88701404403219
20
1.17982385429287
30
-8.97390144277263e-017
11
5.89327671922668
21
1.16265685683334
31
1.32668029763391e-016
  0
LINE
 8
Layer0
10
5.89327671922668
20
1.16265685683334
30
1.32668029763391e-016
11
5.90376914482844
21
1.14769571024097
31
1.32932233793145e-016
  0
LINE
 8
Layer0
10
5.90376914482844
20
1.14769571024097
30
1.32932233793145e-016
11
5.91777627937229
21
1.13595999193156
31
1.33080197518557e-016
  0
LINE
 8
Layer0
10
5.95234195329082
20
2.99762343792042
30
-2.02297225403151e-015
11
5.97054489911044
21
2.99922957174268
31
-2.02319897658968e-015
  0
LINE
 8
Layer0
10
5.97054489911044
20
2.99922957174268
30
-2.02319897658968e-015
11
5.98771189656998
21
3.00549224693717
31
-2.02353081236238e-015
  0
LINE
 8
Layer0
10
5.98771189656998
20
3.00549224693717
30
-2.02353081236238e-015
11
6.00267304316235
21
3.01598467253894
31
-2.02394514729006e-015
  0
LINE
 8
Layer0
10
6.00267304316235
20
3.01598467253894
30
-2.02394514729006e-015
11
6.01440876147176
21
3.02999180708278
31
-2.02441374513214e-015
  0
LINE
 8
Layer0
10
6.01440876147176
20
3.02999180708278
30
-2.02441374513214e-015
11
6.02211928168961
21
3.04655908749742
31
-2.02490467172007e-015
  0
LINE
 8
Layer0
10
6.02211928168961
20
3.04655908749742
30
-2.02490467172007e-015
11
6.0252791446053
21
3.06455748100132
31
-2.02538447121818e-015
  0
LINE
 8
Layer0
10
6.0252791446053
20
3.06455748100132
30
-2.02538447121818e-015
11
6.02367301078304
21
3.08276042682094
31
-2.13684274854609e-015
  0
LINE
 8
Layer0
10
6.02367301078304
20
3.08276042682094
30
-2.13684274854609e-015
11
6.01741033558855
21
3.09992742428047
31
-2.13720518781217e-015
  0
LINE
 8
Layer0
10
6.01741033558855
20
3.09992742428047
30
-2.13720518781217e-015
11
6.00691790998677
21
3.11488857087284
31
-2.13746939184193e-015
  0
LINE
 8
Layer0
10
6.00691790998677
20
3.11488857087284
30
-2.13746939184193e-015
11
5.99291077544293
21
3.12662428918225
31
-2.13761735556734e-015
  0
LINE
 8
Layer0
10
5.99291077544293
20
3.12662428918225
30
-2.13761735556734e-015
11
5.9763434950283
21
3.13433480940011
31
-1.97110554181127e-015
  0
LINE
 8
Layer0
10
5.9763434950283
20
3.13433480940011
30
-1.97110554181127e-015
11
5.9583451015244
21
3.13749467231579
31
-2.08202168569779e-015
  0
LINE
 8
Layer0
10
5.9583451015244
20
3.13749467231579
30
-2.08202168569779e-015
11
5.94014215570478
21
3.13588853849353
31
-1.9707726606771e-015
  0
LINE
 8
Layer0
10
5.94014215570478
20
3.13588853849353
30
-1.9707726606771e-015
11
5.92297515824525
21
3.12962586329904
31
-2.13697427859818e-015
  0
LINE
 8
Layer0
10
5.92297515824525
20
3.12962586329904
30
-2.13697427859818e-015
11
5.90801401165288
21
3.11913343769727
31
-2.13655994367049e-015
  0
LINE
 8
Layer0
10
5.90801401165288
20
3.11913343769727
30
-2.13655994367049e-015
11
5.89627829334346
21
3.10512630315343
31
-2.13609134582841e-015
  0
LINE
 8
Layer0
10
5.89627829334346
20
3.10512630315343
30
-2.13609134582841e-015
11
5.88856777312561
21
3.08855902273879
31
-2.13560041924048e-015
  0
LINE
 8
Layer0
10
5.88856777312561
20
3.08855902273879
30
-2.13560041924048e-015
11
5.88540791020993
21
3.0705606292349
31
-2.13512061974238e-015
  0
LINE
 8
Layer0
10
5.88540791020993
20
3.0705606292349
30
-2.13512061974238e-015
11
5.88701404403219
21
3.05235768341527
31
-2.02366234241447e-015
  0
LINE
 8
Layer0
10
5.88701404403219
20
3.05235768341527
30
-2.02366234241447e-015
11
5.89327671922668
21
3.03519068595574
31
-2.02329990314838e-015
  0
LINE
 8
Layer0
10
5.89327671922668
20
3.03519068595574
30
-2.02329990314838e-015
11
5.90376914482844
21
3.02022953936337
31
-2.02303569911863e-015
  0
LINE
 8
Layer0
10
5.90376914482844
20
3.02022953936337
30
-2.02303569911863e-015
11
5.91777627937229
21
3.00849382105396
31
-2.02288773539322e-015
  0
LINE
 8
Layer0
10
5.91777627937229
20
3.00849382105396
30
-2.02288773539322e-015
11
5.93434355978692
21
3.00078330083611
31
-2.02286609545551e-015
  0
LINE
 8
Layer0
10
5.93434355978692
20
3.00078330083611
30
-2.02286609545551e-015
11
5.95234195329082
21
2.99762343792042
31
-2.02297225403151e-015
  0
LINE
 8
Layer0
10
5.14557994260435
20
3.03073651717986
30
-4.6120403083248e-016
11
5.15713883234804
21
3.01658310874724
31
-4.60970848291706e-016
  0
LINE
 8
Layer0
10
5.15713883234804
20
3.01658310874724
30
-4.60970848291706e-016
11
5.17196703413016
21
3.00590362681806
31
-4.60857564508872e-016
  0
LINE
 8
Layer0
10
5.17196703413016
20
3.00590362681806
30
-4.60857564508872e-016
11
5.18905403050405
21
2.99942586043711
31
-4.60871899586569e-016
  0
LINE
 8
Layer0
10
5.18905403050405
20
2.99942586043711
30
-4.60871899586569e-016
11
5.2072353709044
21
2.99759125867825
31
-4.6101287661294e-016
  0
LINE
 8
Layer0
10
5.2072353709044
20
2.99759125867825
30
-4.6101287661294e-016
11
5.22527202702902
21
3.00052484661952
31
-4.61270888236614e-016
  0
LINE
 8
Layer0
10
5.22527202702902
20
3.00052484661952
30
-4.61270888236614e-016
11
5.24193483057001
21
3.00802670509069
31
-4.61628351391822e-016
  0
LINE
 8
Layer0
10
5.24193483057001
20
3.00802670509069
30
-4.61628351391822e-016
11
5.25608823900263
21
3.01958559483438
31
-4.62060905555273e-016
  0
LINE
 8
Layer0
10
5.25608823900263
20
3.01958559483438
30
-4.62060905555273e-016
11
5.26676772093181
21
3.03441379661651
31
-4.62539072875557e-016
  0
LINE
 8
Layer0
10
5.26676772093181
20
3.03441379661651
30
-4.62539072875557e-016
11
5.27324548731275
21
3.05150079299039
31
-4.63030267040005e-016
  0
LINE
 8
Layer0
10
5.27324548731275
20
3.05150079299039
30
-4.63030267040005e-016
11
5.27508008907162
21
3.06968213339074
31
-4.63501013978047e-016
  0
LINE
 8
Layer0
10
5.27508008907162
20
3.06968213339074
30
-4.63501013978047e-016
11
5.27214650113035
21
3.08771878951537
31
-4.63919233063801e-016
  0
LINE
 8
Layer0
10
5.27214650113035
20
3.08771878951537
30
-4.63919233063801e-016
11
5.26464464265918
21
3.10438159305635
31
-4.08745272126456e-016
  0
LINE
 8
Layer0
10
5.26464464265918
20
3.10438159305635
30
-4.08745272126456e-016
11
5.25308575291549
21
3.11853500148897
31
-5.20000757129745e-016
  0
LINE
 8
Layer0
10
5.25308575291549
20
3.11853500148897
30
-5.20000757129745e-016
11
5.23825755113337
21
3.12921448341815
31
-5.20114040912579e-016
  0
LINE
 8
Layer0
10
5.23825755113337
20
3.12921448341815
30
-5.20114040912579e-016
11
5.22117055475948
21
3.1356922497991
31
-5.20099705834882e-016
  0
LINE
 8
Layer0
10
5.22117055475948
20
3.1356922497991
30
-5.20099705834882e-016
11
5.20298921435913
21
3.13752685155796
31
-5.19958728808511e-016
  0
LINE
 8
Layer0
10
5.20298921435913
20
3.13752685155796
30
-5.19958728808511e-016
11
5.1849525582345
21
3.13459326361669
31
-5.19700717184837e-016
  0
LINE
 8
Layer0
10
5.1849525582345
20
3.13459326361669
30
-5.19700717184837e-016
11
5.16828975469352
21
3.12709140514552
31
-5.19343254029629e-016
  0
LINE
 8
Layer0
10
5.16828975469352
20
3.12709140514552
30
-5.19343254029629e-016
11
5.1541363462609
21
3.11553251540183
31
-5.18910699866178e-016
  0
LINE
 8
Layer0
10
5.1541363462609
20
3.11553251540183
30
-5.18910699866178e-016
11
5.14345686433172
21
3.10070431361971
31
-5.18432532545894e-016
  0
LINE
 8
Layer0
10
5.14345686433172
20
3.10070431361971
30
-5.18432532545894e-016
11
5.13697909795077
21
3.08361731724583
31
-4.62430187150188e-016
  0
LINE
 8
Layer0
10
5.13697909795077
20
3.08361731724583
30
-4.62430187150188e-016
11
5.13514449619192
21
3.06543597684547
31
-4.61959440212147e-016
  0
LINE
 8
Layer0
10
5.13514449619192
20
3.06543597684547
30
-4.61959440212147e-016
11
5.13807808413318
21
3.04739932072085
31
-4.61541221126392e-016
  0
LINE
 8
Layer0
10
5.13807808413318
20
3.04739932072085
30
-4.61541221126392e-016
11
5.14557994260435
21
3.03073651717986
31
-4.6120403083248e-016
  0
LINE
 8
Layer0
10
4.25166538650492
20
3.12268349360459
30
-6.57380077228756e-017
11
4.23592807865154
21
3.1319713374822
31
-6.5807371270753e-017
  0
LINE
 8
Layer0
10
4.23592807865154
20
3.1319713374822
30
-6.5807371270753e-017
11
4.21832313567623
21
3.13686959076303
31
-6.57484601968367e-017
  0
LINE
 8
Layer0
10
4.21832313567623
20
3.13686959076303
30
-6.57484601968367e-017
11
4.20005030534922
21
3.13704444558073
31
-6.5565289193459e-017
  0
LINE
 8
Layer0
10
4.20005030534922
20
3.13704444558073
30
-6.5565289193459e-017
11
4.18235485086
21
3.13248398586844
31
-6.52703410617956e-017
  0
LINE
 8
Layer0
10
4.18235485086
20
3.13248398586844
30
-6.52703410617956e-017
11
4.16644268818892
21
3.12349899941904
31
-6.48837160295946e-017
  0
LINE
 8
Layer0
10
4.16644268818892
20
3.12349899941904
30
-6.48837160295946e-017
11
4.15339820492589
21
3.11070179821066
31
-6.44317619538725e-017
  0
LINE
 8
Layer0
10
4.15339820492589
20
3.11070179821066
30
-6.44317619538725e-017
11
4.14411036104828
21
3.09496449035727
31
-6.39452787580002e-017
  0
LINE
 8
Layer0
10
4.14411036104828
20
3.09496449035727
30
-6.39452787580002e-017
11
4.13921210776745
21
3.07735954738196
31
1.03076034225949e-016
  0
LINE
 8
Layer0
10
4.13921210776745
20
3.07735954738196
30
1.03076034225949e-016
11
4.13903725294975
21
3.05908671705494
31
1.03532022806027e-016
  0
LINE
 8
Layer0
10
4.13903725294975
20
3.05908671705494
30
1.03532022806027e-016
11
4.14359771266204
21
3.04139126256573
31
-1.18119539117199e-016
  0
LINE
 8
Layer0
10
4.14359771266204
20
3.04139126256573
30
-1.18119539117199e-016
11
4.15258269911144
21
3.02547909989464
31
-1.17816226924704e-016
  0
LINE
 8
Layer0
10
4.15258269911144
20
3.02547909989464
30
-1.17816226924704e-016
11
4.16537990031983
21
3.01243461663162
31
-6.21121645349341e-017
  0
LINE
 8
Layer0
10
4.16537990031983
20
3.01243461663162
30
-6.21121645349341e-017
11
4.18111720817321
21
3.00314677275401
31
-6.20428009870568e-017
  0
LINE
 8
Layer0
10
4.18111720817321
20
3.00314677275401
30
-6.20428009870568e-017
11
4.19872215114853
21
2.99824851947318
31
-6.21017120609731e-017
  0
LINE
 8
Layer0
10
4.19872215114853
20
2.99824851947318
30
-6.21017120609731e-017
11
4.21699498147554
21
2.99807366465548
31
-6.22848830643508e-017
  0
LINE
 8
Layer0
10
4.21699498147554
20
2.99807366465548
30
-6.22848830643508e-017
11
4.23469043596475
21
3.00263412436777
31
-6.25798311960141e-017
  0
LINE
 8
Layer0
10
4.23469043596475
20
3.00263412436777
30
-6.25798311960141e-017
11
4.25060259863584
21
3.01161911081717
31
-6.29664562282151e-017
  0
LINE
 8
Layer0
10
4.25060259863584
20
3.01161911081717
30
-6.29664562282151e-017
11
4.26364708189886
21
3.02441631202556
31
-1.18929561535195e-016
  0
LINE
 8
Layer0
10
4.26364708189886
20
3.02441631202556
30
-1.18929561535195e-016
11
4.27293492577647
21
3.04015361987894
31
-1.19416044731067e-016
  0
LINE
 8
Layer0
10
4.27293492577647
20
3.04015361987894
30
-1.19416044731067e-016
11
4.2778331790573
21
3.05775856285426
31
1.02140700903789e-016
  0
LINE
 8
Layer0
10
4.2778331790573
20
3.05775856285426
30
1.02140700903789e-016
11
4.278008033875
21
3.07603139318127
31
1.0168471232371e-016
  0
LINE
 8
Layer0
10
4.278008033875
20
3.07603139318127
30
1.0168471232371e-016
11
4.27344757416271
21
3.09372684767048
31
1.01291669321904e-016
  0
LINE
 8
Layer0
10
4.27344757416271
20
3.09372684767048
30
1.01291669321904e-016
11
4.26446258771331
21
3.10963901034157
31
-6.55450965643636e-017
  0
LINE
 8
Layer0
10
4.26446258771331
20
3.10963901034157
30
-6.55450965643636e-017
11
4.25166538650492
21
3.12268349360459
31
-6.57380077228756e-017
  0
LINE
 8
Layer0
10
3.27613745125261
20
3.08567638827528
30
-5.48072041610862e-017
11
3.26914442167729
21
3.10255905511811
31
-5.51550810768583e-017
  0
LINE
 8
Layer0
10
3.26914442167729
20
3.10255905511811
30
-5.51550810768583e-017
11
3.25802011809543
21
3.11705652980117
31
-5.54012755753203e-017
  0
LINE
 8
Layer0
10
3.25802011809543
20
3.11705652980117
30
-5.54012755753203e-017
11
3.24352264341238
21
3.12818083338302
31
-5.55290099082577e-017
  0
LINE
 8
Layer0
10
3.24352264341238
20
3.12818083338302
30
-5.55290099082577e-017
11
3.22663997656955
21
3.13517386295834
31
-5.55295791919716e-017
  0
LINE
 8
Layer0
10
3.22663997656955
20
3.13517386295834
30
-5.55295791919716e-017
11
3.20852264341238
21
3.13755905511811
31
-5.54029446307178e-017
  0
LINE
 8
Layer0
10
3.20852264341238
20
3.13755905511811
30
-5.54029446307178e-017
11
3.1904053102552
21
3.13517386295834
31
-5.51577361605722e-017
  0
LINE
 8
Layer0
10
3.1904053102552
20
3.13517386295834
30
-5.51577361605722e-017
11
3.17352264341238
21
3.12818083338302
31
-5.48106643335491e-017
  0
LINE
 8
Layer0
10
3.17352264341238
20
3.12818083338302
30
-5.48106643335491e-017
11
3.15902516872932
21
3.11705652980117
31
-5.43853815210968e-017
  0
LINE
 8
Layer0
10
3.15902516872932
20
3.11705652980117
30
-5.43853815210968e-017
11
3.14790086514747
21
3.10255905511811
31
-5.39108700440709e-017
  0
LINE
 8
Layer0
10
3.14790086514747
20
3.10255905511811
30
-5.39108700440709e-017
11
3.14090783557214
21
3.08567638827528
31
-5.34194670754633e-017
  0
LINE
 8
Layer0
10
3.14090783557214
20
3.08567638827528
30
-5.34194670754633e-017
11
3.13852264341238
21
3.06755905511811
31
-5.29446609155029e-017
  0
LINE
 8
Layer0
10
3.13852264341238
20
3.06755905511811
30
-5.29446609155029e-017
11
3.14090783557214
21
3.04944172196093
31
-5.25188088193367e-017
  0
LINE
 8
Layer0
10
3.14090783557214
20
3.04944172196093
30
-5.25188088193367e-017
11
3.14790086514747
21
3.03255905511811
31
1.14362521790209e-016
  0
LINE
 8
Layer0
10
3.14790086514747
20
3.03255905511811
30
1.14362521790209e-016
11
3.15902516872932
21
3.01806158043505
31
1.14608716288671e-016
  0
LINE
 8
Layer0
10
3.15902516872932
20
3.01806158043505
30
1.14608716288671e-016
11
3.17352264341238
21
3.00693727685319
31
1.14736450621608e-016
  0
LINE
 8
Layer0
10
3.17352264341238
20
3.00693727685319
30
1.14736450621608e-016
11
3.1904053102552
21
2.99994424727787
31
-1.07307585019709e-016
  0
LINE
 8
Layer0
10
3.1904053102552
20
2.99994424727787
30
-1.07307585019709e-016
11
3.20852264341238
21
2.99755905511811
31
-1.07434219580963e-016
  0
LINE
 8
Layer0
10
3.20852264341238
20
2.99755905511811
30
-1.07434219580963e-016
11
3.22663997656955
21
2.99994424727787
31
-1.07679428051109e-016
  0
LINE
 8
Layer0
10
3.22663997656955
20
2.99994424727787
30
-1.07679428051109e-016
11
3.24352264341237
21
3.0069372768532
31
1.140181050469e-016
  0
LINE
 8
Layer0
10
3.24352264341237
20
3.0069372768532
30
1.140181050469e-016
11
3.25802011809544
21
3.01806158043505
31
1.13592822234447e-016
  0
LINE
 8
Layer0
10
3.25802011809544
20
3.01806158043505
30
1.13592822234447e-016
11
3.26914442167729
21
3.03255905511811
31
1.13118310757421e-016
  0
LINE
 8
Layer0
10
3.26914442167729
20
3.03255905511811
30
1.13118310757421e-016
11
3.27613745125261
21
3.04944172196093
31
-5.39065459049596e-017
  0
LINE
 8
Layer0
10
3.27613745125261
20
3.04944172196093
30
-5.39065459049596e-017
11
3.27852264341238
21
3.06755905511811
31
-5.438135206492e-017
  0
LINE
 8
Layer0
10
3.27852264341238
20
3.06755905511811
30
-5.438135206492e-017
11
3.27613745125261
21
3.08567638827528
31
-5.48072041610862e-017
  0
LINE
 8
Layer0
10
2.27613745125261
20
3.04944172196093
30
-4.36444662662662e-017
11
2.27852264341238
21
3.06755905511811
31
-4.41192724262266e-017
  0
LINE
 8
Layer0
10
2.27852264341238
20
3.06755905511811
30
-4.41192724262266e-017
11
2.27613745125261
21
3.08567638827528
31
-4.45451245223928e-017
  0
LINE
 8
Layer0
10
2.27613745125261
20
3.08567638827528
30
-4.45451245223928e-017
11
2.26914442167729
21
3.10255905511811
31
-4.48930014381649e-017
  0
LINE
 8
Layer0
10
2.26914442167729
20
3.10255905511811
30
-4.48930014381649e-017
11
2.25802011809544
21
3.11705652980117
31
1.21394257757147e-016
  0
LINE
 8
Layer0
10
2.25802011809544
20
3.11705652980117
30
1.21394257757147e-016
11
2.24352264341238
21
3.12818083338302
31
1.21266523424209e-016
  0
LINE
 8
Layer0
10
2.24352264341238
20
3.12818083338302
30
1.21266523424209e-016
11
2.22663997656955
21
3.13517386295834
31
1.21265954140495e-016
  0
LINE
 8
Layer0
10
2.22663997656955
20
3.13517386295834
30
1.21265954140495e-016
11
2.20852264341238
21
3.13755905511811
31
1.21392588701749e-016
  0
LINE
 8
Layer0
10
2.20852264341238
20
3.13755905511811
30
1.21392588701749e-016
11
2.1904053102552
21
3.13517386295834
31
1.21637797171895e-016
  0
LINE
 8
Layer0
10
2.1904053102552
20
3.13517386295834
30
1.21637797171895e-016
11
2.17352264341238
21
3.12818083338302
31
1.21984868998918e-016
  0
LINE
 8
Layer0
10
2.17352264341238
20
3.12818083338302
30
1.21984868998918e-016
11
2.15902516872932
21
3.11705652980116
31
1.2241015181137e-016
  0
LINE
 8
Layer0
10
2.15902516872932
20
3.11705652980116
30
1.2241015181137e-016
11
2.14790086514746
21
3.10255905511811
31
1.22884663288396e-016
  0
LINE
 8
Layer0
10
2.14790086514746
20
3.10255905511811
30
1.22884663288396e-016
11
2.14090783557214
21
3.08567638827528
31
-4.31573874367699e-017
  0
LINE
 8
Layer0
10
2.14090783557214
20
3.08567638827528
30
-4.31573874367699e-017
11
2.13852264341238
21
3.06755905511811
31
-4.26825812768095e-017
  0
LINE
 8
Layer0
10
2.13852264341238
20
3.06755905511811
30
-4.26825812768095e-017
11
2.14090783557214
21
3.04944172196093
31
-4.22567291806433e-017
  0
LINE
 8
Layer0
10
2.14090783557214
20
3.04944172196093
30
-4.22567291806433e-017
11
2.14790086514746
21
3.03255905511811
31
-4.19088522648712e-017
  0
LINE
 8
Layer0
10
2.14790086514746
20
3.03255905511811
30
-4.19088522648712e-017
11
2.15902516872932
21
3.01806158043505
31
-4.16626577664092e-017
  0
LINE
 8
Layer0
10
2.15902516872932
20
3.01806158043505
30
-4.16626577664092e-017
11
2.17352264341238
21
3.00693727685319
31
-4.15349234334719e-017
  0
LINE
 8
Layer0
10
2.17352264341238
20
3.00693727685319
30
-4.15349234334719e-017
11
2.1904053102552
21
2.99994424727787
31
-4.1534354149758e-017
  0
LINE
 8
Layer0
10
2.1904053102552
20
2.99994424727787
30
-4.1534354149758e-017
11
2.20852264341238
21
2.9975590551181
31
1.24872464982762e-016
  0
LINE
 8
Layer0
10
2.20852264341238
20
2.9975590551181
30
1.24872464982762e-016
11
2.22663997656955
21
2.99994424727787
31
1.24627256512616e-016
  0
LINE
 8
Layer0
10
2.22663997656955
20
2.99994424727787
30
1.24627256512616e-016
11
2.24352264341238
21
3.00693727685319
31
-4.22532690081804e-017
  0
LINE
 8
Layer0
10
2.24352264341238
20
3.00693727685319
30
-4.22532690081804e-017
11
2.25802011809544
21
3.01806158043505
31
-4.26785518206327e-017
  0
LINE
 8
Layer0
10
2.25802011809544
20
3.01806158043505
30
-4.26785518206327e-017
11
2.26914442167729
21
3.03255905511811
31
-4.31530632976586e-017
  0
LINE
 8
Layer0
10
2.26914442167729
20
3.03255905511811
30
-4.31530632976586e-017
11
2.27613745125261
21
3.04944172196093
31
-4.36444662662662e-017
  0
LINE
 8
Layer0
10
1.21050417423639
20
2.99758710691317
30
-3.14199409621287e-017
11
1.22854672802924
21
3.00048420114691
31
-3.16771060110924e-017
  0
LINE
 8
Layer0
10
1.22854672802924
20
3.00048420114691
30
-3.16771060110924e-017
11
1.24522467354682
21
3.00795233583235
31
-3.20338863073126e-017
  0
LINE
 8
Layer0
10
1.24522467354682
20
3.00795233583235
30
-3.20338863073126e-017
11
1.2594014363637
21
3.01948256993235
31
-3.24659678632092e-017
  0
LINE
 8
Layer0
10
1.2594014363637
20
3.01948256993235
30
-3.24659678632092e-017
11
1.27011089352214
21
3.03428913704761
31
-3.29439050347965e-017
  0
LINE
 8
Layer0
10
1.27011089352214
20
3.03428913704761
30
-3.29439050347965e-017
11
1.27662321321499
21
3.05136299409824
31
-3.34351271936591e-017
  0
LINE
 8
Layer0
10
1.27662321321499
20
3.05136299409824
30
-3.34351271936591e-017
11
1.27849459161731
21
3.06954058594211
31
1.3262729533232e-016
  0
LINE
 8
Layer0
10
1.27849459161731
20
3.06954058594211
30
1.3262729533232e-016
11
1.27559749738357
21
3.08758313973497
31
1.32208555151263e-016
  0
LINE
 8
Layer0
10
1.27559749738357
20
3.08758313973497
30
1.32208555151263e-016
11
1.26812936269813
21
3.10426108525254
31
2.08483399457655e-017
  0
LINE
 8
Layer0
10
1.26812936269813
20
3.10426108525254
30
2.08483399457655e-017
11
1.25659912859813
21
3.11843784806943
31
2.06142828358665e-017
  0
LINE
 8
Layer0
10
1.25659912859813
20
3.11843784806943
30
2.06142828358665e-017
11
1.24179256148287
21
3.12914730522787
31
2.05000319642921e-017
  0
LINE
 8
Layer0
10
1.24179256148287
20
3.12914730522787
30
2.05000319642921e-017
11
1.22471870443224
21
3.13565962492072
31
-9.05089291233841e-017
  0
LINE
 8
Layer0
10
1.22471870443224
20
3.13565962492072
30
-9.05089291233841e-017
11
1.20654111258837
21
3.13753100332304
31
-9.03689046947784e-017
  0
LINE
 8
Layer0
10
1.20654111258837
20
3.13753100332304
30
-9.03689046947784e-017
11
1.18849855879552
21
3.1346339090893
31
-9.01117396458148e-017
  0
LINE
 8
Layer0
10
1.18849855879552
20
3.1346339090893
30
-9.01117396458148e-017
11
1.17182061327794
21
3.12716577440386
31
2.12673431129211e-017
  0
LINE
 8
Layer0
10
1.17182061327794
20
3.12716577440386
30
2.12673431129211e-017
11
1.15764385046105
21
3.11563554030386
31
2.16994246688177e-017
  0
LINE
 8
Layer0
10
1.15764385046105
20
3.11563554030386
30
2.16994246688177e-017
11
1.14693439330261
21
3.1008289731886
31
2.21773618404049e-017
  0
LINE
 8
Layer0
10
1.14693439330261
20
3.1008289731886
30
2.21773618404049e-017
11
1.14042207360976
21
3.08375511613797
31
1.33690886461783e-016
  0
LINE
 8
Layer0
10
1.14042207360976
20
3.08375511613797
30
1.33690886461783e-016
11
1.13855069520745
21
3.0655775242941
31
1.34161917629578e-016
  0
LINE
 8
Layer0
10
1.13855069520745
20
3.0655775242941
30
1.34161917629578e-016
11
1.14144778944119
21
3.04753497050125
31
-3.19527958831386e-017
  0
LINE
 8
Layer0
10
1.14144778944119
20
3.04753497050125
30
-3.19527958831386e-017
11
1.14891592412662
21
3.03085702498367
31
-3.1614883140157e-017
  0
LINE
 8
Layer0
10
1.14891592412662
20
3.03085702498367
30
-3.1614883140157e-017
11
1.16044615822662
21
3.01668026216678
31
-3.1380826030258e-017
  0
LINE
 8
Layer0
10
1.16044615822662
20
3.01668026216678
30
-3.1380826030258e-017
11
1.17525272534189
21
3.00597080500834
31
-3.12665751586836e-017
  0
LINE
 8
Layer0
10
1.17525272534189
20
3.00597080500834
30
-3.12665751586836e-017
11
1.19232658239251
21
2.99945848531549
31
-3.12799165335231e-017
  0
LINE
 8
Layer0
10
1.19232658239251
20
2.99945848531549
30
-3.12799165335231e-017
11
1.21050417423639
21
2.99758710691317
31
-3.14199409621287e-017
  0
LINE
 8
Layer0
10
0.147900865147469
20
3.10255905511811
30
2.54431125028298e-016
11
0.159025168729321
21
3.11705652980116
31
2.53956613551273e-016
  0
LINE
 8
Layer0
10
0.140907835572146
20
3.08567638827528
30
2.54922527996906e-016
11
0.147900865147469
21
3.10255905511811
31
2.54431125028298e-016
  0
LINE
 8
Layer0
10
0.138522643412378
20
3.06755905511811
30
1.44375031694351e-016
11
0.140907835572146
21
3.08567638827528
31
2.54922527996906e-016
  0
LINE
 8
Layer0
10
0.140907835572146
20
3.04944172196093
30
1.44800883790517e-016
11
0.138522643412378
21
3.06755905511811
31
1.44375031694351e-016
  0
LINE
 8
Layer0
10
0.147900865147469
20
3.0325590551181
30
3.6719336563132e-016
11
0.140907835572146
21
3.04944172196093
31
1.44800883790517e-016
  0
LINE
 8
Layer0
10
0.159025168729321
20
3.01806158043505
30
3.67439560129782e-016
11
0.147900865147469
21
3.0325590551181
31
3.6719336563132e-016
  0
LINE
 8
Layer0
10
0.173522643412379
20
3.00693727685319
30
2.56544992000204e-016
11
0.159025168729321
21
3.01806158043505
31
3.67439560129782e-016
  0
LINE
 8
Layer0
10
0.190405310255204
20
2.99994424727787
30
2.56545561283918e-016
11
0.173522643412379
21
3.00693727685319
31
2.56544992000204e-016
  0
LINE
 8
Layer0
10
0.208522643412379
20
2.9975590551181
30
2.56418926722664e-016
11
0.190405310255204
21
2.99994424727787
31
2.56545561283918e-016
  0
LINE
 8
Layer0
10
0.226639976569557
20
2.99994424727787
30
2.56173718252519e-016
11
0.208522643412379
21
2.9975590551181
31
2.56418926722664e-016
  0
LINE
 8
Layer0
10
0.243522643412379
20
3.00693727685319
30
2.55826646425495e-016
11
0.226639976569557
21
2.99994424727787
31
2.56173718252519e-016
  0
LINE
 8
Layer0
10
0.258020118095437
20
3.01806158043505
30
3.66423666075559e-016
11
0.243522643412379
21
3.00693727685319
31
2.55826646425495e-016
  0
LINE
 8
Layer0
10
0.269144421677292
20
3.03255905511811
30
3.65949154598533e-016
11
0.258020118095437
21
3.01806158043505
31
3.66423666075559e-016
  0
LINE
 8
Layer0
10
0.276137451252615
20
3.04944172196093
30
3.65457751629925e-016
11
0.269144421677292
21
3.03255905511811
31
3.65949154598533e-016
  0
LINE
 8
Layer0
10
0.278522643412379
20
3.06755905511811
30
1.42938340544934e-016
11
0.276137451252615
21
3.04944172196093
31
3.65457751629925e-016
  0
LINE
 8
Layer0
10
0.276137451252615
20
3.08567638827528
30
2.53534790911283e-016
11
0.278522643412379
21
3.06755905511811
31
1.42938340544934e-016
  0
LINE
 8
Layer0
10
0.269144421677292
20
3.10255905511811
30
2.53186913995511e-016
11
0.276137451252615
21
3.08567638827528
31
2.53534790911283e-016
  0
LINE
 8
Layer0
10
0.258020118095437
20
3.11705652980117
30
2.52940719497049e-016
11
0.269144421677292
21
3.10255905511811
31
2.53186913995511e-016
  0
LINE
 8
Layer0
10
0.243522643412379
20
3.12818083338302
30
2.52812985164112e-016
11
0.258020118095437
21
3.11705652980117
31
2.52940719497049e-016
  0
LINE
 8
Layer0
10
0.226639976569557
20
3.13517386295834
30
2.52812415880398e-016
11
0.243522643412379
21
3.12818083338302
31
2.52812985164112e-016
  0
LINE
 8
Layer0
10
0.208522643412379
20
3.13755905511811
30
2.52939050441652e-016
11
0.226639976569557
21
3.13517386295834
31
2.52812415880398e-016
  0
LINE
 8
Layer0
10
0.190405310255204
20
3.13517386295834
30
2.53184258911797e-016
11
0.208522643412379
21
3.13755905511811
31
2.52939050441652e-016
  0
LINE
 8
Layer0
10
0.173522643412378
20
3.12818083338302
30
2.5353133073882e-016
11
0.190405310255204
21
3.13517386295834
31
2.53184258911797e-016
  0
LINE
 8
Layer0
10
0.159025168729321
20
3.11705652980116
30
2.53956613551273e-016
11
0.173522643412378
21
3.12818083338302
31
2.5353133073882e-016
  0
LINE
 8
Layer0
10
0.269144421677288
20
4.11008428111381
30
-1.6037243847536e-015
11
0.258020118095436
21
4.12458175579687
31
-1.60397057925206e-015
  0
LINE
 8
Layer0
10
0.258020118095436
20
4.12458175579687
30
-1.60397057925206e-015
11
0.243522643412379
21
4.13570605937872
31
-1.604098313585e-015
  0
LINE
 8
Layer0
10
0.243522643412379
20
4.13570605937872
30
-1.604098313585e-015
11
0.226639976569553
21
4.14269908895405
31
-1.60409888286871e-015
  0
LINE
 8
Layer0
10
0.226639976569553
20
4.14269908895405
30
-1.60409888286871e-015
11
0.208522643412379
21
4.14508428111381
31
-1.60397224830746e-015
  0
LINE
 8
Layer0
10
0.208522643412379
20
4.14508428111381
30
-1.60397224830746e-015
11
0.1904053102552
21
4.14269908895405
31
-1.60372703983731e-015
  0
LINE
 8
Layer0
10
0.1904053102552
20
4.14269908895405
30
-1.60372703983731e-015
11
0.173522643412378
21
4.13570605937872
31
-1.60337996801029e-015
  0
LINE
 8
Layer0
10
0.173522643412378
20
4.13570605937872
30
-1.60337996801029e-015
11
0.159025168729321
21
4.12458175579687
31
-1.60295468519784e-015
  0
LINE
 8
Layer0
10
0.159025168729321
20
4.12458175579687
30
-1.60295468519784e-015
11
0.147900865147465
21
4.11008428111381
31
-1.60248017372081e-015
  0
LINE
 8
Layer0
10
0.147900865147465
20
4.11008428111381
30
-1.60248017372081e-015
11
0.140907835572142
21
4.09320161427099
31
-1.6019887707522e-015
  0
LINE
 8
Layer0
10
0.140907835572142
20
4.09320161427099
30
-1.6019887707522e-015
11
0.138522643412378
21
4.07508428111381
31
-1.60151396459224e-015
  0
LINE
 8
Layer0
10
0.138522643412378
20
4.07508428111381
30
-1.60151396459224e-015
11
0.140907835572142
21
4.05696694795664
31
-1.60108811249608e-015
  0
LINE
 8
Layer0
10
0.140907835572142
20
4.05696694795664
30
-1.60108811249608e-015
11
0.147900865147465
21
4.04008428111381
31
-1.60074023558031e-015
  0
LINE
 8
Layer0
10
0.147900865147465
20
4.04008428111381
30
-1.60074023558031e-015
11
0.159025168729321
21
4.02558680643075
31
-1.60049404108184e-015
  0
LINE
 8
Layer0
10
0.159025168729321
20
4.02558680643075
30
-1.60049404108184e-015
11
0.173522643412379
21
4.0144625028489
31
-1.60036630674891e-015
  0
LINE
 8
Layer0
10
0.173522643412379
20
4.0144625028489
30
-1.60036630674891e-015
11
0.1904053102552
21
4.00746947327358
31
-1.65587688869645e-015
  0
LINE
 8
Layer0
10
0.1904053102552
20
4.00746947327358
30
-1.65587688869645e-015
11
0.208522643412379
21
4.00508428111381
31
-1.6560035232577e-015
  0
LINE
 8
Layer0
10
0.208522643412379
20
4.00508428111381
30
-1.6560035232577e-015
11
0.226639976569553
21
4.00746947327358
31
-1.65624873172785e-015
  0
LINE
 8
Layer0
10
0.226639976569553
20
4.00746947327358
30
-1.65624873172785e-015
11
0.243522643412379
21
4.0144625028489
31
-1.4900623498611e-015
  0
LINE
 8
Layer0
10
0.243522643412379
20
4.0144625028489
30
-1.4900623498611e-015
11
0.258020118095436
21
4.02558680643075
31
-1.60150993513607e-015
  0
LINE
 8
Layer0
10
0.258020118095436
20
4.02558680643075
30
-1.60150993513607e-015
11
0.269144421677288
21
4.04008428111381
31
-1.60198444661309e-015
  0
LINE
 8
Layer0
10
0.269144421677288
20
4.04008428111381
30
-1.60198444661309e-015
11
0.276137451252611
21
4.05696694795664
31
-1.6024758495817e-015
  0
LINE
 8
Layer0
10
0.276137451252611
20
4.05696694795664
30
-1.6024758495817e-015
11
0.278522643412379
21
4.07508428111381
31
-1.60295065574166e-015
  0
LINE
 8
Layer0
10
0.278522643412379
20
4.07508428111381
30
-1.60295065574166e-015
11
0.276137451252611
21
4.09320161427099
31
-1.60337650783783e-015
  0
LINE
 8
Layer0
10
0.276137451252611
20
4.09320161427099
30
-1.60337650783783e-015
11
0.269144421677288
21
4.11008428111381
31
-1.6037243847536e-015
  0
LINE
 8
Layer0
10
1.2714911138304
20
4.10566158860181
30
2.17967375888672e-016
11
1.26143152570521
21
4.12091713150001
31
2.17691412455393e-016
  0
LINE
 8
Layer0
10
1.26143152570521
20
4.12091713150001
30
2.17691412455393e-016
11
1.24776628468783
21
4.13304924138675
31
3.28552389842128e-016
  0
LINE
 8
Layer0
10
1.24776628468783
20
4.13304924138675
30
3.28552389842128e-016
11
1.23142665437071
21
4.14123113502252
31
2.17494394698644e-016
  0
LINE
 8
Layer0
10
1.23142665437071
20
4.14123113502252
30
2.17494394698644e-016
11
1.21352615355746
21
4.14490522987726
31
2.17586766809711e-016
  0
LINE
 8
Layer0
10
1.21352615355746
20
4.14490522987726
30
2.17586766809711e-016
11
1.1952846717965
21
4.14382114245834
31
2.17800908706096e-016
  0
LINE
 8
Layer0
10
1.1952846717965
20
4.14382114245834
30
2.17800908706096e-016
11
1.17794533592438
21
4.13805275153183
31
2.18122226971446e-016
  0
LINE
 8
Layer0
10
1.17794533592438
20
4.13805275153183
30
2.18122226971446e-016
11
1.16268979302618
21
4.12799316340665
31
3.29551126759497e-016
  0
LINE
 8
Layer0
10
1.16268979302618
20
4.12799316340665
30
3.29551126759497e-016
11
1.15055768313944
21
4.11432792238927
31
2.18992991746901e-016
  0
LINE
 8
Layer0
10
1.15055768313944
20
4.11432792238927
30
2.18992991746901e-016
11
1.14237578950367
21
4.09798829207215
31
2.19483097076566e-016
  0
LINE
 8
Layer0
10
1.14237578950367
20
4.09798829207215
30
2.19483097076566e-016
11
1.13870169464893
21
4.08008779125889
31
2.19965740417696e-016
  0
LINE
 8
Layer0
10
1.13870169464893
20
4.08008779125889
30
2.19965740417696e-016
11
1.13978578206785
21
4.06184630949793
31
2.20408030424199e-016
  0
LINE
 8
Layer0
10
1.13978578206785
20
4.06184630949793
30
2.20408030424199e-016
11
1.14555417299436
21
4.04450697362582
31
2.20779825763052e-016
  0
LINE
 8
Layer0
10
1.14555417299436
20
4.04450697362582
30
2.20779825763052e-016
11
1.15561376111955
21
4.02925143072762
31
2.21055789196332e-016
  0
LINE
 8
Layer0
10
1.15561376111955
20
4.02925143072762
30
2.21055789196332e-016
11
1.16927900213692
21
4.01711932084087
31
2.21217114272112e-016
  0
LINE
 8
Layer0
10
1.16927900213692
20
4.01711932084087
30
2.21217114272112e-016
11
1.18561863245404
21
4.0089374272051
31
2.2125280695308e-016
  0
LINE
 8
Layer0
10
1.18561863245404
20
4.0089374272051
30
2.2125280695308e-016
11
1.2035191332673
21
4.00526333235036
31
2.21160434842014e-016
  0
LINE
 8
Layer0
10
1.2035191332673
20
4.00526333235036
30
2.21160434842014e-016
11
1.22176061502825
21
4.00634741976928
31
2.20946292945629e-016
  0
LINE
 8
Layer0
10
1.22176061502825
20
4.00634741976928
30
2.20946292945629e-016
11
1.23909995090037
21
4.0121158106958
31
2.20624974680279e-016
  0
LINE
 8
Layer0
10
1.23909995090037
20
4.0121158106958
30
2.20624974680279e-016
11
1.25435549379857
21
4.02217539882098
31
2.20218377354743e-016
  0
LINE
 8
Layer0
10
1.25435549379857
20
4.02217539882098
30
2.20218377354743e-016
11
1.26648760368532
21
4.03584063983836
31
2.19754209904824e-016
  0
LINE
 8
Layer0
10
1.26648760368532
20
4.03584063983836
30
2.19754209904824e-016
11
1.27466949732109
21
4.05218027015547
31
2.19264104575159e-016
  0
LINE
 8
Layer0
10
1.27466949732109
20
4.05218027015547
30
2.19264104575159e-016
11
1.27834359217582
21
4.07008077096874
31
2.18781461234029e-016
  0
LINE
 8
Layer0
10
1.27834359217582
20
4.07008077096874
30
2.18781461234029e-016
11
1.27725950475691
21
4.08832225272969
31
2.18339171227525e-016
  0
LINE
 8
Layer0
10
1.27725950475691
20
4.08832225272969
30
2.18339171227525e-016
11
1.2714911138304
21
4.10566158860181
31
2.17967375888672e-016
  0
LINE
 8
Layer0
10
2.1904053102552
20
4.00746947327358
30
-1.10665110361023e-017
11
2.20852264341238
21
4.00508428111381
31
-1.11931455973561e-017
  0
LINE
 8
Layer0
10
2.20852264341238
20
4.00508428111381
30
-1.11931455973561e-017
11
2.22663997656955
21
4.00746947327358
31
-1.14383540675017e-017
  0
LINE
 8
Layer0
10
2.22663997656955
20
4.00746947327358
30
-1.14383540675017e-017
11
2.24352264341238
21
4.0144625028489
31
-1.17854258945247e-017
  0
LINE
 8
Layer0
10
2.24352264341238
20
4.0144625028489
30
-1.17854258945247e-017
11
2.25802011809543
21
4.02558680643075
31
-1.2210708706977e-017
  0
LINE
 8
Layer0
10
2.25802011809543
20
4.02558680643075
30
-1.2210708706977e-017
11
2.26914442167729
21
4.04008428111381
31
-1.23707522646519e-016
  0
LINE
 8
Layer0
10
2.26914442167729
20
4.04008428111381
30
-1.23707522646519e-016
11
2.27613745125261
21
4.05696694795664
31
-1.24198925615126e-016
  0
LINE
 8
Layer0
10
2.27613745125261
20
4.05696694795664
30
-1.24198925615126e-016
11
2.27852264341238
21
4.07508428111381
31
-1.24673731775087e-016
  0
LINE
 8
Layer0
10
2.27852264341238
20
4.07508428111381
30
-1.24673731775087e-016
11
2.27613745125261
21
4.09320161427099
31
-1.25099583871253e-016
  0
LINE
 8
Layer0
10
2.27613745125261
20
4.09320161427099
30
-1.25099583871253e-016
11
2.26914442167729
21
4.11008428111381
31
-6.99363095557671e-017
  0
LINE
 8
Layer0
10
2.26914442167729
20
4.11008428111381
30
-6.99363095557671e-017
11
2.25802011809543
21
4.12458175579687
31
-7.01825040542291e-017
  0
LINE
 8
Layer0
10
2.25802011809543
20
4.12458175579687
30
-7.01825040542291e-017
11
2.24352264341238
21
4.13570605937872
31
-7.03102383871664e-017
  0
LINE
 8
Layer0
10
2.24352264341238
20
4.13570605937872
30
-7.03102383871664e-017
11
2.22663997656955
21
4.14269908895405
31
-7.03108076708803e-017
  0
LINE
 8
Layer0
10
2.22663997656955
20
4.14269908895405
30
-7.03108076708803e-017
11
2.20852264341238
21
4.14508428111381
31
-7.01841731096265e-017
  0
LINE
 8
Layer0
10
2.20852264341238
20
4.14508428111381
30
-7.01841731096265e-017
11
2.1904053102552
21
4.14269908895405
31
-6.99389646394809e-017
  0
LINE
 8
Layer0
10
2.1904053102552
20
4.14269908895405
30
-6.99389646394809e-017
11
2.17352264341238
21
4.13570605937872
31
-6.95918928124579e-017
  0
LINE
 8
Layer0
10
2.17352264341238
20
4.13570605937872
30
-6.95918928124579e-017
11
2.15902516872932
21
4.12458175579687
31
-6.91666100000056e-017
  0
LINE
 8
Layer0
10
2.15902516872932
20
4.12458175579687
30
-6.91666100000056e-017
11
2.14790086514746
21
4.11008428111381
31
-6.86920985229796e-017
  0
LINE
 8
Layer0
10
2.14790086514746
20
4.11008428111381
30
-6.86920985229796e-017
11
2.14090783557214
21
4.09320161427099
31
-1.2371184678563e-016
  0
LINE
 8
Layer0
10
2.14090783557214
20
4.09320161427099
30
-1.2371184678563e-016
11
2.13852264341238
21
4.07508428111381
31
-1.2323704062567e-016
  0
LINE
 8
Layer0
10
2.13852264341238
20
4.07508428111381
30
-1.2323704062567e-016
11
2.14090783557214
21
4.05696694795664
31
-1.22811188529503e-016
  0
LINE
 8
Layer0
10
2.14090783557214
20
4.05696694795664
30
-1.22811188529503e-016
11
2.14790086514746
21
4.04008428111381
31
-1.22463311613731e-016
  0
LINE
 8
Layer0
10
2.14790086514746
20
4.04008428111381
30
-1.22463311613731e-016
11
2.15902516872932
21
4.02558680643075
31
-1.11948146527535e-017
  0
LINE
 8
Layer0
10
2.15902516872932
20
4.02558680643075
30
-1.11948146527535e-017
11
2.17352264341238
21
4.0144625028489
31
-1.10670803198162e-017
  0
LINE
 8
Layer0
10
2.17352264341238
20
4.0144625028489
30
-1.10670803198162e-017
11
2.1904053102552
21
4.00746947327358
31
-1.10665110361023e-017
  0
LINE
 8
Layer0
10
3.27613745125261
20
4.05696694795664
30
-2.34387027913039e-017
11
3.27852264341238
21
4.07508428111381
31
-2.39135089512643e-017
  0
LINE
 8
Layer0
10
3.27852264341238
20
4.07508428111381
30
-2.39135089512643e-017
11
3.27613745125261
21
4.09320161427099
31
-1.35361663509946e-016
  0
LINE
 8
Layer0
10
3.27613745125261
20
4.09320161427099
30
-1.35361663509946e-016
11
3.26914442167729
21
4.11008428111381
31
-1.35709540425718e-016
  0
LINE
 8
Layer0
10
3.26914442167729
20
4.11008428111381
30
-1.35709540425718e-016
11
3.25802011809543
21
4.12458175579687
31
-1.3595573492418e-016
  0
LINE
 8
Layer0
10
3.25802011809543
20
4.12458175579687
30
-1.3595573492418e-016
11
3.24352264341238
21
4.13570605937872
31
-1.36083469257118e-016
  0
LINE
 8
Layer0
10
3.24352264341238
20
4.13570605937872
30
-1.36083469257118e-016
11
3.22663997656955
21
4.14269908895405
31
-1.36084038540832e-016
  0
LINE
 8
Layer0
10
3.22663997656955
20
4.14269908895405
30
-1.36084038540832e-016
11
3.20852264341238
21
4.14508428111381
31
-1.35957403979578e-016
  0
LINE
 8
Layer0
10
3.20852264341238
20
4.14508428111381
30
-1.35957403979578e-016
11
3.1904053102552
21
4.14269908895405
31
-1.35712195509432e-016
  0
LINE
 8
Layer0
10
3.1904053102552
20
4.14269908895405
30
-1.35712195509432e-016
11
3.17352264341237
21
4.13570605937872
31
-1.35365123682409e-016
  0
LINE
 8
Layer0
10
3.17352264341237
20
4.13570605937872
30
-1.35365123682409e-016
11
3.15902516872932
21
4.12458175579687
31
-1.34939840869957e-016
  0
LINE
 8
Layer0
10
3.15902516872932
20
4.12458175579687
30
-1.34939840869957e-016
11
3.14790086514747
21
4.11008428111381
31
-1.34465329392931e-016
  0
LINE
 8
Layer0
10
3.14790086514747
20
4.11008428111381
30
-1.34465329392931e-016
11
3.14090783557214
21
4.09320161427099
31
-1.33973926424323e-016
  0
LINE
 8
Layer0
10
3.14090783557214
20
4.09320161427099
30
-1.33973926424323e-016
11
3.13852264341238
21
4.07508428111381
31
-2.24768178018473e-017
  0
LINE
 8
Layer0
10
3.13852264341238
20
4.07508428111381
30
-2.24768178018473e-017
11
3.14090783557214
21
4.05696694795664
31
-2.2050965705681e-017
  0
LINE
 8
Layer0
10
3.14090783557214
20
4.05696694795664
30
-2.2050965705681e-017
11
3.14790086514747
21
4.04008428111381
31
-2.17030887899089e-017
  0
LINE
 8
Layer0
10
3.14790086514747
20
4.04008428111381
30
-2.17030887899089e-017
11
3.15902516872932
21
4.02558680643075
31
-2.14568942914469e-017
  0
LINE
 8
Layer0
10
3.15902516872932
20
4.02558680643075
30
-2.14568942914469e-017
11
3.17352264341238
21
4.0144625028489
31
-2.13291599585096e-017
  0
LINE
 8
Layer0
10
3.17352264341238
20
4.0144625028489
30
-2.13291599585096e-017
11
3.1904053102552
21
4.00746947327358
31
8.969371178772e-017
  0
LINE
 8
Layer0
10
3.1904053102552
20
4.00746947327358
30
8.969371178772e-017
11
3.20852264341238
21
4.00508428111381
31
-7.69663764673073e-017
  0
LINE
 8
Layer0
10
3.20852264341238
20
4.00508428111381
30
-7.69663764673073e-017
11
3.22663997656955
21
4.00746947327358
31
8.93218687563206e-017
  0
LINE
 8
Layer0
10
3.22663997656955
20
4.00746947327358
30
8.93218687563206e-017
11
3.24352264341238
21
4.0144625028489
31
-2.20475055332182e-017
  0
LINE
 8
Layer0
10
3.24352264341238
20
4.0144625028489
30
-2.20475055332182e-017
11
3.25802011809543
21
4.02558680643075
31
-2.24727883456704e-017
  0
LINE
 8
Layer0
10
3.25802011809543
20
4.02558680643075
30
-2.24727883456704e-017
11
3.26914442167729
21
4.04008428111381
31
-2.29472998226963e-017
  0
LINE
 8
Layer0
10
3.26914442167729
20
4.04008428111381
30
-2.29472998226963e-017
11
3.27613745125261
21
4.05696694795664
31
-2.34387027913039e-017
  0
LINE
 8
Layer0
10
4.23449570466788
20
4.14008735864879
30
-1.46361816441592e-016
11
4.21678665961053
21
4.14459475540565
31
-1.46292121832769e-016
  0
LINE
 8
Layer0
10
4.21678665961053
20
4.14459475540565
30
-1.46292121832769e-016
11
4.19851443550621
21
4.14436512821102
31
-1.46098903140777e-016
  0
LINE
 8
Layer0
10
4.19851443550621
20
4.14436512821102
30
-1.46098903140777e-016
11
4.18092425423134
21
4.13941412577873
31
-1.45795327900166e-016
  0
LINE
 8
Layer0
10
4.18092425423134
20
4.13941412577873
30
-1.45795327900166e-016
11
4.16521485757067
21
4.13007915074262
31
-1.45402084261901e-016
  0
LINE
 8
Layer0
10
4.16521485757067
20
4.13007915074262
30
-1.45402084261901e-016
11
4.15245681494561
21
4.11699636622462
31
-3.39236686675488e-017
  0
LINE
 8
Layer0
10
4.15245681494561
20
4.11699636622462
30
-3.39236686675488e-017
11
4.1435195658774
21
4.10105734236932
31
-3.34357693983131e-017
  0
LINE
 8
Layer0
10
4.1435195658774
20
4.10105734236932
30
-3.34357693983131e-017
11
4.13901216912054
21
4.08334829731197
31
-3.29493335205848e-017
  0
LINE
 8
Layer0
10
4.13901216912054
20
4.08334829731197
30
-3.29493335205848e-017
11
4.13924179631517
21
4.06507607320764
31
-3.24975108355577e-017
  0
LINE
 8
Layer0
10
4.13924179631517
20
4.06507607320764
30
-3.24975108355577e-017
11
4.14419279874746
21
4.04748589193278
31
-8.76222435438021e-017
  0
LINE
 8
Layer0
10
4.14419279874746
20
4.04748589193278
30
-8.76222435438021e-017
11
4.15352777378357
21
4.03177649527211
31
-8.73275629665587e-017
  0
LINE
 8
Layer0
10
4.15352777378357
20
4.03177649527211
30
-8.73275629665587e-017
11
4.16661055830157
21
4.01901845264705
31
-8.71447023294419e-017
  0
LINE
 8
Layer0
10
4.16661055830157
20
4.01901845264705
30
-8.71447023294419e-017
11
4.18254958215687
21
4.01008120357884
31
-8.70861232826796e-017
  0
LINE
 8
Layer0
10
4.18254958215687
20
4.01008120357884
30
-8.70861232826796e-017
11
4.20025862721423
21
4.00557380682197
31
-8.71558178915024e-017
  0
LINE
 8
Layer0
10
4.20025862721423
20
4.00557380682197
30
-8.71558178915024e-017
11
4.21853085131855
21
4.0058034340166
31
-8.73490365834947e-017
  0
LINE
 8
Layer0
10
4.21853085131855
20
4.0058034340166
30
-8.73490365834947e-017
11
4.23612103259341
21
4.0107544364489
31
-8.76526118241063e-017
  0
LINE
 8
Layer0
10
4.23612103259341
20
4.0107544364489
30
-8.76526118241063e-017
11
4.25183042925408
21
4.02008941148501
31
-8.80458554623711e-017
  0
LINE
 8
Layer0
10
4.25183042925408
20
4.02008941148501
30
-8.80458554623711e-017
11
4.26458847187914
21
4.033172196003
31
-8.85019685942074e-017
  0
LINE
 8
Layer0
10
4.26458847187914
20
4.033172196003
30
-8.85019685942074e-017
11
4.27352572094735
21
4.04911121985831
31
-8.89898678634431e-017
  0
LINE
 8
Layer0
10
4.27352572094735
20
4.04911121985831
30
-8.89898678634431e-017
11
4.27803311770422
21
4.06682026491566
31
-3.39651525099136e-017
  0
LINE
 8
Layer0
10
4.27803311770422
20
4.06682026491566
30
-3.39651525099136e-017
11
4.27780349050959
21
4.08509248901998
31
-3.44169751949406e-017
  0
LINE
 8
Layer0
10
4.27780349050959
20
4.08509248901998
30
-3.44169751949406e-017
11
4.27285248807729
21
4.10268267029485
31
-3.48033937179542e-017
  0
LINE
 8
Layer0
10
4.27285248807729
20
4.10268267029485
30
-3.48033937179542e-017
11
4.26351751304118
21
4.11839206695552
31
-3.50980742951975e-017
  0
LINE
 8
Layer0
10
4.26351751304118
20
4.11839206695552
30
-3.50980742951975e-017
11
4.25043472852318
21
4.13115010958057
31
-1.4630323739483e-016
  0
LINE
 8
Layer0
10
4.25043472852318
20
4.13115010958057
30
-1.4630323739483e-016
11
4.23449570466788
21
4.14008735864879
31
-1.46361816441592e-016
  0
LINE
 8
Layer0
10
5.25902045458592
20
4.12001520018627
30
-4.53543497821017e-017
11
5.24556248007506
21
4.13237682728112
31
-4.55235067824824e-017
  0
LINE
 8
Layer0
10
5.24556248007506
20
4.13237682728112
30
-4.55235067824824e-017
11
5.22936365040488
21
4.14083406203509
31
-4.55674883210912e-017
  0
LINE
 8
Layer0
10
5.22936365040488
20
4.14083406203509
30
-4.55674883210912e-017
11
5.21152788904757
21
4.14481055787592
31
-4.54832971287547e-017
  0
LINE
 8
Layer0
10
5.21152788904757
20
4.14481055787592
30
-4.54832971287547e-017
11
5.19327067366464
21
4.14403532318354
31
-4.52766706960982e-017
  0
LINE
 8
Layer0
10
5.19327067366464
20
4.14403532318354
30
-4.52766706960982e-017
11
5.17583620331296
21
4.13856118892109
31
-4.49616902730409e-017
  0
LINE
 8
Layer0
10
5.17583620331296
20
4.13856118892109
30
-4.49616902730409e-017
11
5.16041260833517
21
4.12876120829212
31
-4.45598212548843e-017
  0
LINE
 8
Layer0
10
5.16041260833517
20
4.12876120829212
30
-4.45598212548843e-017
11
5.1480509812403
21
4.11530323378127
31
-4.4098450351096e-017
  0
LINE
 8
Layer0
10
5.1480509812403
20
4.11530323378127
30
-4.4098450351096e-017
11
5.13959374648633
21
4.09910440411109
31
-4.36090192263175e-017
  0
LINE
 8
Layer0
10
5.13959374648633
20
4.09910440411109
30
-4.36090192263175e-017
11
5.13561725064551
21
4.08126864275378
31
-9.86360330341373e-017
  0
LINE
 8
Layer0
10
5.13561725064551
20
4.08126864275378
30
-9.86360330341373e-017
11
5.13639248533789
21
4.06301142737084
31
-9.8190182477372e-017
  0
LINE
 8
Layer0
10
5.13639248533789
20
4.06301142737084
30
-9.8190182477372e-017
11
5.14186661960034
21
4.04557695701916
31
-9.78130027659202e-017
  0
LINE
 8
Layer0
10
5.14186661960034
20
4.04557695701916
30
-9.78130027659202e-017
11
5.15166660022931
21
4.03015336204136
31
-9.75301980737983e-017
  0
LINE
 8
Layer0
10
5.15166660022931
20
4.03015336204136
30
-9.75301980737983e-017
11
5.16512457474016
21
4.01779173494651
31
-9.73610410734175e-017
  0
LINE
 8
Layer0
10
5.16512457474016
20
4.01779173494651
30
-9.73610410734175e-017
11
5.18132340441034
21
4.00933450019254
31
-9.73170595348087e-017
  0
LINE
 8
Layer0
10
5.18132340441034
20
4.00933450019254
30
-9.73170595348087e-017
11
5.19915916576765
21
4.0053580043517
31
-9.74012507271452e-017
  0
LINE
 8
Layer0
10
5.19915916576765
20
4.0053580043517
30
-9.74012507271452e-017
11
5.21741638115058
21
4.00613323904409
31
-9.76078771598018e-017
  0
LINE
 8
Layer0
10
5.21741638115058
20
4.00613323904409
30
-9.76078771598018e-017
11
5.23485085150227
21
4.01160737330654
31
-9.79228575828591e-017
  0
LINE
 8
Layer0
10
5.23485085150227
20
4.01160737330654
30
-9.79228575828591e-017
11
5.25027444648006
21
4.02140735393551
31
-9.83247266010156e-017
  0
LINE
 8
Layer0
10
5.25027444648006
20
4.02140735393551
30
-9.83247266010156e-017
11
5.26263607357492
21
4.03486532844636
31
-9.8786097504804e-017
  0
LINE
 8
Layer0
10
5.26263607357492
20
4.03486532844636
30
-9.8786097504804e-017
11
5.27109330832889
21
4.05106415811654
31
-9.92755286295824e-017
  0
LINE
 8
Layer0
10
5.27109330832889
20
4.05106415811654
30
-9.92755286295824e-017
11
5.27506980416972
21
4.06889991947385
31
-9.97596660530205e-017
  0
LINE
 8
Layer0
10
5.27506980416972
20
4.06889991947385
30
-9.97596660530205e-017
11
5.27429456947734
21
4.08715713485678
31
-1.00205516609786e-016
  0
LINE
 8
Layer0
10
5.27429456947734
20
4.08715713485678
30
-1.00205516609786e-016
11
5.26882043521488
21
4.10459160520847
31
6.59507573725359e-017
  0
LINE
 8
Layer0
10
5.26882043521488
20
4.10459160520847
30
6.59507573725359e-017
11
5.25902045458592
21
4.12001520018627
31
-4.53543497821017e-017
  0
LINE
 8
Layer0
10
5.95183337422099
20
4.00517234490399
30
-1.05120638596938e-016
11
5.97004752036152
21
4.00664604186695
31
-1.05344184208803e-016
  0
LINE
 8
Layer0
10
5.97004752036152
20
4.00664604186695
30
-1.05344184208803e-016
11
5.98725961368173
21
4.01278369173504
31
-1.05673375096897e-016
  0
LINE
 8
Layer0
10
5.98725961368173
20
4.01278369173504
30
-1.05673375096897e-016
11
6.00229667846619
21
4.0231670238127
31
-1.06085777446211e-016
  0
LINE
 8
Layer0
10
6.00229667846619
20
4.0231670238127
30
-1.06085777446211e-016
11
6.01413396359976
21
4.03708843117811
31
-1.06553286718167e-016
  0
LINE
 8
Layer0
10
6.01413396359976
20
4.03708843117811
30
-1.06553286718167e-016
11
6.02196477766263
21
4.05359919292553
31
-1.07044042928475e-016
  0
LINE
 8
Layer0
10
6.02196477766263
20
4.05359919292553
30
-1.07044042928475e-016
11
6.02525546361743
21
4.07157412792719
31
-1.07524601852416e-016
  0
LINE
 8
Layer0
10
6.02525546361743
20
4.07157412792719
30
-1.07524601852416e-016
11
6.02378176665448
21
4.08978827406772
31
-1.07962214193486e-016
  0
LINE
 8
Layer0
10
6.02378176665448
20
4.08978827406772
30
-1.07962214193486e-016
11
6.01764411678639
21
4.10700036738793
31
-1.08327057393828e-016
  0
LINE
 8
Layer0
10
6.01764411678639
20
4.10700036738793
30
-1.08327057393828e-016
11
6.00726078470872
21
4.12203743217239
31
-1.08594267992271e-016
  0
LINE
 8
Layer0
10
6.00726078470872
20
4.12203743217239
30
-1.08594267992271e-016
11
5.99333937734331
21
4.13387471730597
31
5.77878176656555e-017
  0
LINE
 8
Layer0
10
5.99333937734331
20
4.13387471730597
30
5.77878176656555e-017
11
5.9768286155959
21
4.14170553136883
31
-5.32596947886154e-017
  0
LINE
 8
Layer0
10
5.9768286155959
20
4.14170553136883
30
-5.32596947886154e-017
11
5.95885368059424
21
4.14499621732364
31
-5.31570287170022e-017
  0
LINE
 8
Layer0
10
5.95885368059424
20
4.14499621732364
30
-5.31570287170022e-017
11
5.94063953445371
21
4.14352252036068
31
-5.29334831051374e-017
  0
LINE
 8
Layer0
10
5.94063953445371
20
4.14352252036068
30
-5.29334831051374e-017
11
5.92342744113349
21
4.13738487049259
31
-5.26042922170429e-017
  0
LINE
 8
Layer0
10
5.92342744113349
20
4.13738487049259
30
-5.26042922170429e-017
11
5.90839037634903
21
4.12700153841493
31
-1.07703041098987e-016
  0
LINE
 8
Layer0
10
5.90839037634903
20
4.12700153841493
30
-1.07703041098987e-016
11
5.89655309121546
21
4.11308013104952
31
-1.07235531827031e-016
  0
LINE
 8
Layer0
10
5.89655309121546
20
4.11308013104952
30
-1.07235531827031e-016
11
5.8887222771526
21
4.0965693693021
31
-1.06744775616723e-016
  0
LINE
 8
Layer0
10
5.8887222771526
20
4.0965693693021
30
-1.06744775616723e-016
11
5.88543159119779
21
4.07859443430044
31
-1.06264216692782e-016
  0
LINE
 8
Layer0
10
5.88543159119779
20
4.07859443430044
30
-1.06264216692782e-016
11
5.88690528816074
21
4.06038028815991
31
6.07068493420611e-017
  0
LINE
 8
Layer0
10
5.88690528816074
20
4.06038028815991
30
6.07068493420611e-017
11
5.89304293802883
21
4.0431681948397
31
-1.0546176115137e-016
  0
LINE
 8
Layer0
10
5.89304293802883
20
4.0431681948397
30
-1.0546176115137e-016
11
5.9034262701065
21
4.02813113005523
31
-1.05194550552927e-016
  0
LINE
 8
Layer0
10
5.9034262701065
20
4.02813113005523
30
-1.05194550552927e-016
11
5.91734767747191
21
4.01629384492166
31
-1.0504318251708e-016
  0
LINE
 8
Layer0
10
5.91734767747191
20
4.01629384492166
30
-1.0504318251708e-016
11
5.93385843921932
21
4.0084630308588
31
-1.05017972525325e-016
  0
LINE
 8
Layer0
10
5.93385843921932
20
4.0084630308588
30
-1.05017972525325e-016
11
5.95183337422099
21
4.00517234490399
31
-1.05120638596938e-016
 0
ENDSEC
 0
EOF
