  0
SECTION
  2
HEADER
  9
$ACADVER
  1
AC1021
  9
$ACADMAINTVER
 70
    25
  9
$DWGCODEPAGE
  3
ANSI_1252
  9
$INSBASE
 10
0.0
 20
0.0
 30
0.0
  9
$EXTMIN
 10
1.000000000000000E+20
 20
1.000000000000000E+20
 30
1.000000000000000E+20
  9
$EXTMAX
 10
-1.000000000000000E+20
 20
-1.000000000000000E+20
 30
-1.000000000000000E+20
  9
$LIMMIN
 10
0.0
 20
0.0
  9
$LIMMAX
 10
12.0
 20
9.0
  9
$ORTHOMODE
 70
     0
  9
$REGENMODE
 70
     1
  9
$FILLMODE
 70
     1
  9
$QTEXTMODE
 70
     0
  9
$MIRRTEXT
 70
     1
  9
$LTSCALE
 40
1.0
  9
$ATTMODE
 70
     1
  9
$TEXTSIZE
 40
0.2
  9
$TRACEWID
 40
0.05
  9
$TEXTSTYLE
  7
Standard
  9
$CLAYER
  8
Default
  9
$CELTYPE
  6
ByLayer
  9
$CECOLOR
 62
   256
  9
$CELTSCALE
 40
1.0
  9
$DISPSILH
 70
     0
  9
$DIMSCALE
 40
1.0
  9
$DIMASZ
 40
0.18
  9
$DIMEXO
 40
0.0625
  9
$DIMDLI
 40
0.38
  9
$DIMRND
 40
0.0
  9
$DIMDLE
 40
0.0
  9
$DIMEXE
 40
0.18
  9
$DIMTP
 40
0.0
  9
$DIMTM
 40
0.0
  9
$DIMTXT
 40
0.18
  9
$DIMCEN
 40
0.09
  9
$DIMTSZ
 40
0.0
  9
$DIMTOL
 70
     0
  9
$DIMLIM
 70
     0
  9
$DIMTIH
 70
     1
  9
$DIMTOH
 70
     1
  9
$DIMSE1
 70
     0
  9
$DIMSE2
 70
     0
  9
$DIMTAD
 70
     0
  9
$DIMZIN
 70
     0
  9
$DIMBLK
  1

  9
$DIMASO
 70
     1
  9
$DIMSHO
 70
     1
  9
$DIMPOST
  1

  9
$DIMAPOST
  1

  9
$DIMALT
 70
     0
  9
$DIMALTD
 70
     2
  9
$DIMALTF
 40
25.4
  9
$DIMLFAC
 40
1.0
  9
$DIMTOFL
 70
     0
  9
$DIMTVP
 40
0.0
  9
$DIMTIX
 70
     0
  9
$DIMSOXD
 70
     0
  9
$DIMSAH
 70
     0
  9
$DIMBLK1
  1

  9
$DIMBLK2
  1

  9
$DIMSTYLE
  2
STANDARD_ACAD
  9
$DIMCLRD
 70
     0
  9
$DIMCLRE
 70
     0
  9
$DIMCLRT
 70
     0
  9
$DIMTFAC
 40
1.0
  9
$DIMGAP
 40
0.09
  9
$DIMJUST
 70
     0
  9
$DIMSD1
 70
     0
  9
$DIMSD2
 70
     0
  9
$DIMTOLJ
 70
     1
  9
$DIMTZIN
 70
     0
  9
$DIMALTZ
 70
     0
  9
$DIMALTTZ
 70
     0
  9
$DIMUPT
 70
     0
  9
$DIMDEC
 70
     4
  9
$DIMTDEC
 70
     4
  9
$DIMALTU
 70
     2
  9
$DIMALTTD
 70
     2
  9
$DIMTXSTY
  7
Standard
  9
$DIMAUNIT
 70
     0
  9
$DIMADEC
 70
     0
  9
$DIMALTRND
 40
0.0
  9
$DIMAZIN
 70
     0
  9
$DIMDSEP
 70
    46
  9
$DIMATFIT
 70
     3
  9
$DIMFRAC
 70
     0
  9
$DIMLDRBLK
  1

  9
$DIMLUNIT
 70
     2
  9
$DIMLWD
 70
    -2
  9
$DIMLWE
 70
    -2
  9
$DIMTMOVE
 70
     2
  9
$DIMFXL
 40
1.0
  9
$DIMFXLON
 70
     0
  9
$DIMJOGANG
 40
0.7853981633974483
  9
$DIMTFILL
 70
     0
  9
$DIMTFILLCLR
 70
     0
  9
$DIMARCSYM
 70
     0
  9
$DIMLTYPE
  6

  9
$DIMLTEX1
  6

  9
$DIMLTEX2
  6

  9
$LUNITS
 70
     2
  9
$LUPREC
 70
     2
  9
$SKETCHINC
 40
0.1
  9
$FILLETRAD
 40
0.5
  9
$AUNITS
 70
     0
  9
$AUPREC
 70
     0
  9
$MENU
  1
.
  9
$ELEVATION
 40
0.0
  9
$PELEVATION
 40
0.0
  9
$THICKNESS
 40
0.0
  9
$LIMCHECK
 70
     0
  9
$CHAMFERA
 40
0.0
  9
$CHAMFERB
 40
0.0
  9
$CHAMFERC
 40
0.0
  9
$CHAMFERD
 40
0.0
  9
$SKPOLY
 70
     0
  9
$TDCREATE
 40
2458330.483607974
  9
$TDUCREATE
 40
2458330.608607974
  9
$TDUPDATE
 40
2458330.483623611
  9
$TDUUPDATE
 40
2458330.608623611
  9
$TDINDWG
 40
0.0000000116
  9
$TDUSRTIMER
 40
0.0000000116
  9
$USRTIMER
 70
     1
  9
$ANGBASE
 50
0.0
  9
$ANGDIR
 70
     0
  9
$PDMODE
 70
     0
  9
$PDSIZE
 40
0.0
  9
$PLINEWID
 40
0.0
  9
$SPLFRAME
 70
     0
  9
$SPLINETYPE
 70
     6
  9
$SPLINESEGS
 70
     8
  9
$HANDSEED
  5
694
  9
$SURFTAB1
 70
     6
  9
$SURFTAB2
 70
     6
  9
$SURFTYPE
 70
     6
  9
$SURFU
 70
     6
  9
$SURFV
 70
     6
  9
$UCSBASE
  2

  9
$UCSNAME
  2

  9
$UCSORG
 10
0.0
 20
0.0
 30
0.0
  9
$UCSXDIR
 10
1.0
 20
0.0
 30
0.0
  9
$UCSYDIR
 10
0.0
 20
1.0
 30
0.0
  9
$UCSORTHOREF
  2

  9
$UCSORTHOVIEW
 70
     0
  9
$UCSORGTOP
 10
0.0
 20
0.0
 30
0.0
  9
$UCSORGBOTTOM
 10
0.0
 20
0.0
 30
0.0
  9
$UCSORGLEFT
 10
0.0
 20
0.0
 30
0.0
  9
$UCSORGRIGHT
 10
0.0
 20
0.0
 30
0.0
  9
$UCSORGFRONT
 10
0.0
 20
0.0
 30
0.0
  9
$UCSORGBACK
 10
0.0
 20
0.0
 30
0.0
  9
$PUCSBASE
  2

  9
$PUCSNAME
  2

  9
$PUCSORG
 10
0.0
 20
0.0
 30
0.0
  9
$PUCSXDIR
 10
1.0
 20
0.0
 30
0.0
  9
$PUCSYDIR
 10
0.0
 20
1.0
 30
0.0
  9
$PUCSORTHOREF
  2

  9
$PUCSORTHOVIEW
 70
     0
  9
$PUCSORGTOP
 10
0.0
 20
0.0
 30
0.0
  9
$PUCSORGBOTTOM
 10
0.0
 20
0.0
 30
0.0
  9
$PUCSORGLEFT
 10
0.0
 20
0.0
 30
0.0
  9
$PUCSORGRIGHT
 10
0.0
 20
0.0
 30
0.0
  9
$PUCSORGFRONT
 10
0.0
 20
0.0
 30
0.0
  9
$PUCSORGBACK
 10
0.0
 20
0.0
 30
0.0
  9
$USERI1
 70
     0
  9
$USERI2
 70
     0
  9
$USERI3
 70
     0
  9
$USERI4
 70
     0
  9
$USERI5
 70
     0
  9
$USERR1
 40
0.0
  9
$USERR2
 40
0.0
  9
$USERR3
 40
0.0
  9
$USERR4
 40
0.0
  9
$USERR5
 40
0.0
  9
$WORLDVIEW
 70
     1
  9
$SHADEDGE
 70
     3
  9
$SHADEDIF
 70
    70
  9
$TILEMODE
 70
     1
  9
$MAXACTVP
 70
    64
  9
$PINSBASE
 10
0.0
 20
0.0
 30
0.0
  9
$PLIMCHECK
 70
     0
  9
$PEXTMIN
 10
1.000000000000000E+20
 20
1.000000000000000E+20
 30
1.000000000000000E+20
  9
$PEXTMAX
 10
-1.000000000000000E+20
 20
-1.000000000000000E+20
 30
-1.000000000000000E+20
  9
$PLIMMIN
 10
0.0
 20
0.0
  9
$PLIMMAX
 10
12.0
 20
9.0
  9
$UNITMODE
 70
     0
  9
$VISRETAIN
 70
     1
  9
$PLINEGEN
 70
     0
  9
$PSLTSCALE
 70
     1
  9
$TREEDEPTH
 70
  3020
  9
$CMLSTYLE
  2
Standard
  9
$CMLJUST
 70
     0
  9
$CMLSCALE
 40
1.0
  9
$PROXYGRAPHICS
 70
     1
  9
$MEASUREMENT
 70
     0
  9
$CELWEIGHT
370
    -1
  9
$ENDCAPS
280
     0
  9
$JOINSTYLE
280
     0
  9
$LWDISPLAY
290
     0
  9
$INSUNITS
 70
     4
  9
$HYPERLINKBASE
  1

  9
$STYLESHEET
  1

  9
$XEDIT
290
     1
  9
$CEPSNTYPE
380
     0
  9
$PSTYLEMODE
290
     1
  9
$FINGERPRINTGUID
  2
{69588521-4b88-4377-ac83-7e5cbf41034b}
  9
$VERSIONGUID
  2
{FAEB1C32-E019-11D5-929B-00C0DF256EC4}
  9
$EXTNAMES
290
     1
  9
$PSVPSCALE
 40
0.0
  9
$OLESTARTUP
290
     0
  9
$SORTENTS
280
   127
  9
$INDEXCTL
280
     0
  9
$HIDETEXT
280
     1
  9
$XCLIPFRAME
290
     0
  9
$HALOGAP
280
     0
  9
$OBSCOLOR
 70
   257
  9
$OBSLTYPE
280
     0
  9
$INTERSECTIONDISPLAY
280
     0
  9
$INTERSECTIONCOLOR
 70
   257
  9
$DIMASSOC
280
     2
  9
$PROJECTNAME
  1

  9
$CAMERADISPLAY
290
     0
  9
$LENSLENGTH
 40
50.0
  9
$CAMERAHEIGHT
 40
0.0
  9
$STEPSPERSEC
 40
2.0
  9
$STEPSIZE
 40
6.0
  9
$3DDWFPREC
 40
2.0
  9
$PSOLWIDTH
 40
0.25
  9
$PSOLHEIGHT
 40
4.0
  9
$LOFTANG1
 40
1.570796326794897
  9
$LOFTANG2
 40
1.570796326794897
  9
$LOFTMAG1
 40
0.0
  9
$LOFTMAG2
 40
0.0
  9
$LOFTPARAM
 70
     7
  9
$LOFTNORMALS
280
     1
  9
$LATITUDE
 40
37.795
  9
$LONGITUDE
 40
-122.394
  9
$NORTHDIRECTION
 40
0.0
  9
$TIMEZONE
 70
 -8000
  9
$LIGHTGLYPHDISPLAY
280
     1
  9
$TILEMODELIGHTSYNCH
280
     1
  9
$CMATERIAL
347
44
  9
$SOLIDHIST
280
     0
  9
$SHOWHIST
280
     1
  9
$DWFFRAME
280
     2
  9
$DGNFRAME
280
     2
  9
$REALWORLDSCALE
290
     1
  9
$INTERFERECOLOR
 62
   256
  9
$CSHADOW
280
     0
  9
$SHADOWPLANELOCATION
 40
0.0
  0
ENDSEC
  0
SECTION
  2
CLASSES
  0
CLASS
  1
ACDBDICTIONARYWDFLT
  2
AcDbDictionaryWithDefault
  3
ObjectDBX Classes
 90
        0
 91
        3
280
     0
281
     0
  0
CLASS
  1
VISUALSTYLE
  2
AcDbVisualStyle
  3
ObjectDBX Classes
 90
     4095
 91
        3
280
     0
281
     0
  0
CLASS
  1
MATERIAL
  2
AcDbMaterial
  3
ObjectDBX Classes
 90
     1153
 91
        3
280
     0
281
     0
  0
CLASS
  1
SCALE
  2
AcDbScale
  3
ObjectDBX Classes
 90
     1153
 91
        3
280
     0
281
     0
  0
CLASS
  1
TABLESTYLE
  2
AcDbTableStyle
  3
ObjectDBX Classes
 90
     4095
 91
        3
280
     0
281
     0
  0
CLASS
  1
MLEADERSTYLE
  2
AcDbMLeaderStyle
  3
ACDB_MLEADERSTYLE_CLASS
 90
     4095
 91
        3
280
     0
281
     0
  0
CLASS
  1
SUN
  2
AcDbSun
  3
SCENEOE
 90
     1153
 91
        3
280
     0
281
     0
  0
CLASS
  1
DICTIONARYVAR
  2
AcDbDictionaryVar
  3
ObjectDBX Classes
 90
        0
 91
        3
280
     0
281
     0
  0
CLASS
  1
CELLSTYLEMAP
  2
AcDbCellStyleMap
  3
ObjectDBX Classes
 90
     1152
 91
        3
280
     0
281
     0
  0
ENDSEC
  0
SECTION
  2
TABLES
  0
TABLE
  2
VPORT
  5
8
330
0
100
AcDbSymbolTable
 70
     1
  0
VPORT
  5
29
330
8
100
AcDbSymbolTableRecord
100
AcDbViewportTableRecord
  2
*Active
 70
     0
 10
0.0
 20
0.0
 11
1.0
 21
1.0
 12
10.42990654205607
 22
4.5
 13
0.0
 23
0.0
 14
0.5
 24
0.5
 15
0.5
 25
0.5
 16
0.0
 26
0.0
 36
1.0
 17
0.0
 27
0.0
 37
0.0
 40
9.0
 41
1.972972972850329
 42
50.0
 43
0.0
 44
0.0
 50
0.0
 51
0.0
 71
     0
 72
   100
 73
     1
 74
     3
 75
     0
 76
     0
 77
     0
 78
     0
281
     0
 65
     1
110
0.0
120
0.0
130
0.0
111
1.0
121
0.0
131
0.0
112
0.0
122
1.0
132
0.0
 79
     0
146
0.0
348
2F
 60
     3
 61
     5
292
     1
282
     1
141
0.0
142
0.0
 63
   250
361
6D
  0
ENDTAB
  0
TABLE
  2
LTYPE
  5
5
330
0
100
AcDbSymbolTable
 70
     1
  0
LTYPE
  5
14
330
5
100
AcDbSymbolTableRecord
100
AcDbLinetypeTableRecord
  2
ByBlock
 70
     0
  3

 72
    65
 73
     0
 40
0.0
  0
LTYPE
  5
15
330
5
100
AcDbSymbolTableRecord
100
AcDbLinetypeTableRecord
  2
ByLayer
 70
     0
  3

 72
    65
 73
     0
 40
0.0
  0
LTYPE
  5
16
330
5
100
AcDbSymbolTableRecord
100
AcDbLinetypeTableRecord
  2
Continuous
 70
     0
  3
Solid line
 72
    65
 73
     0
 40
0.0
  0
ENDTAB
  0
TABLE
  2
LAYER
  5
2
330
0
100
AcDbSymbolTable
 70
     2
  0
LAYER
  5
10
330
2
100
AcDbSymbolTableRecord
100
AcDbLayerTableRecord
  2
0
 70
     0
 62
     7
  6
Continuous
370
    -3
390
F
347
46
  0
LAYER
  5
6E
330
2
100
AcDbSymbolTableRecord
100
AcDbLayerTableRecord
  2
Default
 70
     0
 62
    18
420
        0
  6
Continuous
370
    -3
390
F
347
46
  0
ENDTAB
  0
TABLE
  2
STYLE
  5
3
330
0
100
AcDbSymbolTable
 70
     1
  0
STYLE
  5
11
330
3
100
AcDbSymbolTableRecord
100
AcDbTextStyleTableRecord
  2
Standard
 70
     0
 40
0.0
 41
1.0
 50
0.0
 71
     0
 42
0.2
  3
txt
  4

  0
ENDTAB
  0
TABLE
  2
VIEW
  5
6
330
0
100
AcDbSymbolTable
 70
     0
  0
ENDTAB
  0
TABLE
  2
UCS
  5
7
330
0
100
AcDbSymbolTable
 70
     0
  0
ENDTAB
  0
TABLE
  2
APPID
  5
9
330
0
100
AcDbSymbolTable
 70
     2
  0
APPID
  5
12
330
9
100
AcDbSymbolTableRecord
100
AcDbRegAppTableRecord
  2
ACAD
 70
     0
  0
APPID
  5
68C
330
9
100
AcDbSymbolTableRecord
100
AcDbRegAppTableRecord
  2
ACAD_MLEADERVER
 70
     0
  0
ENDTAB
  0
TABLE
  2
DIMSTYLE
  5
A
330
0
100
AcDbSymbolTable
 70
     1
100
AcDbDimStyleTable
  0
DIMSTYLE
105
27
330
A
100
AcDbSymbolTableRecord
100
AcDbDimStyleTableRecord
  2
STANDARD_ACAD
 70
     0
178
     0
340
11
  0
ENDTAB
  0
TABLE
  2
BLOCK_RECORD
  5
1
330
0
100
AcDbSymbolTable
 70
     1
  0
BLOCK_RECORD
  5
1F
330
1
100
AcDbSymbolTableRecord
100
AcDbBlockTableRecord
  2
*Model_Space
340
22
 70
     0
280
     1
281
     0
  0
BLOCK_RECORD
  5
1B
330
1
100
AcDbSymbolTableRecord
100
AcDbBlockTableRecord
  2
*Paper_Space
340
1E
 70
     0
280
     1
281
     0
  0
BLOCK_RECORD
  5
23
330
1
100
AcDbSymbolTableRecord
100
AcDbBlockTableRecord
  2
*Paper_Space0
340
26
 70
     0
280
     1
281
     0
  0
ENDTAB
  0
ENDSEC
  0
SECTION
  2
BLOCKS
  0
BLOCK
  5
20
330
1F
100
AcDbEntity
  8
0
100
AcDbBlockBegin
  2
*Model_Space
 70
     0
 10
0.0
 20
0.0
 30
0.0
  3
*Model_Space
  1

  0
ENDBLK
  5
21
330
1F
100
AcDbEntity
  8
0
100
AcDbBlockEnd
  0
BLOCK
  5
1C
330
1B
100
AcDbEntity
 67
     1
  8
0
100
AcDbBlockBegin
  2
*Paper_Space
 70
     0
 10
0.0
 20
0.0
 30
0.0
  3
*Paper_Space
  1

  0
ENDBLK
  5
1D
330
1B
100
AcDbEntity
 67
     1
  8
0
100
AcDbBlockEnd
  0
BLOCK
  5
24
330
23
100
AcDbEntity
  8
0
100
AcDbBlockBegin
  2
*Paper_Space0
 70
     0
 10
0.0
 20
0.0
 30
0.0
  3
*Paper_Space0
  1

  0
ENDBLK
  5
25
330
23
100
AcDbEntity
  8
0
100
AcDbBlockEnd
  0
ENDSEC
  0
SECTION
  2
ENTITIES
  0
POLYLINE
  5
6F
330
1F
100
AcDbEntity
  8
Default
100
AcDb2dPolyline
 66
     1
 10
0.0
 20
0.0
 30
0.0
  0
VERTEX
  5
70
330
6F
100
AcDbEntity
  8
Default
100
AcDbVertex
100
AcDb2dVertex
 10
30.93592213740274
 20
5.44954840205814
 30
0.0
  0
VERTEX
  5
71
330
6F
100
AcDbEntity
  8
Default
100
AcDbVertex
100
AcDb2dVertex
 10
34.56717494886853
 20
6.518285843819878
 30
0.0
  0
SEQEND
  5
72
330
6F
100
AcDbEntity
  8
Default
  0
POLYLINE
  5
73
330
1F
100
AcDbEntity
  8
Default
100
AcDb2dPolyline
 66
     1
 10
0.0
 20
0.0
 30
0.0
  0
VERTEX
  5
74
330
73
100
AcDbEntity
  8
Default
100
AcDbVertex
100
AcDb2dVertex
 10
2.968611347271908
 20
14.73547512467508
 30
0.0
  0
VERTEX
  5
75
330
73
100
AcDbEntity
  8
Default
100
AcDbVertex
100
AcDb2dVertex
 10
3.193258922885567
 20
14.64339194871563
 30
0.0
  0
VERTEX
  5
76
330
73
100
AcDbEntity
  8
Default
100
AcDbVertex
100
AcDb2dVertex
 10
3.420981492939569
 20
14.55920005117273
 30
0.0
  0
VERTEX
  5
77
330
73
100
AcDbEntity
  8
Default
100
AcDbVertex
100
AcDb2dVertex
 10
3.651501954712099
 20
14.48300188040694
 30
0.0
  0
VERTEX
  5
78
330
73
100
AcDbEntity
  8
Default
100
AcDbVertex
100
AcDb2dVertex
 10
3.884539800885085
 20
14.4148901576646
 30
0.0
  0
VERTEX
  5
79
330
73
100
AcDbEntity
  8
Default
100
AcDbVertex
100
AcDb2dVertex
 10
4.119811460877688
 20
14.35494776425061
 30
0.0
  0
VERTEX
  5
7A
330
73
100
AcDbEntity
  8
Default
100
AcDbVertex
100
AcDb2dVertex
 10
4.357030645907317
 20
14.30324764067482
 30
0.0
  0
VERTEX
  5
7B
330
73
100
AcDbEntity
  8
Default
100
AcDbVertex
100
AcDb2dVertex
 10
4.595908697358261
 20
14.25985269789488
 30
0.0
  0
VERTEX
  5
7C
330
73
100
AcDbEntity
  8
Default
100
AcDbVertex
100
AcDb2dVertex
 10
4.836154938034039
 20
14.22481574076346
 30
0.0
  0
VERTEX
  5
7D
330
73
100
AcDbEntity
  8
Default
100
AcDbVertex
100
AcDb2dVertex
 10
5.077477025866052
 20
14.19817940377296
 30
0.0
  0
VERTEX
  5
7E
330
73
100
AcDbEntity
  8
Default
100
AcDbVertex
100
AcDb2dVertex
 10
5.319581309648115
 20
14.17997609917605
 30
0.0
  0
VERTEX
  5
7F
330
73
100
AcDbEntity
  8
Default
100
AcDbVertex
100
AcDb2dVertex
 10
5.56217318636401
 20
14.17022797754501
 30
0.0
  0
VERTEX
  5
80
330
73
100
AcDbEntity
  8
Default
100
AcDbVertex
100
AcDb2dVertex
 10
5.804957459673243
 20
14.168946900818
 30
0.0
  0
VERTEX
  5
81
330
73
100
AcDbEntity
  8
Default
100
AcDbVertex
100
AcDb2dVertex
 10
6.047638699118785
 20
14.17613442786483
 30
0.0
  0
VERTEX
  5
82
330
73
100
AcDbEntity
  8
Default
100
AcDbVertex
100
AcDb2dVertex
 10
6.289921599619688
 20
14.19178181259019
 30
0.0
  0
VERTEX
  5
83
330
73
100
AcDbEntity
  8
Default
100
AcDbVertex
100
AcDb2dVertex
 10
6.531511340811145
 20
14.21587001457618
 30
0.0
  0
VERTEX
  5
84
330
73
100
AcDbEntity
  8
Default
100
AcDbVertex
100
AcDb2dVertex
 10
6.772113945794732
 20
14.24836972225156
 30
0.0
  0
VERTEX
  5
85
330
73
100
AcDbEntity
  8
Default
100
AcDbVertex
100
AcDb2dVertex
 10
7.011436638862268
 20
14.28924138855936
 30
0.0
  0
VERTEX
  5
86
330
73
100
AcDbEntity
  8
Default
100
AcDbVertex
100
AcDb2dVertex
 10
7.249188201758025
 20
14.3384352790794
 30
0.0
  0
VERTEX
  5
87
330
73
100
AcDbEntity
  8
Default
100
AcDbVertex
100
AcDb2dVertex
 10
7.485079328045764
 20
14.39589153254737
 30
0.0
  0
VERTEX
  5
88
330
73
100
AcDbEntity
  8
Default
100
AcDbVertex
100
AcDb2dVertex
 10
7.718822975149378
 20
14.46154023369655
 30
0.0
  0
VERTEX
  5
89
330
73
100
AcDbEntity
  8
Default
100
AcDbVertex
100
AcDb2dVertex
 10
7.95013471363878
 20
14.53530149833378
 30
0.0
  0
VERTEX
  5
8A
330
73
100
AcDbEntity
  8
Default
100
AcDbVertex
100
AcDb2dVertex
 10
8.178733073335987
 20
14.61708557054604
 30
0.0
  0
VERTEX
  5
8B
330
73
100
AcDbEntity
  8
Default
100
AcDbVertex
100
AcDb2dVertex
 10
8.404339885820285
 20
14.70679293191927
 30
0.0
  0
VERTEX
  5
8C
330
73
100
AcDbEntity
  8
Default
100
AcDbVertex
100
AcDb2dVertex
 10
8.62668062291564
 20
14.8043144226368
 30
0.0
  0
VERTEX
  5
8D
330
73
100
AcDbEntity
  8
Default
100
AcDbVertex
100
AcDb2dVertex
 10
8.84548473074851
 20
14.90953137430969
 30
0.0
  0
VERTEX
  5
8E
330
73
100
AcDbEntity
  8
Default
100
AcDbVertex
100
AcDb2dVertex
 10
9.060485958969583
 20
15.0223157543776
 30
0.0
  0
VERTEX
  5
8F
330
73
100
AcDbEntity
  8
Default
100
AcDbVertex
100
AcDb2dVertex
 10
9.271422684738758
 20
15.14253032190439
 30
0.0
  0
VERTEX
  5
90
330
73
100
AcDbEntity
  8
Default
100
AcDbVertex
100
AcDb2dVertex
 10
9.478038231079186
 20
15.27002879457885
 30
0.0
  0
VERTEX
  5
91
330
73
100
AcDbEntity
  8
Default
100
AcDbVertex
100
AcDb2dVertex
 10
9.68008117921298
 20
15.40465602671737
 30
0.0
  0
VERTEX
  5
92
330
73
100
AcDbEntity
  8
Default
100
AcDbVertex
100
AcDb2dVertex
 10
9.877305674498517
 20
15.54624819805194
 30
0.0
  0
VERTEX
  5
93
330
73
100
AcDbEntity
  8
Default
100
AcDbVertex
100
AcDb2dVertex
 10
10.06947172559704
 20
15.6946330130738
 30
0.0
  0
VERTEX
  5
94
330
73
100
AcDbEntity
  8
Default
100
AcDbVertex
100
AcDb2dVertex
 10
10.25634549650457
 20
15.84962991069009
 30
0.0
  0
VERTEX
  5
95
330
73
100
AcDbEntity
  8
Default
100
AcDbVertex
100
AcDb2dVertex
 10
10.43769959109368
 20
16.01105028393845
 30
0.0
  0
VERTEX
  5
96
330
73
100
AcDbEntity
  8
Default
100
AcDbVertex
100
AcDb2dVertex
 10
10.61331332981904
 20
16.17869770949211
 30
0.0
  0
VERTEX
  5
97
330
73
100
AcDbEntity
  8
Default
100
AcDbVertex
100
AcDb2dVertex
 10
10.78297301824986
 20
16.35236818667645
 30
0.0
  0
VERTEX
  5
98
330
73
100
AcDbEntity
  8
Default
100
AcDbVertex
100
AcDb2dVertex
 10
10.94647220710252
 20
16.53185038570575
 30
0.0
  0
VERTEX
  5
99
330
73
100
AcDbEntity
  8
Default
100
AcDbVertex
100
AcDb2dVertex
 10
11.10361194345712
 20
16.71692590483856
 30
0.0
  0
VERTEX
  5
9A
330
73
100
AcDbEntity
  8
Default
100
AcDbVertex
100
AcDb2dVertex
 10
11.25420101285194
 20
16.90736953613841
 30
0.0
  0
VERTEX
  5
9B
330
73
100
AcDbEntity
  8
Default
100
AcDbVertex
100
AcDb2dVertex
 10
11.39805617196161
 20
17.10294953951659
 30
0.0
  0
VERTEX
  5
9C
330
73
100
AcDbEntity
  8
Default
100
AcDbVertex
100
AcDb2dVertex
 10
11.53500237157545
 20
17.30342792472357
 30
0.0
  0
VERTEX
  5
9D
330
73
100
AcDbEntity
  8
Default
100
AcDbVertex
100
AcDb2dVertex
 10
11.66487296960505
 20
17.5085607409459
 30
0.0
  0
VERTEX
  5
9E
330
73
100
AcDbEntity
  8
Default
100
AcDbVertex
100
AcDb2dVertex
 10
11.78750993386156
 20
17.71809837365617
 30
0.0
  0
VERTEX
  5
9F
330
73
100
AcDbEntity
  8
Default
100
AcDbVertex
100
AcDb2dVertex
 10
11.90276403435611
 20
17.93178584835477
 30
0.0
  0
VERTEX
  5
A0
330
73
100
AcDbEntity
  8
Default
100
AcDbVertex
100
AcDb2dVertex
 10
12.0104950248894
 20
18.14936314083399
 30
0.0
  0
VERTEX
  5
A1
330
73
100
AcDbEntity
  8
Default
100
AcDbVertex
100
AcDb2dVertex
 10
12.11057181370934
 20
18.37056549358677
 30
0.0
  0
VERTEX
  5
A2
330
73
100
AcDbEntity
  8
Default
100
AcDbVertex
100
AcDb2dVertex
 10
12.20287262302918
 20
18.59512373797511
 30
0.0
  0
VERTEX
  5
A3
330
73
100
AcDbEntity
  8
Default
100
AcDbVertex
100
AcDb2dVertex
 10
12.28728513721204
 20
18.82276462176623
 30
0.0
  0
VERTEX
  5
A4
330
73
100
AcDbEntity
  8
Default
100
AcDbVertex
100
AcDb2dVertex
 10
12.36370663944145
 20
19.05321114163771
 30
0.0
  0
VERTEX
  5
A5
330
73
100
AcDbEntity
  8
Default
100
AcDbVertex
100
AcDb2dVertex
 10
12.43204413671162
 20
19.28618288024719
 30
0.0
  0
VERTEX
  5
A6
330
73
100
AcDbEntity
  8
Default
100
AcDbVertex
100
AcDb2dVertex
 10
12.49221447298541
 20
19.52139634745638
 30
0.0
  0
VERTEX
  5
A7
330
73
100
AcDbEntity
  8
Default
100
AcDbVertex
100
AcDb2dVertex
 10
12.54414443038218
 20
19.75856532529421
 30
0.0
  0
VERTEX
  5
A8
330
73
100
AcDbEntity
  8
Default
100
AcDbVertex
100
AcDb2dVertex
 10
12.58777081827248
 20
19.99740121623927
 30
0.0
  0
VERTEX
  5
A9
330
73
100
AcDbEntity
  8
Default
100
AcDbVertex
100
AcDb2dVertex
 10
12.6230405501712
 20
20.2376133943978
 30
0.0
  0
VERTEX
  5
AA
330
73
100
AcDbEntity
  8
Default
100
AcDbVertex
100
AcDb2dVertex
 10
12.64991070833547
 20
20.47890955914996
 30
0.0
  0
VERTEX
  5
AB
330
73
100
AcDbEntity
  8
Default
100
AcDbVertex
100
AcDb2dVertex
 10
12.66834859598885
 20
20.72099609083389
 30
0.0
  0
VERTEX
  5
AC
330
73
100
AcDbEntity
  8
Default
100
AcDbVertex
100
AcDb2dVertex
 10
12.6783317771082
 20
20.9635784080349
 30
0.0
  0
SEQEND
  5
AD
330
73
100
AcDbEntity
  8
Default
  0
POLYLINE
  5
AE
330
1F
100
AcDbEntity
  8
Default
100
AcDb2dPolyline
 66
     1
 10
0.0
 20
0.0
 30
0.0
  0
VERTEX
  5
AF
330
AE
100
AcDbEntity
  8
Default
100
AcDbVertex
100
AcDb2dVertex
 10
25.68028456179805
 20
28.77399221511979
 30
0.0
  0
VERTEX
  5
B0
330
AE
100
AcDbEntity
  8
Default
100
AcDbVertex
100
AcDb2dVertex
 10
20.68028439659726
 20
28.77399221511979
 30
0.0
  0
SEQEND
  5
B1
330
AE
100
AcDbEntity
  8
Default
  0
POLYLINE
  5
B2
330
1F
100
AcDbEntity
  8
Default
100
AcDb2dPolyline
 66
     1
 10
0.0
 20
0.0
 30
0.0
  0
VERTEX
  5
B3
330
B2
100
AcDbEntity
  8
Default
100
AcDbVertex
100
AcDb2dVertex
 10
20.68028439659726
 20
28.77399221511979
 30
0.0
  0
VERTEX
  5
B4
330
B2
100
AcDbEntity
  8
Default
100
AcDbVertex
100
AcDb2dVertex
 10
20.40715551510952
 20
28.76932839404918
 30
0.0
  0
VERTEX
  5
B5
330
B2
100
AcDbEntity
  8
Default
100
AcDbVertex
100
AcDb2dVertex
 10
20.13434508967989
 20
28.7553423686441
 30
0.0
  0
VERTEX
  5
B6
330
B2
100
AcDbEntity
  8
Default
100
AcDbVertex
100
AcDb2dVertex
 10
19.86217120506099
 20
28.73205044598455
 30
0.0
  0
VERTEX
  5
B7
330
B2
100
AcDbEntity
  8
Default
100
AcDbVertex
100
AcDb2dVertex
 10
19.59095120382729
 20
28.69947978341044
 30
0.0
  0
VERTEX
  5
B8
330
B2
100
AcDbEntity
  8
Default
100
AcDbVertex
100
AcDb2dVertex
 10
19.32100131636793
 20
28.65766835685736
 30
0.0
  0
VERTEX
  5
B9
330
B2
100
AcDbEntity
  8
Default
100
AcDbVertex
100
AcDb2dVertex
 10
19.05263629217619
 20
28.60666491657837
 30
0.0
  0
VERTEX
  5
BA
330
B2
100
AcDbEntity
  8
Default
100
AcDbVertex
100
AcDb2dVertex
 10
18.78616903286569
 20
28.54652893030332
 30
0.0
  0
VERTEX
  5
BB
330
B2
100
AcDbEntity
  8
Default
100
AcDbVertex
100
AcDb2dVertex
 10
18.52191022734107
 20
28.47733051390219
 30
0.0
  0
VERTEX
  5
BC
330
B2
100
AcDbEntity
  8
Default
100
AcDbVertex
100
AcDb2dVertex
 10
18.26016798954866
 20
28.39915034963308
 30
0.0
  0
VERTEX
  5
BD
330
B2
100
AcDbEntity
  8
Default
100
AcDbVertex
100
AcDb2dVertex
 10
18.00124749922937
 20
28.31207959207035
 30
0.0
  0
VERTEX
  5
BE
330
B2
100
AcDbEntity
  8
Default
100
AcDbVertex
100
AcDb2dVertex
 10
17.74545064609281
 20
28.21621976182245
 30
0.0
  0
VERTEX
  5
BF
330
B2
100
AcDbEntity
  8
Default
100
AcDbVertex
100
AcDb2dVertex
 10
17.49307567782733
 20
28.11168262716341
 30
0.0
  0
VERTEX
  5
C0
330
B2
100
AcDbEntity
  8
Default
100
AcDbVertex
100
AcDb2dVertex
 10
17.24441685235661
 20
27.99859007371605
 30
0.0
  0
VERTEX
  5
C1
330
B2
100
AcDbEntity
  8
Default
100
AcDbVertex
100
AcDb2dVertex
 10
16.99976409474804
 20
27.87707396233879
 30
0.0
  0
VERTEX
  5
C2
330
B2
100
AcDbEntity
  8
Default
100
AcDbVertex
100
AcDb2dVertex
 10
16.75940265917312
 20
27.7472759753818
 30
0.0
  0
VERTEX
  5
C3
330
B2
100
AcDbEntity
  8
Default
100
AcDbVertex
100
AcDb2dVertex
 10
16.52361279631379
 20
27.6093474514917
 30
0.0
  0
VERTEX
  5
C4
330
B2
100
AcDbEntity
  8
Default
100
AcDbVertex
100
AcDb2dVertex
 10
16.29266942660271
 20
27.46344920915748
 30
0.0
  0
VERTEX
  5
C5
330
B2
100
AcDbEntity
  8
Default
100
AcDbVertex
100
AcDb2dVertex
 10
16.06684181967832
 20
27.30975135920333
 30
0.0
  0
VERTEX
  5
C6
330
B2
100
AcDbEntity
  8
Default
100
AcDbVertex
100
AcDb2dVertex
 10
15.8463932804285
 20
27.14843310644703
 30
0.0
  0
VERTEX
  5
C7
330
B2
100
AcDbEntity
  8
Default
100
AcDbVertex
100
AcDb2dVertex
 10
15.63158084198884
 20
26.97968254075515
 30
0.0
  0
VERTEX
  5
C8
330
B2
100
AcDbEntity
  8
Default
100
AcDbVertex
100
AcDb2dVertex
 10
15.42265496605348
 20
26.80369641773868
 30
0.0
  0
VERTEX
  5
C9
330
B2
100
AcDbEntity
  8
Default
100
AcDbVertex
100
AcDb2dVertex
 10
15.21985925084803
 20
26.62067992934479
 30
0.0
  0
VERTEX
  5
CA
330
B2
100
AcDbEntity
  8
Default
100
AcDbVertex
100
AcDb2dVertex
 10
15.02343014710488
 20
26.43084646461217
 30
0.0
  0
VERTEX
  5
CB
330
B2
100
AcDbEntity
  8
Default
100
AcDbVertex
100
AcDb2dVertex
 10
14.83359668237227
 20
26.23441736086902
 30
0.0
  0
VERTEX
  5
CC
330
B2
100
AcDbEntity
  8
Default
100
AcDbVertex
100
AcDb2dVertex
 10
14.65058019397837
 20
26.03162164566357
 30
0.0
  0
VERTEX
  5
CD
330
B2
100
AcDbEntity
  8
Default
100
AcDbVertex
100
AcDb2dVertex
 10
14.4745940709619
 20
25.82269576972822
 30
0.0
  0
VERTEX
  5
CE
330
B2
100
AcDbEntity
  8
Default
100
AcDbVertex
100
AcDb2dVertex
 10
14.30584350527002
 20
25.60788333128855
 30
0.0
  0
VERTEX
  5
CF
330
B2
100
AcDbEntity
  8
Default
100
AcDbVertex
100
AcDb2dVertex
 10
14.14452525251372
 20
25.38743479203873
 30
0.0
  0
VERTEX
  5
D0
330
B2
100
AcDbEntity
  8
Default
100
AcDbVertex
100
AcDb2dVertex
 10
13.99082740255957
 20
25.16160718511434
 30
0.0
  0
VERTEX
  5
D1
330
B2
100
AcDbEntity
  8
Default
100
AcDbVertex
100
AcDb2dVertex
 10
13.84492916022535
 20
24.93066381540326
 30
0.0
  0
VERTEX
  5
D2
330
B2
100
AcDbEntity
  8
Default
100
AcDbVertex
100
AcDb2dVertex
 10
13.70700063633525
 20
24.69487395254393
 30
0.0
  0
VERTEX
  5
D3
330
B2
100
AcDbEntity
  8
Default
100
AcDbVertex
100
AcDb2dVertex
 10
13.57720264937826
 20
24.45451251696901
 30
0.0
  0
VERTEX
  5
D4
330
B2
100
AcDbEntity
  8
Default
100
AcDbVertex
100
AcDb2dVertex
 10
13.455686538001
 20
24.20985975936045
 30
0.0
  0
VERTEX
  5
D5
330
B2
100
AcDbEntity
  8
Default
100
AcDbVertex
100
AcDb2dVertex
 10
13.34259398455363
 20
23.96120093388972
 30
0.0
  0
VERTEX
  5
D6
330
B2
100
AcDbEntity
  8
Default
100
AcDbVertex
100
AcDb2dVertex
 10
13.23805684989459
 20
23.70882596562424
 30
0.0
  0
VERTEX
  5
D7
330
B2
100
AcDbEntity
  8
Default
100
AcDbVertex
100
AcDb2dVertex
 10
13.14219701964669
 20
23.45302911248768
 30
0.0
  0
VERTEX
  5
D8
330
B2
100
AcDbEntity
  8
Default
100
AcDbVertex
100
AcDb2dVertex
 10
13.05512626208397
 20
23.1941086221684
 30
0.0
  0
VERTEX
  5
D9
330
B2
100
AcDbEntity
  8
Default
100
AcDbVertex
100
AcDb2dVertex
 10
12.97694609781486
 20
22.93236638437599
 30
0.0
  0
VERTEX
  5
DA
330
B2
100
AcDbEntity
  8
Default
100
AcDbVertex
100
AcDb2dVertex
 10
12.90774768141373
 20
22.66810757885137
 30
0.0
  0
VERTEX
  5
DB
330
B2
100
AcDbEntity
  8
Default
100
AcDbVertex
100
AcDb2dVertex
 10
12.84761169513867
 20
22.40164031954086
 30
0.0
  0
VERTEX
  5
DC
330
B2
100
AcDbEntity
  8
Default
100
AcDbVertex
100
AcDb2dVertex
 10
12.79660825485968
 20
22.13327529534913
 30
0.0
  0
VERTEX
  5
DD
330
B2
100
AcDbEntity
  8
Default
100
AcDbVertex
100
AcDb2dVertex
 10
12.75479682830661
 20
21.86332540788976
 30
0.0
  0
VERTEX
  5
DE
330
B2
100
AcDbEntity
  8
Default
100
AcDbVertex
100
AcDb2dVertex
 10
12.7222261657325
 20
21.59210540665606
 30
0.0
  0
VERTEX
  5
DF
330
B2
100
AcDbEntity
  8
Default
100
AcDbVertex
100
AcDb2dVertex
 10
12.69893424307294
 20
21.31993152203716
 30
0.0
  0
VERTEX
  5
E0
330
B2
100
AcDbEntity
  8
Default
100
AcDbVertex
100
AcDb2dVertex
 10
12.68494821766787
 20
21.04712109660753
 30
0.0
  0
VERTEX
  5
E1
330
B2
100
AcDbEntity
  8
Default
100
AcDbVertex
100
AcDb2dVertex
 10
12.68028439659726
 20
20.77399221511979
 30
0.0
  0
SEQEND
  5
E2
330
B2
100
AcDbEntity
  8
Default
  0
POLYLINE
  5
E3
330
1F
100
AcDbEntity
  8
Default
100
AcDb2dPolyline
 66
     1
 10
0.0
 20
0.0
 30
0.0
  0
VERTEX
  5
E4
330
E3
100
AcDbEntity
  8
Default
100
AcDbVertex
100
AcDb2dVertex
 10
42.68028439659726
 20
20.77399221511979
 30
0.0
  0
VERTEX
  5
E5
330
E3
100
AcDbEntity
  8
Default
100
AcDbVertex
100
AcDb2dVertex
 10
42.67562057552665
 20
21.04712109660754
 30
0.0
  0
VERTEX
  5
E6
330
E3
100
AcDbEntity
  8
Default
100
AcDbVertex
100
AcDb2dVertex
 10
42.66163455012157
 20
21.31993152203716
 30
0.0
  0
VERTEX
  5
E7
330
E3
100
AcDbEntity
  8
Default
100
AcDbVertex
100
AcDb2dVertex
 10
42.63834262746202
 20
21.59210540665607
 30
0.0
  0
VERTEX
  5
E8
330
E3
100
AcDbEntity
  8
Default
100
AcDbVertex
100
AcDb2dVertex
 10
42.60577196488791
 20
21.86332540788977
 30
0.0
  0
VERTEX
  5
E9
330
E3
100
AcDbEntity
  8
Default
100
AcDbVertex
100
AcDb2dVertex
 10
42.56396053833483
 20
22.13327529534913
 30
0.0
  0
VERTEX
  5
EA
330
E3
100
AcDbEntity
  8
Default
100
AcDbVertex
100
AcDb2dVertex
 10
42.51295709805584
 20
22.40164031954086
 30
0.0
  0
VERTEX
  5
EB
330
E3
100
AcDbEntity
  8
Default
100
AcDbVertex
100
AcDb2dVertex
 10
42.45282111178079
 20
22.66810757885137
 30
0.0
  0
VERTEX
  5
EC
330
E3
100
AcDbEntity
  8
Default
100
AcDbVertex
100
AcDb2dVertex
 10
42.38362269537965
 20
22.93236638437599
 30
0.0
  0
VERTEX
  5
ED
330
E3
100
AcDbEntity
  8
Default
100
AcDbVertex
100
AcDb2dVertex
 10
42.30544253111054
 20
23.1941086221684
 30
0.0
  0
VERTEX
  5
EE
330
E3
100
AcDbEntity
  8
Default
100
AcDbVertex
100
AcDb2dVertex
 10
42.21837177354782
 20
23.45302911248768
 30
0.0
  0
VERTEX
  5
EF
330
E3
100
AcDbEntity
  8
Default
100
AcDbVertex
100
AcDb2dVertex
 10
42.12251194329993
 20
23.70882596562425
 30
0.0
  0
VERTEX
  5
F0
330
E3
100
AcDbEntity
  8
Default
100
AcDbVertex
100
AcDb2dVertex
 10
42.01797480864088
 20
23.96120093388973
 30
0.0
  0
VERTEX
  5
F1
330
E3
100
AcDbEntity
  8
Default
100
AcDbVertex
100
AcDb2dVertex
 10
41.90488225519352
 20
24.20985975936045
 30
0.0
  0
VERTEX
  5
F2
330
E3
100
AcDbEntity
  8
Default
100
AcDbVertex
100
AcDb2dVertex
 10
41.78336614381626
 20
24.45451251696901
 30
0.0
  0
VERTEX
  5
F3
330
E3
100
AcDbEntity
  8
Default
100
AcDbVertex
100
AcDb2dVertex
 10
41.65356815685927
 20
24.69487395254393
 30
0.0
  0
VERTEX
  5
F4
330
E3
100
AcDbEntity
  8
Default
100
AcDbVertex
100
AcDb2dVertex
 10
41.51563963296917
 20
24.93066381540326
 30
0.0
  0
VERTEX
  5
F5
330
E3
100
AcDbEntity
  8
Default
100
AcDbVertex
100
AcDb2dVertex
 10
41.36974139063494
 20
25.16160718511434
 30
0.0
  0
VERTEX
  5
F6
330
E3
100
AcDbEntity
  8
Default
100
AcDbVertex
100
AcDb2dVertex
 10
41.21604354068079
 20
25.38743479203873
 30
0.0
  0
VERTEX
  5
F7
330
E3
100
AcDbEntity
  8
Default
100
AcDbVertex
100
AcDb2dVertex
 10
41.0547252879245
 20
25.60788333128855
 30
0.0
  0
VERTEX
  5
F8
330
E3
100
AcDbEntity
  8
Default
100
AcDbVertex
100
AcDb2dVertex
 10
40.88597472223262
 20
25.82269576972822
 30
0.0
  0
VERTEX
  5
F9
330
E3
100
AcDbEntity
  8
Default
100
AcDbVertex
100
AcDb2dVertex
 10
40.70998859921615
 20
26.03162164566357
 30
0.0
  0
VERTEX
  5
FA
330
E3
100
AcDbEntity
  8
Default
100
AcDbVertex
100
AcDb2dVertex
 10
40.52697211082225
 20
26.23441736086903
 30
0.0
  0
VERTEX
  5
FB
330
E3
100
AcDbEntity
  8
Default
100
AcDbVertex
100
AcDb2dVertex
 10
40.33713864608963
 20
26.43084646461217
 30
0.0
  0
VERTEX
  5
FC
330
E3
100
AcDbEntity
  8
Default
100
AcDbVertex
100
AcDb2dVertex
 10
40.14070954234649
 20
26.62067992934479
 30
0.0
  0
VERTEX
  5
FD
330
E3
100
AcDbEntity
  8
Default
100
AcDbVertex
100
AcDb2dVertex
 10
39.93791382714104
 20
26.80369641773868
 30
0.0
  0
VERTEX
  5
FE
330
E3
100
AcDbEntity
  8
Default
100
AcDbVertex
100
AcDb2dVertex
 10
39.72898795120568
 20
26.97968254075515
 30
0.0
  0
VERTEX
  5
FF
330
E3
100
AcDbEntity
  8
Default
100
AcDbVertex
100
AcDb2dVertex
 10
39.51417551276602
 20
27.14843310644703
 30
0.0
  0
VERTEX
  5
100
330
E3
100
AcDbEntity
  8
Default
100
AcDbVertex
100
AcDb2dVertex
 10
39.29372697351619
 20
27.30975135920333
 30
0.0
  0
VERTEX
  5
101
330
E3
100
AcDbEntity
  8
Default
100
AcDbVertex
100
AcDb2dVertex
 10
39.0678993665918
 20
27.46344920915748
 30
0.0
  0
VERTEX
  5
102
330
E3
100
AcDbEntity
  8
Default
100
AcDbVertex
100
AcDb2dVertex
 10
38.83695599688073
 20
27.6093474514917
 30
0.0
  0
VERTEX
  5
103
330
E3
100
AcDbEntity
  8
Default
100
AcDbVertex
100
AcDb2dVertex
 10
38.6011661340214
 20
27.7472759753818
 30
0.0
  0
VERTEX
  5
104
330
E3
100
AcDbEntity
  8
Default
100
AcDbVertex
100
AcDb2dVertex
 10
38.36080469844647
 20
27.87707396233879
 30
0.0
  0
VERTEX
  5
105
330
E3
100
AcDbEntity
  8
Default
100
AcDbVertex
100
AcDb2dVertex
 10
38.11615194083791
 20
27.99859007371605
 30
0.0
  0
VERTEX
  5
106
330
E3
100
AcDbEntity
  8
Default
100
AcDbVertex
100
AcDb2dVertex
 10
37.86749311536719
 20
28.11168262716341
 30
0.0
  0
VERTEX
  5
107
330
E3
100
AcDbEntity
  8
Default
100
AcDbVertex
100
AcDb2dVertex
 10
37.61511814710171
 20
28.21621976182246
 30
0.0
  0
VERTEX
  5
108
330
E3
100
AcDbEntity
  8
Default
100
AcDbVertex
100
AcDb2dVertex
 10
37.35932129396515
 20
28.31207959207035
 30
0.0
  0
VERTEX
  5
109
330
E3
100
AcDbEntity
  8
Default
100
AcDbVertex
100
AcDb2dVertex
 10
37.10040080364586
 20
28.39915034963308
 30
0.0
  0
VERTEX
  5
10A
330
E3
100
AcDbEntity
  8
Default
100
AcDbVertex
100
AcDb2dVertex
 10
36.83865856585345
 20
28.47733051390219
 30
0.0
  0
VERTEX
  5
10B
330
E3
100
AcDbEntity
  8
Default
100
AcDbVertex
100
AcDb2dVertex
 10
36.57439976032883
 20
28.54652893030332
 30
0.0
  0
VERTEX
  5
10C
330
E3
100
AcDbEntity
  8
Default
100
AcDbVertex
100
AcDb2dVertex
 10
36.30793250101833
 20
28.60666491657837
 30
0.0
  0
VERTEX
  5
10D
330
E3
100
AcDbEntity
  8
Default
100
AcDbVertex
100
AcDb2dVertex
 10
36.03956747682659
 20
28.65766835685736
 30
0.0
  0
VERTEX
  5
10E
330
E3
100
AcDbEntity
  8
Default
100
AcDbVertex
100
AcDb2dVertex
 10
35.76961758936723
 20
28.69947978341044
 30
0.0
  0
VERTEX
  5
10F
330
E3
100
AcDbEntity
  8
Default
100
AcDbVertex
100
AcDb2dVertex
 10
35.49839758813353
 20
28.73205044598455
 30
0.0
  0
VERTEX
  5
110
330
E3
100
AcDbEntity
  8
Default
100
AcDbVertex
100
AcDb2dVertex
 10
35.22622370351462
 20
28.7553423686441
 30
0.0
  0
VERTEX
  5
111
330
E3
100
AcDbEntity
  8
Default
100
AcDbVertex
100
AcDb2dVertex
 10
34.953413278085
 20
28.76932839404918
 30
0.0
  0
VERTEX
  5
112
330
E3
100
AcDbEntity
  8
Default
100
AcDbVertex
100
AcDb2dVertex
 10
34.68028439659726
 20
28.77399221511979
 30
0.0
  0
SEQEND
  5
113
330
E3
100
AcDbEntity
  8
Default
  0
POLYLINE
  5
114
330
1F
100
AcDbEntity
  8
Default
100
AcDb2dPolyline
 66
     1
 10
0.0
 20
0.0
 30
0.0
  0
VERTEX
  5
115
330
114
100
AcDbEntity
  8
Default
100
AcDbVertex
100
AcDb2dVertex
 10
34.68028439659726
 20
28.77399221511979
 30
0.0
  0
VERTEX
  5
116
330
114
100
AcDbEntity
  8
Default
100
AcDbVertex
100
AcDb2dVertex
 10
29.68028445749822
 20
28.77399221511979
 30
0.0
  0
SEQEND
  5
117
330
114
100
AcDbEntity
  8
Default
  0
POLYLINE
  5
118
330
1F
100
AcDbEntity
  8
Default
100
AcDb2dPolyline
 66
     1
 10
0.0
 20
0.0
 30
0.0
  0
VERTEX
  5
119
330
118
100
AcDbEntity
  8
Default
100
AcDbVertex
100
AcDb2dVertex
 10
3.166112346151254
 20
14.64846505904338
 30
0.0
  0
VERTEX
  5
11A
330
118
100
AcDbEntity
  8
Default
100
AcDbVertex
100
AcDb2dVertex
 10
2.987259053364763
 20
14.72714701898967
 30
0.0
  0
VERTEX
  5
11B
330
118
100
AcDbEntity
  8
Default
100
AcDbVertex
100
AcDb2dVertex
 10
2.804887225663964
 20
14.80350154155947
 30
0.0
  0
VERTEX
  5
11C
330
118
100
AcDbEntity
  8
Default
100
AcDbVertex
100
AcDb2dVertex
 10
2.618990093954338
 20
14.87748862536675
 30
0.0
  0
VERTEX
  5
11D
330
118
100
AcDbEntity
  8
Default
100
AcDbVertex
100
AcDb2dVertex
 10
2.429562063961731
 20
14.94906852749859
 30
0.0
  0
VERTEX
  5
11E
330
118
100
AcDbEntity
  8
Default
100
AcDbVertex
100
AcDb2dVertex
 10
2.040096957164004
 20
15.08484928108511
 30
0.0
  0
VERTEX
  5
11F
330
118
100
AcDbEntity
  8
Default
100
AcDbVertex
100
AcDb2dVertex
 10
1.636471593721115
 20
15.21053213504378
 30
0.0
  0
VERTEX
  5
120
330
118
100
AcDbEntity
  8
Default
100
AcDbVertex
100
AcDb2dVertex
 10
1.218686016543959
 20
15.32581144278031
 30
0.0
  0
VERTEX
  5
121
330
118
100
AcDbEntity
  8
Default
100
AcDbVertex
100
AcDb2dVertex
 10
0.7867613422980975
 20
15.43038854925562
 30
0.0
  0
VERTEX
  5
122
330
118
100
AcDbEntity
  8
Default
100
AcDbVertex
100
AcDb2dVertex
 10
0.3407404319589364
 20
15.52397277639526
 30
0.0
  0
VERTEX
  5
123
330
118
100
AcDbEntity
  8
Default
100
AcDbVertex
100
AcDb2dVertex
 10
-0.1193114932647539
 20
15.60628241853994
 30
0.0
  0
VERTEX
  5
124
330
118
100
AcDbEntity
  8
Default
100
AcDbVertex
100
AcDb2dVertex
 10
-0.593306296466799
 20
15.67704574312654
 30
0.0
  0
VERTEX
  5
125
330
118
100
AcDbEntity
  8
Default
100
AcDbVertex
100
AcDb2dVertex
 10
-1.081132435744772
 20
15.73600199149764
 30
0.0
  0
VERTEX
  5
126
330
118
100
AcDbEntity
  8
Default
100
AcDbVertex
100
AcDb2dVertex
 10
-1.582654546590277
 20
15.78290237447584
 30
0.0
  0
VERTEX
  5
127
330
118
100
AcDbEntity
  8
Default
100
AcDbVertex
100
AcDb2dVertex
 10
-2.097713101249175
 20
15.81751105711268
 30
0.0
  0
VERTEX
  5
128
330
118
100
AcDbEntity
  8
Default
100
AcDbVertex
100
AcDb2dVertex
 10
-2.626124150027103
 20
15.83960612683423
 30
0.0
  0
VERTEX
  5
129
330
118
100
AcDbEntity
  8
Default
100
AcDbVertex
100
AcDb2dVertex
 10
-3.167679149147668
 20
15.84898053906269
 30
0.0
  0
VERTEX
  5
12A
330
118
100
AcDbEntity
  8
Default
100
AcDbVertex
100
AcDb2dVertex
 10
-3.722144879340972
 20
15.84544303429819
 30
0.0
  0
VERTEX
  5
12B
330
118
100
AcDbEntity
  8
Default
100
AcDbVertex
100
AcDb2dVertex
 10
-4.289263458850304
 20
15.82881902060245
 30
0.0
  0
VERTEX
  5
12C
330
118
100
AcDbEntity
  8
Default
100
AcDbVertex
100
AcDb2dVertex
 10
-4.86875245399755
 20
15.79895141543838
 30
0.0
  0
VERTEX
  5
12D
330
118
100
AcDbEntity
  8
Default
100
AcDbVertex
100
AcDb2dVertex
 10
-5.460305089846744
 20
15.75570144089034
 30
0.0
  0
VERTEX
  5
12E
330
118
100
AcDbEntity
  8
Default
100
AcDbVertex
100
AcDb2dVertex
 10
-6.06359056285476
 20
15.69894936642004
 30
0.0
  0
VERTEX
  5
12F
330
118
100
AcDbEntity
  8
Default
100
AcDbVertex
100
AcDb2dVertex
 10
-6.678254456704127
 20
15.62859519350466
 30
0.0
  0
VERTEX
  5
130
330
118
100
AcDbEntity
  8
Default
100
AcDbVertex
100
AcDb2dVertex
 10
-7.303919261781525
 20
15.54455927675639
 30
0.0
  0
VERTEX
  5
131
330
118
100
AcDbEntity
  8
Default
100
AcDbVertex
100
AcDb2dVertex
 10
-7.94018499800427
 20
15.44678287643607
 30
0.0
  0
VERTEX
  5
132
330
118
100
AcDbEntity
  8
Default
100
AcDbVertex
100
AcDb2dVertex
 10
-8.586629939913923
 20
15.33522863764637
 30
0.0
  0
VERTEX
  5
133
330
118
100
AcDbEntity
  8
Default
100
AcDbVertex
100
AcDb2dVertex
 10
-9.242811442159711
 20
15.20988099191955
 30
0.0
  0
VERTEX
  5
134
330
118
100
AcDbEntity
  8
Default
100
AcDbVertex
100
AcDb2dVertex
 10
-10.58251458020813
 20
14.91785397433521
 30
0.0
  0
VERTEX
  5
135
330
118
100
AcDbEntity
  8
Default
100
AcDbVertex
100
AcDb2dVertex
 10
-11.95537225415194
 20
14.57102303350877
 30
0.0
  0
VERTEX
  5
136
330
118
100
AcDbEntity
  8
Default
100
AcDbVertex
100
AcDb2dVertex
 10
-13.35719606843539
 20
14.17006943566416
 30
0.0
  0
VERTEX
  5
137
330
118
100
AcDbEntity
  8
Default
100
AcDbVertex
100
AcDb2dVertex
 10
-14.78357314155891
 20
13.71603199984464
 30
0.0
  0
VERTEX
  5
138
330
118
100
AcDbEntity
  8
Default
100
AcDbVertex
100
AcDb2dVertex
 10
-15.68178537612655
 20
13.4021209531
 30
0.0
  0
VERTEX
  5
139
330
118
100
AcDbEntity
  8
Default
100
AcDbVertex
100
AcDb2dVertex
 10
-16.5413383707299
 20
13.07352343553995
 30
0.0
  0
VERTEX
  5
13A
330
118
100
AcDbEntity
  8
Default
100
AcDbVertex
100
AcDb2dVertex
 10
-17.36117365872319
 20
12.73070245094103
 30
0.0
  0
VERTEX
  5
13B
330
118
100
AcDbEntity
  8
Default
100
AcDbVertex
100
AcDb2dVertex
 10
-18.14034122817766
 20
12.37415688163257
 30
0.0
  0
VERTEX
  5
13C
330
118
100
AcDbEntity
  8
Default
100
AcDbVertex
100
AcDb2dVertex
 10
-18.51440829000639
 20
12.19090250630083
 30
0.0
  0
VERTEX
  5
13D
330
118
100
AcDbEntity
  8
Default
100
AcDbVertex
100
AcDb2dVertex
 10
-18.87800309421532
 20
12.00441910357161
 30
0.0
  0
VERTEX
  5
13E
330
118
100
AcDbEntity
  8
Default
100
AcDbVertex
100
AcDb2dVertex
 10
-19.2310388577985
 20
11.8147780294791
 30
0.0
  0
VERTEX
  5
13F
330
118
100
AcDbEntity
  8
Default
100
AcDbVertex
100
AcDb2dVertex
 10
-19.57343610791592
 20
11.62205240036631
 30
0.0
  0
VERTEX
  5
140
330
118
100
AcDbEntity
  8
Default
100
AcDbVertex
100
AcDb2dVertex
 10
-19.90512272678609
 20
11.4263170029153
 30
0.0
  0
VERTEX
  5
141
330
118
100
AcDbEntity
  8
Default
100
AcDbVertex
100
AcDb2dVertex
 10
-20.22603398422087
 20
11.22764820209209
 30
0.0
  0
VERTEX
  5
142
330
118
100
AcDbEntity
  8
Default
100
AcDbVertex
100
AcDb2dVertex
 10
-20.5361125578366
 20
11.02612384723498
 30
0.0
  0
VERTEX
  5
143
330
118
100
AcDbEntity
  8
Default
100
AcDbVertex
100
AcDb2dVertex
 10
-20.83530854101246
 20
10.82182317651855
 30
0.0
  0
VERTEX
  5
144
330
118
100
AcDbEntity
  8
Default
100
AcDbVertex
100
AcDb2dVertex
 10
-21.12357943870374
 20
10.61482672002763
 30
0.0
  0
VERTEX
  5
145
330
118
100
AcDbEntity
  8
Default
100
AcDbVertex
100
AcDb2dVertex
 10
-21.40089015125297
 20
10.40521620167697
 30
0.0
  0
VERTEX
  5
146
330
118
100
AcDbEntity
  8
Default
100
AcDbVertex
100
AcDb2dVertex
 10
-21.66721294637651
 20
10.19307444021296
 30
0.0
  0
VERTEX
  5
147
330
118
100
AcDbEntity
  8
Default
100
AcDbVertex
100
AcDb2dVertex
 10
-21.92252741953738
 20
9.978485249532989
 30
0.0
  0
VERTEX
  5
148
330
118
100
AcDbEntity
  8
Default
100
AcDbVertex
100
AcDb2dVertex
 10
-22.16682044294705
 20
9.761533338556845
 30
0.0
  0
VERTEX
  5
149
330
118
100
AcDbEntity
  8
Default
100
AcDbVertex
100
AcDb2dVertex
 10
-22.40008610346931
 20
9.54230421088215
 30
0.0
  0
VERTEX
  5
14A
330
118
100
AcDbEntity
  8
Default
100
AcDbVertex
100
AcDb2dVertex
 10
-22.62232562972837
 20
9.32088406445282
 30
0.0
  0
VERTEX
  5
14B
330
118
100
AcDbEntity
  8
Default
100
AcDbVertex
100
AcDb2dVertex
 10
-22.83354730875003
 20
9.097359691465417
 30
0.0
  0
VERTEX
  5
14C
330
118
100
AcDbEntity
  8
Default
100
AcDbVertex
100
AcDb2dVertex
 10
-23.03376639249089
 20
8.871818378733742
 30
0.0
  0
VERTEX
  5
14D
330
118
100
AcDbEntity
  8
Default
100
AcDbVertex
100
AcDb2dVertex
 10
-23.22300499463294
 20
8.644347808726282
 30
0.0
  0
VERTEX
  5
14E
330
118
100
AcDbEntity
  8
Default
100
AcDbVertex
100
AcDb2dVertex
 10
-23.40129197804358
 20
8.415035961485167
 30
0.0
  0
VERTEX
  5
14F
330
118
100
AcDbEntity
  8
Default
100
AcDbVertex
100
AcDb2dVertex
 10
-23.56866283331968
 20
8.183971017628307
 30
0.0
  0
VERTEX
  5
150
330
118
100
AcDbEntity
  8
Default
100
AcDbVertex
100
AcDb2dVertex
 10
-23.64826758417897
 20
8.067808722171597
 30
0.0
  0
VERTEX
  5
151
330
118
100
AcDbEntity
  8
Default
100
AcDbVertex
100
AcDb2dVertex
 10
-23.72515954885228
 20
7.951241262628995
 30
0.0
  0
VERTEX
  5
152
330
118
100
AcDbEntity
  8
Default
100
AcDbVertex
100
AcDb2dVertex
 10
-23.79934496853298
 20
7.834279675603825
 30
0.0
  0
VERTEX
  5
153
330
118
100
AcDbEntity
  8
Default
100
AcDbVertex
100
AcDb2dVertex
 10
-23.87083047286389
 20
7.716934992559214
 30
0.0
  0
VERTEX
  5
154
330
118
100
AcDbEntity
  8
Default
100
AcDbVertex
100
AcDb2dVertex
 10
-23.93962307521987
 20
7.599218236965045
 30
0.0
  0
VERTEX
  5
155
330
118
100
AcDbEntity
  8
Default
100
AcDbVertex
100
AcDb2dVertex
 10
-24.00573016788331
 20
7.48114042147446
 30
0.0
  0
VERTEX
  5
156
330
118
100
AcDbEntity
  8
Default
100
AcDbVertex
100
AcDb2dVertex
 10
-24.06915951711651
 20
7.362712545131186
 30
0.0
  0
VERTEX
  5
157
330
118
100
AcDbEntity
  8
Default
100
AcDbVertex
100
AcDb2dVertex
 10
-24.12991925813474
 20
7.243945590608843
 30
0.0
  0
SEQEND
  5
158
330
118
100
AcDbEntity
  8
Default
  0
POLYLINE
  5
159
330
1F
100
AcDbEntity
  8
Default
100
AcDb2dPolyline
 66
     1
 10
0.0
 20
0.0
 30
0.0
  0
VERTEX
  5
15A
330
159
100
AcDbEntity
  8
Default
100
AcDbVertex
100
AcDb2dVertex
 10
-24.12991925813473
 20
7.243945590608843
 30
0.0
  0
VERTEX
  5
15B
330
159
100
AcDbEntity
  8
Default
100
AcDbVertex
100
AcDb2dVertex
 10
-24.14315506605909
 20
7.216412807381529
 30
0.0
  0
VERTEX
  5
15C
330
159
100
AcDbEntity
  8
Default
100
AcDbVertex
100
AcDb2dVertex
 10
-24.15563336877999
 20
7.188277763210084
 30
0.0
  0
VERTEX
  5
15D
330
159
100
AcDbEntity
  8
Default
100
AcDbVertex
100
AcDb2dVertex
 10
-24.1673186081117
 20
7.159569863320554
 30
0.0
  0
VERTEX
  5
15E
330
159
100
AcDbEntity
  8
Default
100
AcDbVertex
100
AcDb2dVertex
 10
-24.17817663266215
 20
7.130321097536278
 30
0.0
  0
VERTEX
  5
15F
330
159
100
AcDbEntity
  8
Default
100
AcDbVertex
100
AcDb2dVertex
 10
-24.18817492103889
 20
7.100565965902981
 30
0.0
  0
VERTEX
  5
160
330
159
100
AcDbEntity
  8
Default
100
AcDbVertex
100
AcDb2dVertex
 10
-24.1972828014353
 20
7.070341381971878
 30
0.0
  0
VERTEX
  5
161
330
159
100
AcDbEntity
  8
Default
100
AcDbVertex
100
AcDb2dVertex
 10
-24.20547166505126
 20
7.039686553780066
 30
0.0
  0
VERTEX
  5
162
330
159
100
AcDbEntity
  8
Default
100
AcDbVertex
100
AcDb2dVertex
 10
-24.21271517076448
 20
7.008642842893588
 30
0.0
  0
VERTEX
  5
163
330
159
100
AcDbEntity
  8
Default
100
AcDbVertex
100
AcDb2dVertex
 10
-24.21898943847861
 20
6.977253602215305
 30
0.0
  0
VERTEX
  5
164
330
159
100
AcDbEntity
  8
Default
100
AcDbVertex
100
AcDb2dVertex
 10
-24.2242732286318
 20
6.945563993599871
 30
0.0
  0
VERTEX
  5
165
330
159
100
AcDbEntity
  8
Default
100
AcDbVertex
100
AcDb2dVertex
 10
-24.22854810545771
 20
6.913620786653835
 30
0.0
  0
VERTEX
  5
166
330
159
100
AcDbEntity
  8
Default
100
AcDbVertex
100
AcDb2dVertex
 10
-24.23179858174922
 20
6.881472140422196
 30
0.0
  0
VERTEX
  5
167
330
159
100
AcDbEntity
  8
Default
100
AcDbVertex
100
AcDb2dVertex
 10
-24.23401224308113
 20
6.84916736996498
 30
0.0
  0
VERTEX
  5
168
330
159
100
AcDbEntity
  8
Default
100
AcDbVertex
100
AcDb2dVertex
 10
-24.23517984969993
 20
6.816756700101326
 30
0.0
  0
VERTEX
  5
169
330
159
100
AcDbEntity
  8
Default
100
AcDbVertex
100
AcDb2dVertex
 10
-24.23529541458054
 20
6.784291008836045
 30
0.0
  0
VERTEX
  5
16A
330
159
100
AcDbEntity
  8
Default
100
AcDbVertex
100
AcDb2dVertex
 10
-24.23435625647697
 20
6.751821563178636
 30
0.0
  0
VERTEX
  5
16B
330
159
100
AcDbEntity
  8
Default
100
AcDbVertex
100
AcDb2dVertex
 10
-24.23236302714808
 20
6.719399750211352
 30
0.0
  0
VERTEX
  5
16C
330
159
100
AcDbEntity
  8
Default
100
AcDbVertex
100
AcDb2dVertex
 10
-24.22931971231444
 20
6.687076806357219
 30
0.0
  0
VERTEX
  5
16D
330
159
100
AcDbEntity
  8
Default
100
AcDbVertex
100
AcDb2dVertex
 10
-24.22523360628688
 20
6.65490354783778
 30
0.0
  0
VERTEX
  5
16E
330
159
100
AcDbEntity
  8
Default
100
AcDbVertex
100
AcDb2dVertex
 10
-24.22011526059558
 20
6.622930105292908
 30
0.0
  0
VERTEX
  5
16F
330
159
100
AcDbEntity
  8
Default
100
AcDbVertex
100
AcDb2dVertex
 10
-24.21397840732798
 20
6.591205665461436
 30
0.0
  0
VERTEX
  5
170
330
159
100
AcDbEntity
  8
Default
100
AcDbVertex
100
AcDb2dVertex
 10
-24.20683985824873
 20
6.559778222693738
 30
0.0
  0
VERTEX
  5
171
330
159
100
AcDbEntity
  8
Default
100
AcDbVertex
100
AcDb2dVertex
 10
-24.19871938111434
 20
6.528694342889369
 30
0.0
  0
VERTEX
  5
172
330
159
100
AcDbEntity
  8
Default
100
AcDbVertex
100
AcDb2dVertex
 10
-24.1896395549033
 20
6.497998942229256
 30
0.0
  0
VERTEX
  5
173
330
159
100
AcDbEntity
  8
Default
100
AcDbVertex
100
AcDb2dVertex
 10
-24.17962560595177
 20
6.467735082808872
 30
0.0
  0
VERTEX
  5
174
330
159
100
AcDbEntity
  8
Default
100
AcDbVertex
100
AcDb2dVertex
 10
-24.16870522721089
 20
6.437943786983646
 30
0.0
  0
VERTEX
  5
175
330
159
100
AcDbEntity
  8
Default
100
AcDbVertex
100
AcDb2dVertex
 10
-24.15690838301979
 20
6.408663871917948
 30
0.0
  0
VERTEX
  5
176
330
159
100
AcDbEntity
  8
Default
100
AcDbVertex
100
AcDb2dVertex
 10
-24.14426710191675
 20
6.379931805492907
 30
0.0
  0
VERTEX
  5
177
330
159
100
AcDbEntity
  8
Default
100
AcDbVertex
100
AcDb2dVertex
 10
-24.13081526008846
 20
6.351781584384208
 30
0.0
  0
VERTEX
  5
178
330
159
100
AcDbEntity
  8
Default
100
AcDbVertex
100
AcDb2dVertex
 10
-24.11658835808446
 20
6.324244634776912
 30
0.0
  0
VERTEX
  5
179
330
159
100
AcDbEntity
  8
Default
100
AcDbVertex
100
AcDb2dVertex
 10
-24.10162329340245
 20
6.297349735848177
 30
0.0
  0
VERTEX
  5
17A
330
159
100
AcDbEntity
  8
Default
100
AcDbVertex
100
AcDb2dVertex
 10
-24.08595813148403
 20
6.271122965827402
 30
0.0
  0
VERTEX
  5
17B
330
159
100
AcDbEntity
  8
Default
100
AcDbVertex
100
AcDb2dVertex
 10
-24.06949917139535
 20
6.245386932790984
 30
0.0
  0
VERTEX
  5
17C
330
159
100
AcDbEntity
  8
Default
100
AcDbVertex
100
AcDb2dVertex
 10
-24.05212961086169
 20
6.219978526383039
 30
0.0
  0
VERTEX
  5
17D
330
159
100
AcDbEntity
  8
Default
100
AcDbVertex
100
AcDb2dVertex
 10
-24.03385576347115
 20
6.194943454267027
 30
0.0
  0
VERTEX
  5
17E
330
159
100
AcDbEntity
  8
Default
100
AcDbVertex
100
AcDb2dVertex
 10
-24.01468688097574
 20
6.170327586601664
 30
0.0
  0
VERTEX
  5
17F
330
159
100
AcDbEntity
  8
Default
100
AcDbVertex
100
AcDb2dVertex
 10
-23.99463520740029
 20
6.146176727076522
 30
0.0
  0
VERTEX
  5
180
330
159
100
AcDbEntity
  8
Default
100
AcDbVertex
100
AcDb2dVertex
 10
-23.9737160122445
 20
6.122536375278008
 30
0.0
  0
VERTEX
  5
181
330
159
100
AcDbEntity
  8
Default
100
AcDbVertex
100
AcDb2dVertex
 10
-23.95194760147232
 20
6.099451482572086
 30
0.0
  0
VERTEX
  5
182
330
159
100
AcDbEntity
  8
Default
100
AcDbVertex
100
AcDb2dVertex
 10
-23.92935130524133
 20
6.076966203893321
 30
0.0
  0
VERTEX
  5
183
330
159
100
AcDbEntity
  8
Default
100
AcDbVertex
100
AcDb2dVertex
 10
-23.90595144161539
 20
6.055123647999025
 30
0.0
  0
VERTEX
  5
184
330
159
100
AcDbEntity
  8
Default
100
AcDbVertex
100
AcDb2dVertex
 10
-23.8817752558243
 20
6.033965628876781
 30
0.0
  0
VERTEX
  5
185
330
159
100
AcDbEntity
  8
Default
100
AcDbVertex
100
AcDb2dVertex
 10
-23.85685283497615
 20
6.013532421078159
 30
0.0
  0
VERTEX
  5
186
330
159
100
AcDbEntity
  8
Default
100
AcDbVertex
100
AcDb2dVertex
 10
-23.83121699848654
 20
5.993862521786943
 30
0.0
  0
VERTEX
  5
187
330
159
100
AcDbEntity
  8
Default
100
AcDbVertex
100
AcDb2dVertex
 10
-23.80490316485422
 20
5.97499242241368
 30
0.0
  0
VERTEX
  5
188
330
159
100
AcDbEntity
  8
Default
100
AcDbVertex
100
AcDb2dVertex
 10
-23.77794919577807
 20
5.9569563924384
 30
0.0
  0
VERTEX
  5
189
330
159
100
AcDbEntity
  8
Default
100
AcDbVertex
100
AcDb2dVertex
 10
-23.7503952189657
 20
5.93978627809988
 30
0.0
  0
VERTEX
  5
18A
330
159
100
AcDbEntity
  8
Default
100
AcDbVertex
100
AcDb2dVertex
 10
-23.72228343132202
 20
5.923511318354327
 30
0.0
  0
VERTEX
  5
18B
330
159
100
AcDbEntity
  8
Default
100
AcDbVertex
100
AcDb2dVertex
 10
-23.69365788451692
 20
5.908157980301905
 30
0.0
  0
VERTEX
  5
18C
330
159
100
AcDbEntity
  8
Default
100
AcDbVertex
100
AcDb2dVertex
 10
-23.66456425520855
 20
5.893749816010746
 30
0.0
  0
VERTEX
  5
18D
330
159
100
AcDbEntity
  8
Default
100
AcDbVertex
100
AcDb2dVertex
 10
-23.63504960243408
 20
5.88030734236079
 30
0.0
  0
VERTEX
  5
18E
330
159
100
AcDbEntity
  8
Default
100
AcDbVertex
100
AcDb2dVertex
 10
-23.60516211486899
 20
5.867847945191076
 30
0.0
  0
VERTEX
  5
18F
330
159
100
AcDbEntity
  8
Default
100
AcDbVertex
100
AcDb2dVertex
 10
-23.57495085079304
 20
5.856385808671986
 30
0.0
  0
VERTEX
  5
190
330
159
100
AcDbEntity
  8
Default
100
AcDbVertex
100
AcDb2dVertex
 10
-23.54446547368431
 20
5.845931870446992
 30
0.0
  0
VERTEX
  5
191
330
159
100
AcDbEntity
  8
Default
100
AcDbVertex
100
AcDb2dVertex
 10
-23.51375598638974
 20
5.836493802705793
 30
0.0
  0
VERTEX
  5
192
330
159
100
AcDbEntity
  8
Default
100
AcDbVertex
100
AcDb2dVertex
 10
-23.48287246679264
 20
5.82807601897117
 30
0.0
  0
VERTEX
  5
193
330
159
100
AcDbEntity
  8
Default
100
AcDbVertex
100
AcDb2dVertex
 10
-23.45186480781511
 20
5.82067970601445
 30
0.0
  0
VERTEX
  5
194
330
159
100
AcDbEntity
  8
Default
100
AcDbVertex
100
AcDb2dVertex
 10
-23.42078246446148
 20
5.814302879967136
 30
0.0
  0
VERTEX
  5
195
330
159
100
AcDbEntity
  8
Default
100
AcDbVertex
100
AcDb2dVertex
 10
-23.38967421043009
 20
5.808940465376497
 30
0.0
  0
VERTEX
  5
196
330
159
100
AcDbEntity
  8
Default
100
AcDbVertex
100
AcDb2dVertex
 10
-23.35858790660243
 20
5.804584395667038
 30
0.0
  0
VERTEX
  5
197
330
159
100
AcDbEntity
  8
Default
100
AcDbVertex
100
AcDb2dVertex
 10
-23.32757028346688
 20
5.801223733222963
 30
0.0
  0
VERTEX
  5
198
330
159
100
AcDbEntity
  8
Default
100
AcDbVertex
100
AcDb2dVertex
 10
-23.29666673925557
 20
5.798844807102686
 30
0.0
  0
VERTEX
  5
199
330
159
100
AcDbEntity
  8
Default
100
AcDbVertex
100
AcDb2dVertex
 10
-23.265921155276
 20
5.797431366237726
 30
0.0
  0
VERTEX
  5
19A
330
159
100
AcDbEntity
  8
Default
100
AcDbVertex
100
AcDb2dVertex
 10
-23.23537572961074
 20
5.796964745855897
 30
0.0
  0
SEQEND
  5
19B
330
159
100
AcDbEntity
  8
Default
  0
POLYLINE
  5
19C
330
1F
100
AcDbEntity
  8
Default
100
AcDb2dPolyline
 66
     1
 10
0.0
 20
0.0
 30
0.0
  0
VERTEX
  5
19D
330
19C
100
AcDbEntity
  8
Default
100
AcDbVertex
100
AcDb2dVertex
 10
-23.23537572961074
 20
5.796964745855897
 30
0.0
  0
VERTEX
  5
19E
330
19C
100
AcDbEntity
  8
Default
100
AcDbVertex
100
AcDb2dVertex
 10
-10.4377092282029
 20
5.796964745855828
 30
0.0
  0
SEQEND
  5
19F
330
19C
100
AcDbEntity
  8
Default
  0
POLYLINE
  5
1A0
330
1F
100
AcDbEntity
  8
Default
100
AcDb2dPolyline
 66
     1
 10
0.0
 20
0.0
 30
0.0
  0
VERTEX
  5
1A1
330
1A0
100
AcDbEntity
  8
Default
100
AcDbVertex
100
AcDb2dVertex
 10
-10.4377092282029
 20
5.796964745855828
 30
0.0
  0
VERTEX
  5
1A2
330
1A0
100
AcDbEntity
  8
Default
100
AcDbVertex
100
AcDb2dVertex
 10
-10.26351209945773
 20
5.80000013117854
 30
0.0
  0
VERTEX
  5
1A3
330
1A0
100
AcDbEntity
  8
Default
100
AcDbVertex
100
AcDb2dVertex
 10
-10.08952647287569
 20
5.809102601721051
 30
0.0
  0
VERTEX
  5
1A4
330
1A0
100
AcDbEntity
  8
Default
100
AcDbVertex
100
AcDb2dVertex
 10
-9.915963593823713
 20
5.82426110568117
 30
0.0
  0
VERTEX
  5
1A5
330
1A0
100
AcDbEntity
  8
Default
100
AcDbVertex
100
AcDb2dVertex
 10
-9.743034194388049
 20
5.845457238298722
 30
0.0
  0
VERTEX
  5
1A6
330
1A0
100
AcDbEntity
  8
Default
100
AcDbVertex
100
AcDb2dVertex
 10
-9.570948237513063
 20
5.872665264201767
 30
0.0
  0
VERTEX
  5
1A7
330
1A0
100
AcDbEntity
  8
Default
100
AcDbVertex
100
AcDb2dVertex
 10
-9.399914662073853
 20
5.905852148653313
 30
0.0
  0
VERTEX
  5
1A8
330
1A0
100
AcDbEntity
  8
Default
100
AcDbVertex
100
AcDb2dVertex
 10
-9.23014112919225
 20
5.944977597660571
 30
0.0
  0
VERTEX
  5
1A9
330
1A0
100
AcDbEntity
  8
Default
100
AcDbVertex
100
AcDb2dVertex
 10
-9.061833770104212
 20
5.989994106898076
 30
0.0
  0
VERTEX
  5
1AA
330
1A0
100
AcDbEntity
  8
Default
100
AcDbVertex
100
AcDb2dVertex
 10
-8.89519693588473
 20
6.040847019385261
 30
0.0
  0
VERTEX
  5
1AB
330
1A0
100
AcDbEntity
  8
Default
100
AcDbVertex
100
AcDb2dVertex
 10
-8.73043294933413
 20
6.097474591848453
 30
0.0
  0
VERTEX
  5
1AC
330
1A0
100
AcDbEntity
  8
Default
100
AcDbVertex
100
AcDb2dVertex
 10
-8.567741859327006
 20
6.159808069686725
 30
0.0
  0
VERTEX
  5
1AD
330
1A0
100
AcDbEntity
  8
Default
100
AcDbVertex
100
AcDb2dVertex
 10
-8.407321197922057
 20
6.227771770450582
 30
0.0
  0
VERTEX
  5
1AE
330
1A0
100
AcDbEntity
  8
Default
100
AcDbVertex
100
AcDb2dVertex
 10
-8.249365740527717
 20
6.301283175732111
 30
0.0
  0
VERTEX
  5
1AF
330
1A0
100
AcDbEntity
  8
Default
100
AcDbVertex
100
AcDb2dVertex
 10
-8.094067269414793
 20
6.380253031355057
 30
0.0
  0
VERTEX
  5
1B0
330
1A0
100
AcDbEntity
  8
Default
100
AcDbVertex
100
AcDb2dVertex
 10
-7.941614340863229
 20
6.46458545574314
 30
0.0
  0
VERTEX
  5
1B1
330
1A0
100
AcDbEntity
  8
Default
100
AcDbVertex
100
AcDb2dVertex
 10
-7.792192056225714
 20
6.554178056335076
 30
0.0
  0
VERTEX
  5
1B2
330
1A0
100
AcDbEntity
  8
Default
100
AcDbVertex
100
AcDb2dVertex
 10
-7.64598183718612
 20
6.648922053904917
 30
0.0
  0
VERTEX
  5
1B3
330
1A0
100
AcDbEntity
  8
Default
100
AcDbVertex
100
AcDb2dVertex
 10
-7.503161205485608
 20
6.748702414636812
 30
0.0
  0
VERTEX
  5
1B4
330
1A0
100
AcDbEntity
  8
Default
100
AcDbVertex
100
AcDb2dVertex
 10
-7.363903567383876
 20
6.853397989793774
 30
0.0
  0
VERTEX
  5
1B5
330
1A0
100
AcDbEntity
  8
Default
100
AcDbVertex
100
AcDb2dVertex
 10
-7.22837800311723
 20
6.962881662810931
 30
0.0
  0
VERTEX
  5
1B6
330
1A0
100
AcDbEntity
  8
Default
100
AcDbVertex
100
AcDb2dVertex
 10
-7.096749061609122
 20
7.077020503634619
 30
0.0
  0
VERTEX
  5
1B7
330
1A0
100
AcDbEntity
  8
Default
100
AcDbVertex
100
AcDb2dVertex
 10
-6.96917656068239
 20
7.195675930119966
 30
0.0
  0
VERTEX
  5
1B8
330
1A0
100
AcDbEntity
  8
Default
100
AcDbVertex
100
AcDb2dVertex
 10
-6.845815393015794
 20
7.318703876290966
 30
0.0
  0
SEQEND
  5
1B9
330
1A0
100
AcDbEntity
  8
Default
  0
POLYLINE
  5
1BA
330
1F
100
AcDbEntity
  8
Default
100
AcDb2dPolyline
 66
     1
 10
0.0
 20
0.0
 30
0.0
  0
VERTEX
  5
1BB
330
1BA
100
AcDbEntity
  8
Default
100
AcDbVertex
100
AcDb2dVertex
 10
-6.845815393015792
 20
7.318703876290968
 30
0.0
  0
VERTEX
  5
1BC
330
1BA
100
AcDbEntity
  8
Default
100
AcDbVertex
100
AcDb2dVertex
 10
-6.68525964835442
 20
7.478819560898932
 30
0.0
  0
VERTEX
  5
1BD
330
1BA
100
AcDbEntity
  8
Default
100
AcDbVertex
100
AcDb2dVertex
 10
-6.519216892469608
 20
7.633237768437492
 30
0.0
  0
VERTEX
  5
1BE
330
1BA
100
AcDbEntity
  8
Default
100
AcDbVertex
100
AcDb2dVertex
 10
-6.347889187328581
 20
7.781770583169975
 30
0.0
  0
VERTEX
  5
1BF
330
1BA
100
AcDbEntity
  8
Default
100
AcDbVertex
100
AcDb2dVertex
 10
-6.171485026297743
 20
7.924237251455056
 30
0.0
  0
VERTEX
  5
1C0
330
1BA
100
AcDbEntity
  8
Default
100
AcDbVertex
100
AcDb2dVertex
 10
-5.990219080421396
 20
8.060464401710789
 30
0.0
  0
VERTEX
  5
1C1
330
1BA
100
AcDbEntity
  8
Default
100
AcDbVertex
100
AcDb2dVertex
 10
-5.804311937182685
 20
8.190286255395236
 30
0.0
  0
VERTEX
  5
1C2
330
1BA
100
AcDbEntity
  8
Default
100
AcDbVertex
100
AcDb2dVertex
 10
-5.613989832064656
 20
8.313544828746895
 30
0.0
  0
VERTEX
  5
1C3
330
1BA
100
AcDbEntity
  8
Default
100
AcDbVertex
100
AcDb2dVertex
 10
-5.419484373238118
 20
8.430090125039468
 30
0.0
  0
VERTEX
  5
1C4
330
1BA
100
AcDbEntity
  8
Default
100
AcDbVertex
100
AcDb2dVertex
 10
-5.221032259711336
 20
8.539780317116964
 30
0.0
  0
VERTEX
  5
1C5
330
1BA
100
AcDbEntity
  8
Default
100
AcDbVertex
100
AcDb2dVertex
 10
-5.018874993284525
 20
8.642481919987045
 30
0.0
  0
VERTEX
  5
1C6
330
1BA
100
AcDbEntity
  8
Default
100
AcDbVertex
100
AcDb2dVertex
 10
-4.813258584659721
 20
8.738069953262569
 30
0.0
  0
VERTEX
  5
1C7
330
1BA
100
AcDbEntity
  8
Default
100
AcDbVertex
100
AcDb2dVertex
 10
-4.604433254063633
 20
8.826428093253627
 30
0.0
  0
VERTEX
  5
1C8
330
1BA
100
AcDbEntity
  8
Default
100
AcDbVertex
100
AcDb2dVertex
 10
-4.392653126747808
 20
8.907448814525027
 30
0.0
  0
VERTEX
  5
1C9
330
1BA
100
AcDbEntity
  8
Default
100
AcDbVertex
100
AcDb2dVertex
 10
-4.178175923736671
 20
8.981033520746932
 30
0.0
  0
VERTEX
  5
1CA
330
1BA
100
AcDbEntity
  8
Default
100
AcDbVertex
100
AcDb2dVertex
 10
-3.961262648199763
 20
9.047092664679429
 30
0.0
  0
VERTEX
  5
1CB
330
1BA
100
AcDbEntity
  8
Default
100
AcDbVertex
100
AcDb2dVertex
 10
-3.742177267829857
 20
9.105545857145014
 30
0.0
  0
VERTEX
  5
1CC
330
1BA
100
AcDbEntity
  8
Default
100
AcDbVertex
100
AcDb2dVertex
 10
-3.521186393613457
 20
9.156321964856376
 30
0.0
  0
VERTEX
  5
1CD
330
1BA
100
AcDbEntity
  8
Default
100
AcDbVertex
100
AcDb2dVertex
 10
-3.298558955384598
 20
9.199359196980438
 30
0.0
  0
VERTEX
  5
1CE
330
1BA
100
AcDbEntity
  8
Default
100
AcDbVertex
100
AcDb2dVertex
 10
-3.074565874556788
 20
9.234605180333318
 30
0.0
  0
VERTEX
  5
1CF
330
1BA
100
AcDbEntity
  8
Default
100
AcDbVertex
100
AcDb2dVertex
 10
-2.849479734431335
 20
9.262017023114673
 30
0.0
  0
VERTEX
  5
1D0
330
1BA
100
AcDbEntity
  8
Default
100
AcDbVertex
100
AcDb2dVertex
 10
-2.623574448483274
 20
9.281561367103919
 30
0.0
  0
VERTEX
  5
1D1
330
1BA
100
AcDbEntity
  8
Default
100
AcDbVertex
100
AcDb2dVertex
 10
-2.39712492702858
 20
9.293214428254746
 30
0.0
  0
VERTEX
  5
1D2
330
1BA
100
AcDbEntity
  8
Default
100
AcDbVertex
100
AcDb2dVertex
 10
-2.170406742678287
 20
9.29696202563859
 30
0.0
  0
VERTEX
  5
1D3
330
1BA
100
AcDbEntity
  8
Default
100
AcDbVertex
100
AcDb2dVertex
 10
-1.943695794986649
 20
9.292799598701782
 30
0.0
  0
VERTEX
  5
1D4
330
1BA
100
AcDbEntity
  8
Default
100
AcDbVertex
100
AcDb2dVertex
 10
-1.717267974701433
 20
9.280732212815408
 30
0.0
  0
VERTEX
  5
1D5
330
1BA
100
AcDbEntity
  8
Default
100
AcDbVertex
100
AcDb2dVertex
 10
-1.491398828024927
 20
9.260774553111133
 30
0.0
  0
VERTEX
  5
1D6
330
1BA
100
AcDbEntity
  8
Default
100
AcDbVertex
100
AcDb2dVertex
 10
-1.266363221294237
 20
9.232950906610448
 30
0.0
  0
VERTEX
  5
1D7
330
1BA
100
AcDbEntity
  8
Default
100
AcDbVertex
100
AcDb2dVertex
 10
-1.042435006488931
 20
9.19729513266914
 30
0.0
  0
VERTEX
  5
1D8
330
1BA
100
AcDbEntity
  8
Default
100
AcDbVertex
100
AcDb2dVertex
 10
-0.8198866879730806
 20
9.153850621772916
 30
0.0
  0
VERTEX
  5
1D9
330
1BA
100
AcDbEntity
  8
Default
100
AcDbVertex
100
AcDb2dVertex
 10
-0.5989890908772515
 20
9.102670242734327
 30
0.0
  0
VERTEX
  5
1DA
330
1BA
100
AcDbEntity
  8
Default
100
AcDbVertex
100
AcDb2dVertex
 10
-0.3800110315240048
 20
9.043816278355273
 30
0.0
  0
VERTEX
  5
1DB
330
1BA
100
AcDbEntity
  8
Default
100
AcDbVertex
100
AcDb2dVertex
 10
-0.1632189902979642
 20
8.977360349633365
 30
0.0
  0
VERTEX
  5
1DC
330
1BA
100
AcDbEntity
  8
Default
100
AcDbVertex
100
AcDb2dVertex
 10
0.0511232126414436
 20
8.903383328604356
 30
0.0
  0
VERTEX
  5
1DD
330
1BA
100
AcDbEntity
  8
Default
100
AcDbVertex
100
AcDb2dVertex
 10
0.2627547384099538
 20
8.821975239926768
 30
0.0
  0
VERTEX
  5
1DE
330
1BA
100
AcDbEntity
  8
Default
100
AcDbVertex
100
AcDb2dVertex
 10
0.4714180468204225
 20
8.733235151328426
 30
0.0
  0
VERTEX
  5
1DF
330
1BA
100
AcDbEntity
  8
Default
100
AcDbVertex
100
AcDb2dVertex
 10
0.6768592097905319
 20
8.637271053048213
 30
0.0
  0
VERTEX
  5
1E0
330
1BA
100
AcDbEntity
  8
Default
100
AcDbVertex
100
AcDb2dVertex
 10
0.8788282203547975
 20
8.534199726419823
 30
0.0
  0
VERTEX
  5
1E1
330
1BA
100
AcDbEntity
  8
Default
100
AcDbVertex
100
AcDb2dVertex
 10
1.077079296904889
 20
8.424146601757343
 30
0.0
  0
VERTEX
  5
1E2
330
1BA
100
AcDbEntity
  8
Default
100
AcDbVertex
100
AcDb2dVertex
 10
1.271371182287975
 20
8.307245605715693
 30
0.0
  0
VERTEX
  5
1E3
330
1BA
100
AcDbEntity
  8
Default
100
AcDbVertex
100
AcDb2dVertex
 10
1.461467437399161
 20
8.183638998311604
 30
0.0
  0
VERTEX
  5
1E4
330
1BA
100
AcDbEntity
  8
Default
100
AcDbVertex
100
AcDb2dVertex
 10
1.647136728910677
 20
8.053477199803533
 30
0.0
  0
VERTEX
  5
1E5
330
1BA
100
AcDbEntity
  8
Default
100
AcDbVertex
100
AcDb2dVertex
 10
1.828153110787745
 20
7.916918607641119
 30
0.0
  0
VERTEX
  5
1E6
330
1BA
100
AcDbEntity
  8
Default
100
AcDbVertex
100
AcDb2dVertex
 10
2.00429629924847
 20
7.774129403707017
 30
0.0
  0
VERTEX
  5
1E7
330
1BA
100
AcDbEntity
  8
Default
100
AcDbVertex
100
AcDb2dVertex
 10
2.175351940833203
 20
7.625283352085617
 30
0.0
  0
VERTEX
  5
1E8
330
1BA
100
AcDbEntity
  8
Default
100
AcDbVertex
100
AcDb2dVertex
 10
2.341111873257117
 20
7.470561587604779
 30
0.0
  0
VERTEX
  5
1E9
330
1BA
100
AcDbEntity
  8
Default
100
AcDbVertex
100
AcDb2dVertex
 10
2.501374378728586
 20
7.310152395407909
 30
0.0
  0
VERTEX
  5
1EA
330
1BA
100
AcDbEntity
  8
Default
100
AcDbVertex
100
AcDb2dVertex
 10
2.655944429425072
 20
7.144250981824629
 30
0.0
  0
VERTEX
  5
1EB
330
1BA
100
AcDbEntity
  8
Default
100
AcDbVertex
100
AcDb2dVertex
 10
2.804633924827818
 20
6.973059236818857
 30
0.0
  0
VERTEX
  5
1EC
330
1BA
100
AcDbEntity
  8
Default
100
AcDbVertex
100
AcDb2dVertex
 10
2.947261920626505
 20
6.796785488303387
 30
0.0
  0
VERTEX
  5
1ED
330
1BA
100
AcDbEntity
  8
Default
100
AcDbVertex
100
AcDb2dVertex
 10
3.08365484891533
 20
6.615644248619974
 30
0.0
  0
VERTEX
  5
1EE
330
1BA
100
AcDbEntity
  8
Default
100
AcDbVertex
100
AcDb2dVertex
 10
3.213646729412537
 20
6.429855953493382
 30
0.0
  0
VERTEX
  5
1EF
330
1BA
100
AcDbEntity
  8
Default
100
AcDbVertex
100
AcDb2dVertex
 10
3.337079371446347
 20
6.239646693777149
 30
0.0
  0
VERTEX
  5
1F0
330
1BA
100
AcDbEntity
  8
Default
100
AcDbVertex
100
AcDb2dVertex
 10
3.453802566461527
 20
6.045247940317427
 30
0.0
  0
VERTEX
  5
1F1
330
1BA
100
AcDbEntity
  8
Default
100
AcDbVertex
100
AcDb2dVertex
 10
3.563674270812264
 20
5.846896262269802
 30
0.0
  0
VERTEX
  5
1F2
330
1BA
100
AcDbEntity
  8
Default
100
AcDbVertex
100
AcDb2dVertex
 10
3.666560778618983
 20
5.644833039211812
 30
0.0
  0
VERTEX
  5
1F3
330
1BA
100
AcDbEntity
  8
Default
100
AcDbVertex
100
AcDb2dVertex
 10
3.762336884478665
 20
5.439304167401549
 30
0.0
  0
VERTEX
  5
1F4
330
1BA
100
AcDbEntity
  8
Default
100
AcDbVertex
100
AcDb2dVertex
 10
3.850886035830736
 20
5.230559760539776
 30
0.0
  0
VERTEX
  5
1F5
330
1BA
100
AcDbEntity
  8
Default
100
AcDbVertex
100
AcDb2dVertex
 10
3.932100474793057
 20
5.018853845399742
 30
0.0
  0
VERTEX
  5
1F6
330
1BA
100
AcDbEntity
  8
Default
100
AcDbVertex
100
AcDb2dVertex
 10
4.005881369295444
 20
4.804444052695038
 30
0.0
  0
VERTEX
  5
1F7
330
1BA
100
AcDbEntity
  8
Default
100
AcDbVertex
100
AcDb2dVertex
 10
4.072138933351098
 20
4.587591303561773
 30
0.0
  0
VERTEX
  5
1F8
330
1BA
100
AcDbEntity
  8
Default
100
AcDbVertex
100
AcDb2dVertex
 10
4.13079253631965
 20
4.368559492036477
 30
0.0
  0
VERTEX
  5
1F9
330
1BA
100
AcDbEntity
  8
Default
100
AcDbVertex
100
AcDb2dVertex
 10
4.181770801028766
 20
4.147615163916267
 30
0.0
  0
VERTEX
  5
1FA
330
1BA
100
AcDbEntity
  8
Default
100
AcDbVertex
100
AcDb2dVertex
 10
4.225011690635
 20
3.925027192391954
 30
0.0
  0
VERTEX
  5
1FB
330
1BA
100
AcDbEntity
  8
Default
100
AcDbVertex
100
AcDb2dVertex
 10
4.260462584118107
 20
3.701066450848947
 30
0.0
  0
VERTEX
  5
1FC
330
1BA
100
AcDbEntity
  8
Default
100
AcDbVertex
100
AcDb2dVertex
 10
4.288080340317013
 20
3.476005483233988
 30
0.0
  0
VERTEX
  5
1FD
330
1BA
100
AcDbEntity
  8
Default
100
AcDbVertex
100
AcDb2dVertex
 10
4.307831350429463
 20
3.250118172388995
 30
0.0
  0
VERTEX
  5
1FE
330
1BA
100
AcDbEntity
  8
Default
100
AcDbVertex
100
AcDb2dVertex
 10
4.319691578911502
 20
3.023679406755548
 30
0.0
  0
VERTEX
  5
1FF
330
1BA
100
AcDbEntity
  8
Default
100
AcDbVertex
100
AcDb2dVertex
 10
4.323646592726975
 20
2.79696474585563
 30
0.0
  0
VERTEX
  5
200
330
1BA
100
AcDbEntity
  8
Default
100
AcDbVertex
100
AcDb2dVertex
 10
4.319691578911488
 20
2.570250084955716
 30
0.0
  0
VERTEX
  5
201
330
1BA
100
AcDbEntity
  8
Default
100
AcDbVertex
100
AcDb2dVertex
 10
4.307831350429433
 20
2.34381131932227
 30
0.0
  0
VERTEX
  5
202
330
1BA
100
AcDbEntity
  8
Default
100
AcDbVertex
100
AcDb2dVertex
 10
4.288080340316966
 20
2.117924008477274
 30
0.0
  0
VERTEX
  5
203
330
1BA
100
AcDbEntity
  8
Default
100
AcDbVertex
100
AcDb2dVertex
 10
4.260462584118047
 20
1.892863040862317
 30
0.0
  0
VERTEX
  5
204
330
1BA
100
AcDbEntity
  8
Default
100
AcDbVertex
100
AcDb2dVertex
 10
4.225011690634926
 20
1.668902299319312
 30
0.0
  0
VERTEX
  5
205
330
1BA
100
AcDbEntity
  8
Default
100
AcDbVertex
100
AcDb2dVertex
 10
4.181770801028676
 20
1.446314327795006
 30
0.0
  0
VERTEX
  5
206
330
1BA
100
AcDbEntity
  8
Default
100
AcDbVertex
100
AcDb2dVertex
 10
4.130792536319545
 20
1.225369999674793
 30
0.0
  0
VERTEX
  5
207
330
1BA
100
AcDbEntity
  8
Default
100
AcDbVertex
100
AcDb2dVertex
 10
4.07213893335098
 20
1.006338188149505
 30
0.0
  0
VERTEX
  5
208
330
1BA
100
AcDbEntity
  8
Default
100
AcDbVertex
100
AcDb2dVertex
 10
4.005881369295311
 20
0.7894854390162438
 30
0.0
  0
VERTEX
  5
209
330
1BA
100
AcDbEntity
  8
Default
100
AcDbVertex
100
AcDb2dVertex
 10
3.932100474792911
 20
0.5750756463115474
 30
0.0
  0
VERTEX
  5
20A
330
1BA
100
AcDbEntity
  8
Default
100
AcDbVertex
100
AcDb2dVertex
 10
3.850886035830574
 20
0.3633697311715134
 30
0.0
  0
VERTEX
  5
20B
330
1BA
100
AcDbEntity
  8
Default
100
AcDbVertex
100
AcDb2dVertex
 10
3.76233688447849
 20
0.1546253243097493
 30
0.0
  0
VERTEX
  5
20C
330
1BA
100
AcDbEntity
  8
Default
100
AcDbVertex
100
AcDb2dVertex
 10
3.666560778618795
 20
-0.0509035475005064
 30
0.0
  0
VERTEX
  5
20D
330
1BA
100
AcDbEntity
  8
Default
100
AcDbVertex
100
AcDb2dVertex
 10
3.563674270812063
 20
-0.2529667705584902
 30
0.0
  0
VERTEX
  5
20E
330
1BA
100
AcDbEntity
  8
Default
100
AcDbVertex
100
AcDb2dVertex
 10
3.453802566461313
 20
-0.4513184486061068
 30
0.0
  0
VERTEX
  5
20F
330
1BA
100
AcDbEntity
  8
Default
100
AcDbVertex
100
AcDb2dVertex
 10
3.33707937144612
 20
-0.6457172020658227
 30
0.0
  0
VERTEX
  5
210
330
1BA
100
AcDbEntity
  8
Default
100
AcDbVertex
100
AcDb2dVertex
 10
3.213646729412296
 20
-0.83592646178205
 30
0.0
  0
VERTEX
  5
211
330
1BA
100
AcDbEntity
  8
Default
100
AcDbVertex
100
AcDb2dVertex
 10
3.083654848915079
 20
-1.02171475690863
 30
0.0
  0
VERTEX
  5
212
330
1BA
100
AcDbEntity
  8
Default
100
AcDbVertex
100
AcDb2dVertex
 10
2.947261920626242
 20
-1.202855996592034
 30
0.0
  0
VERTEX
  5
213
330
1BA
100
AcDbEntity
  8
Default
100
AcDbVertex
100
AcDb2dVertex
 10
2.804633924827542
 20
-1.379129745107495
 30
0.0
  0
VERTEX
  5
214
330
1BA
100
AcDbEntity
  8
Default
100
AcDbVertex
100
AcDb2dVertex
 10
2.655944429424783
 20
-1.550321490113259
 30
0.0
  0
VERTEX
  5
215
330
1BA
100
AcDbEntity
  8
Default
100
AcDbVertex
100
AcDb2dVertex
 10
2.501374378728288
 20
-1.716222903696528
 30
0.0
  0
VERTEX
  5
216
330
1BA
100
AcDbEntity
  8
Default
100
AcDbVertex
100
AcDb2dVertex
 10
2.34111187325681
 20
-1.876632095893385
 30
0.0
  0
VERTEX
  5
217
330
1BA
100
AcDbEntity
  8
Default
100
AcDbVertex
100
AcDb2dVertex
 10
2.175351940832882
 20
-2.031353860374216
 30
0.0
  0
VERTEX
  5
218
330
1BA
100
AcDbEntity
  8
Default
100
AcDbVertex
100
AcDb2dVertex
 10
2.004296299248139
 20
-2.180199911995604
 30
0.0
  0
VERTEX
  5
219
330
1BA
100
AcDbEntity
  8
Default
100
AcDbVertex
100
AcDb2dVertex
 10
1.828153110787406
 20
-2.322989115929692
 30
0.0
  0
VERTEX
  5
21A
330
1BA
100
AcDbEntity
  8
Default
100
AcDbVertex
100
AcDb2dVertex
 10
1.647136728910331
 20
-2.459547708092093
 30
0.0
  0
VERTEX
  5
21B
330
1BA
100
AcDbEntity
  8
Default
100
AcDbVertex
100
AcDb2dVertex
 10
1.461467437398805
 20
-2.589709506600154
 30
0.0
  0
VERTEX
  5
21C
330
1BA
100
AcDbEntity
  8
Default
100
AcDbVertex
100
AcDb2dVertex
 10
1.27137118228761
 20
-2.713316114004232
 30
0.0
  0
VERTEX
  5
21D
330
1BA
100
AcDbEntity
  8
Default
100
AcDbVertex
100
AcDb2dVertex
 10
1.077079296904516
 20
-2.830217110045869
 30
0.0
  0
VERTEX
  5
21E
330
1BA
100
AcDbEntity
  8
Default
100
AcDbVertex
100
AcDb2dVertex
 10
0.8788282203544207
 20
-2.940270234708333
 30
0.0
  0
VERTEX
  5
21F
330
1BA
100
AcDbEntity
  8
Default
100
AcDbVertex
100
AcDb2dVertex
 10
0.6768592097901467
 20
-3.04334156133671
 30
0.0
  0
VERTEX
  5
220
330
1BA
100
AcDbEntity
  8
Default
100
AcDbVertex
100
AcDb2dVertex
 10
0.4714180468200286
 20
-3.13930565961691
 30
0.0
  0
VERTEX
  5
221
330
1BA
100
AcDbEntity
  8
Default
100
AcDbVertex
100
AcDb2dVertex
 10
0.2627547384095528
 20
-3.228045748215241
 30
0.0
  0
VERTEX
  5
222
330
1BA
100
AcDbEntity
  8
Default
100
AcDbVertex
100
AcDb2dVertex
 10
0.0511232126410419
 20
-3.30945383689281
 30
0.0
  0
VERTEX
  5
223
330
1BA
100
AcDbEntity
  8
Default
100
AcDbVertex
100
AcDb2dVertex
 10
-0.1632189902983718
 20
-3.383430857921806
 30
0.0
  0
VERTEX
  5
224
330
1BA
100
AcDbEntity
  8
Default
100
AcDbVertex
100
AcDb2dVertex
 10
-0.3800110315244201
 20
-3.449886786643702
 30
0.0
  0
VERTEX
  5
225
330
1BA
100
AcDbEntity
  8
Default
100
AcDbVertex
100
AcDb2dVertex
 10
-0.5989890908776685
 20
-3.50874075102274
 30
0.0
  0
VERTEX
  5
226
330
1BA
100
AcDbEntity
  8
Default
100
AcDbVertex
100
AcDb2dVertex
 10
-0.8198866879734985
 20
-3.559921130061314
 30
0.0
  0
VERTEX
  5
227
330
1BA
100
AcDbEntity
  8
Default
100
AcDbVertex
100
AcDb2dVertex
 10
-1.042435006489353
 20
-3.603365640957525
 30
0.0
  0
VERTEX
  5
228
330
1BA
100
AcDbEntity
  8
Default
100
AcDbVertex
100
AcDb2dVertex
 10
-1.266363221294665
 20
-3.639021414898818
 30
0.0
  0
VERTEX
  5
229
330
1BA
100
AcDbEntity
  8
Default
100
AcDbVertex
100
AcDb2dVertex
 10
-1.491398828025355
 20
-3.666845061399488
 30
0.0
  0
VERTEX
  5
22A
330
1BA
100
AcDbEntity
  8
Default
100
AcDbVertex
100
AcDb2dVertex
 10
-1.717267974701862
 20
-3.686802721103748
 30
0.0
  0
VERTEX
  5
22B
330
1BA
100
AcDbEntity
  8
Default
100
AcDbVertex
100
AcDb2dVertex
 10
-1.943695794987078
 20
-3.698870106990107
 30
0.0
  0
VERTEX
  5
22C
330
1BA
100
AcDbEntity
  8
Default
100
AcDbVertex
100
AcDb2dVertex
 10
-2.170406742678715
 20
-3.7030325339269
 30
0.0
  0
VERTEX
  5
22D
330
1BA
100
AcDbEntity
  8
Default
100
AcDbVertex
100
AcDb2dVertex
 10
-2.397124927029012
 20
-3.69928493654304
 30
0.0
  0
VERTEX
  5
22E
330
1BA
100
AcDbEntity
  8
Default
100
AcDbVertex
100
AcDb2dVertex
 10
-2.623574448483705
 20
-3.687631875392196
 30
0.0
  0
VERTEX
  5
22F
330
1BA
100
AcDbEntity
  8
Default
100
AcDbVertex
100
AcDb2dVertex
 10
-2.84947973443176
 20
-3.668087531402938
 30
0.0
  0
VERTEX
  5
230
330
1BA
100
AcDbEntity
  8
Default
100
AcDbVertex
100
AcDb2dVertex
 10
-3.074565874557211
 20
-3.640675688621568
 30
0.0
  0
VERTEX
  5
231
330
1BA
100
AcDbEntity
  8
Default
100
AcDbVertex
100
AcDb2dVertex
 10
-3.298558955385026
 20
-3.605429705268674
 30
0.0
  0
VERTEX
  5
232
330
1BA
100
AcDbEntity
  8
Default
100
AcDbVertex
100
AcDb2dVertex
 10
-3.521186393613875
 20
-3.562392473144596
 30
0.0
  0
VERTEX
  5
233
330
1BA
100
AcDbEntity
  8
Default
100
AcDbVertex
100
AcDb2dVertex
 10
-3.742177267830274
 20
-3.511616365433219
 30
0.0
  0
VERTEX
  5
234
330
1BA
100
AcDbEntity
  8
Default
100
AcDbVertex
100
AcDb2dVertex
 10
-3.961262648200176
 20
-3.453163172967619
 30
0.0
  0
VERTEX
  5
235
330
1BA
100
AcDbEntity
  8
Default
100
AcDbVertex
100
AcDb2dVertex
 10
-4.178175923737079
 20
-3.387104029035108
 30
0.0
  0
VERTEX
  5
236
330
1BA
100
AcDbEntity
  8
Default
100
AcDbVertex
100
AcDb2dVertex
 10
-4.392653126748214
 20
-3.313519322813188
 30
0.0
  0
VERTEX
  5
237
330
1BA
100
AcDbEntity
  8
Default
100
AcDbVertex
100
AcDb2dVertex
 10
-4.60443325406403
 20
-3.232498601541777
 30
0.0
  0
VERTEX
  5
238
330
1BA
100
AcDbEntity
  8
Default
100
AcDbVertex
100
AcDb2dVertex
 10
-4.813258584660112
 20
-3.144140461550704
 30
0.0
  0
VERTEX
  5
239
330
1BA
100
AcDbEntity
  8
Default
100
AcDbVertex
100
AcDb2dVertex
 10
-5.018874993284916
 20
-3.048552428275165
 30
0.0
  0
VERTEX
  5
23A
330
1BA
100
AcDbEntity
  8
Default
100
AcDbVertex
100
AcDb2dVertex
 10
-5.221032259711716
 20
-2.945850825405073
 30
0.0
  0
VERTEX
  5
23B
330
1BA
100
AcDbEntity
  8
Default
100
AcDbVertex
100
AcDb2dVertex
 10
-5.419484373238491
 20
-2.836160633327564
 30
0.0
  0
VERTEX
  5
23C
330
1BA
100
AcDbEntity
  8
Default
100
AcDbVertex
100
AcDb2dVertex
 10
-5.61398983206502
 20
-2.719615337034977
 30
0.0
  0
VERTEX
  5
23D
330
1BA
100
AcDbEntity
  8
Default
100
AcDbVertex
100
AcDb2dVertex
 10
-5.804311937183037
 20
-2.596356763683307
 30
0.0
  0
VERTEX
  5
23E
330
1BA
100
AcDbEntity
  8
Default
100
AcDbVertex
100
AcDb2dVertex
 10
-5.990219080421745
 20
-2.466534909998843
 30
0.0
  0
VERTEX
  5
23F
330
1BA
100
AcDbEntity
  8
Default
100
AcDbVertex
100
AcDb2dVertex
 10
-6.171485026298081
 20
-2.330307759743103
 30
0.0
  0
VERTEX
  5
240
330
1BA
100
AcDbEntity
  8
Default
100
AcDbVertex
100
AcDb2dVertex
 10
-6.34788918732891
 20
-2.18784109145801
 30
0.0
  0
VERTEX
  5
241
330
1BA
100
AcDbEntity
  8
Default
100
AcDbVertex
100
AcDb2dVertex
 10
-6.519216892469926
 20
-2.039308276725514
 30
0.0
  0
VERTEX
  5
242
330
1BA
100
AcDbEntity
  8
Default
100
AcDbVertex
100
AcDb2dVertex
 10
-6.685259648354728
 20
-1.884890069186943
 30
0.0
  0
VERTEX
  5
243
330
1BA
100
AcDbEntity
  8
Default
100
AcDbVertex
100
AcDb2dVertex
 10
-6.845815393016092
 20
-1.724774384578968
 30
0.0
  0
SEQEND
  5
244
330
1BA
100
AcDbEntity
  8
Default
  0
POLYLINE
  5
245
330
1F
100
AcDbEntity
  8
Default
100
AcDb2dPolyline
 66
     1
 10
0.0
 20
0.0
 30
0.0
  0
VERTEX
  5
246
330
245
100
AcDbEntity
  8
Default
100
AcDbVertex
100
AcDb2dVertex
 10
-6.845815393016093
 20
-1.724774384578967
 30
0.0
  0
VERTEX
  5
247
330
245
100
AcDbEntity
  8
Default
100
AcDbVertex
100
AcDb2dVertex
 10
-6.969176560682683
 20
-1.601746438407994
 30
0.0
  0
VERTEX
  5
248
330
245
100
AcDbEntity
  8
Default
100
AcDbVertex
100
AcDb2dVertex
 10
-7.096749061609408
 20
-1.483091011922672
 30
0.0
  0
VERTEX
  5
249
330
245
100
AcDbEntity
  8
Default
100
AcDbVertex
100
AcDb2dVertex
 10
-7.228378003117508
 20
-1.368952171099009
 30
0.0
  0
VERTEX
  5
24A
330
245
100
AcDbEntity
  8
Default
100
AcDbVertex
100
AcDb2dVertex
 10
-7.363903567384145
 20
-1.259468498081877
 30
0.0
  0
VERTEX
  5
24B
330
245
100
AcDbEntity
  8
Default
100
AcDbVertex
100
AcDb2dVertex
 10
-7.503161205485867
 20
-1.154772922924938
 30
0.0
  0
VERTEX
  5
24C
330
245
100
AcDbEntity
  8
Default
100
AcDbVertex
100
AcDb2dVertex
 10
-7.645981837186369
 20
-1.054992562193066
 30
0.0
  0
VERTEX
  5
24D
330
245
100
AcDbEntity
  8
Default
100
AcDbVertex
100
AcDb2dVertex
 10
-7.792192056225949
 20
-0.960248564623245
 30
0.0
  0
VERTEX
  5
24E
330
245
100
AcDbEntity
  8
Default
100
AcDbVertex
100
AcDb2dVertex
 10
-7.941614340863449
 20
-0.8706559640313305
 30
0.0
  0
VERTEX
  5
24F
330
245
100
AcDbEntity
  8
Default
100
AcDbVertex
100
AcDb2dVertex
 10
-8.094067269415
 20
-0.7863235396432663
 30
0.0
  0
VERTEX
  5
250
330
245
100
AcDbEntity
  8
Default
100
AcDbVertex
100
AcDb2dVertex
 10
-8.249365740527907
 20
-0.7073536840203393
 30
0.0
  0
VERTEX
  5
251
330
245
100
AcDbEntity
  8
Default
100
AcDbVertex
100
AcDb2dVertex
 10
-8.40732119792223
 20
-0.633842278738826
 30
0.0
  0
VERTEX
  5
252
330
245
100
AcDbEntity
  8
Default
100
AcDbVertex
100
AcDb2dVertex
 10
-8.56774185932716
 20
-0.5658785779749864
 30
0.0
  0
VERTEX
  5
253
330
245
100
AcDbEntity
  8
Default
100
AcDbVertex
100
AcDb2dVertex
 10
-8.730432949334265
 20
-0.5035451001367278
 30
0.0
  0
VERTEX
  5
254
330
245
100
AcDbEntity
  8
Default
100
AcDbVertex
100
AcDb2dVertex
 10
-8.895196935884847
 20
-0.446917527673549
 30
0.0
  0
VERTEX
  5
255
330
245
100
AcDbEntity
  8
Default
100
AcDbVertex
100
AcDb2dVertex
 10
-9.06183377010431
 20
-0.3960646151863761
 30
0.0
  0
VERTEX
  5
256
330
245
100
AcDbEntity
  8
Default
100
AcDbVertex
100
AcDb2dVertex
 10
-9.230141129192326
 20
-0.3510481059488817
 30
0.0
  0
VERTEX
  5
257
330
245
100
AcDbEntity
  8
Default
100
AcDbVertex
100
AcDb2dVertex
 10
-9.39991466207391
 20
-0.3119226569416331
 30
0.0
  0
VERTEX
  5
258
330
245
100
AcDbEntity
  8
Default
100
AcDbVertex
100
AcDb2dVertex
 10
-9.570948237513097
 20
-0.2787357724900946
 30
0.0
  0
VERTEX
  5
259
330
245
100
AcDbEntity
  8
Default
100
AcDbVertex
100
AcDb2dVertex
 10
-9.743034194388063
 20
-0.2515277465870549
 30
0.0
  0
VERTEX
  5
25A
330
245
100
AcDbEntity
  8
Default
100
AcDbVertex
100
AcDb2dVertex
 10
-9.915963593823705
 20
-0.2303316139695079
 30
0.0
  0
VERTEX
  5
25B
330
245
100
AcDbEntity
  8
Default
100
AcDbVertex
100
AcDb2dVertex
 10
-10.08952647287566
 20
-0.2151731100093929
 30
0.0
  0
VERTEX
  5
25C
330
245
100
AcDbEntity
  8
Default
100
AcDbVertex
100
AcDb2dVertex
 10
-10.26351209945767
 20
-0.2060706394668826
 30
0.0
  0
VERTEX
  5
25D
330
245
100
AcDbEntity
  8
Default
100
AcDbVertex
100
AcDb2dVertex
 10
-10.43770922820282
 20
-0.2030352541441713
 30
0.0
  0
SEQEND
  5
25E
330
245
100
AcDbEntity
  8
Default
  0
POLYLINE
  5
25F
330
1F
100
AcDbEntity
  8
Default
100
AcDb2dPolyline
 66
     1
 10
0.0
 20
0.0
 30
0.0
  0
VERTEX
  5
260
330
25F
100
AcDbEntity
  8
Default
100
AcDbVertex
100
AcDb2dVertex
 10
-10.43770922820282
 20
-0.2030352541441713
 30
0.0
  0
VERTEX
  5
261
330
25F
100
AcDbEntity
  8
Default
100
AcDbVertex
100
AcDb2dVertex
 10
-23.23537562925592
 20
-0.2030352541441705
 30
0.0
  0
SEQEND
  5
262
330
25F
100
AcDbEntity
  8
Default
  0
POLYLINE
  5
263
330
1F
100
AcDbEntity
  8
Default
100
AcDb2dPolyline
 66
     1
 10
0.0
 20
0.0
 30
0.0
  0
VERTEX
  5
264
330
263
100
AcDbEntity
  8
Default
100
AcDbVertex
100
AcDb2dVertex
 10
-23.23537562925592
 20
-0.2030352541441705
 30
0.0
  0
VERTEX
  5
265
330
263
100
AcDbEntity
  8
Default
100
AcDbVertex
100
AcDb2dVertex
 10
-23.26592105528156
 20
-0.20350187453701
 30
0.0
  0
VERTEX
  5
266
330
263
100
AcDbEntity
  8
Default
100
AcDbVertex
100
AcDb2dVertex
 10
-23.296666639629
 20
-0.2049153154356769
 30
0.0
  0
VERTEX
  5
267
330
263
100
AcDbEntity
  8
Default
100
AcDbVertex
100
AcDb2dVertex
 10
-23.32757018421418
 20
-0.2072942416132781
 30
0.0
  0
VERTEX
  5
268
330
263
100
AcDbEntity
  8
Default
100
AcDbVertex
100
AcDb2dVertex
 10
-23.35858780772803
 20
-0.2106549041391158
 30
0.0
  0
VERTEX
  5
269
330
263
100
AcDbEntity
  8
Default
100
AcDbVertex
100
AcDb2dVertex
 10
-23.38967411193675
 20
-0.215010973955474
 30
0.0
  0
VERTEX
  5
26A
330
263
100
AcDbEntity
  8
Default
100
AcDbVertex
100
AcDb2dVertex
 10
-23.4207823663502
 20
-0.2203733886787144
 30
0.0
  0
VERTEX
  5
26B
330
263
100
AcDbEntity
  8
Default
100
AcDbVertex
100
AcDb2dVertex
 10
-23.45186471008504
 20
-0.2267502148847551
 30
0.0
  0
VERTEX
  5
26C
330
263
100
AcDbEntity
  8
Default
100
AcDbVertex
100
AcDb2dVertex
 10
-23.48287236944107
 20
-0.2341465280266032
 30
0.0
  0
VERTEX
  5
26D
330
263
100
AcDbEntity
  8
Default
100
AcDbVertex
100
AcDb2dVertex
 10
-23.513755889412
 20
-0.2425643119728688
 30
0.0
  0
VERTEX
  5
26E
330
263
100
AcDbEntity
  8
Default
100
AcDbVertex
100
AcDb2dVertex
 10
-23.54446537707377
 20
-0.2520023799521716
 30
0.0
  0
VERTEX
  5
26F
330
263
100
AcDbEntity
  8
Default
100
AcDbVertex
100
AcDb2dVertex
 10
-23.5749507545411
 20
-0.2624563184415102
 30
0.0
  0
VERTEX
  5
270
330
263
100
AcDbEntity
  8
Default
100
AcDbVertex
100
AcDb2dVertex
 10
-23.60516201896506
 20
-0.2739184552507932
 30
0.0
  0
VERTEX
  5
271
330
263
100
AcDbEntity
  8
Default
100
AcDbVertex
100
AcDb2dVertex
 10
-23.63504950686563
 20
-0.2863778527359784
 30
0.0
  0
VERTEX
  5
272
330
263
100
AcDbEntity
  8
Default
100
AcDbVertex
100
AcDb2dVertex
 10
-23.66456415996112
 20
-0.2998203267259476
 30
0.0
  0
VERTEX
  5
273
330
263
100
AcDbEntity
  8
Default
100
AcDbVertex
100
AcDb2dVertex
 10
-23.69365778957422
 20
-0.314228491380754
 30
0.0
  0
VERTEX
  5
274
330
263
100
AcDbEntity
  8
Default
100
AcDbVertex
100
AcDb2dVertex
 10
-23.72228333666597
 20
-0.3295818298193882
 30
0.0
  0
VERTEX
  5
275
330
263
100
AcDbEntity
  8
Default
100
AcDbVertex
100
AcDb2dVertex
 10
-23.75039512457651
 20
-0.3458567899724931
 30
0.0
  0
VERTEX
  5
276
330
263
100
AcDbEntity
  8
Default
100
AcDbVertex
100
AcDb2dVertex
 10
-23.77794910163437
 20
-0.3630269047385363
 30
0.0
  0
VERTEX
  5
277
330
263
100
AcDbEntity
  8
Default
100
AcDbVertex
100
AcDb2dVertex
 10
-23.80490307093319
 20
-0.3810629351598067
 30
0.0
  0
VERTEX
  5
278
330
263
100
AcDbEntity
  8
Default
100
AcDbVertex
100
AcDb2dVertex
 10
-23.83121690476401
 20
-0.3999330349958989
 30
0.0
  0
VERTEX
  5
279
330
263
100
AcDbEntity
  8
Default
100
AcDbVertex
100
AcDb2dVertex
 10
-23.85685274142679
 20
-0.419602934765051
 30
0.0
  0
VERTEX
  5
27A
330
263
100
AcDbEntity
  8
Default
100
AcDbVertex
100
AcDb2dVertex
 10
-23.88177516242173
 20
-0.4400361430548932
 30
0.0
  0
VERTEX
  5
27B
330
263
100
AcDbEntity
  8
Default
100
AcDbVertex
100
AcDb2dVertex
 10
-23.90595134833234
 20
-0.4611941626797399
 30
0.0
  0
VERTEX
  5
27C
330
263
100
AcDbEntity
  8
Default
100
AcDbVertex
100
AcDb2dVertex
 10
-23.92935121204985
 20
-0.4830367190860602
 30
0.0
  0
VERTEX
  5
27D
330
263
100
AcDbEntity
  8
Default
100
AcDbVertex
100
AcDb2dVertex
 10
-23.95194750834393
 20
-0.5055219982842728
 30
0.0
  0
VERTEX
  5
27E
330
263
100
AcDbEntity
  8
Default
100
AcDbVertex
100
AcDb2dVertex
 10
-23.97371591915035
 20
-0.5286068915150416
 30
0.0
  0
VERTEX
  5
27F
330
263
100
AcDbEntity
  8
Default
100
AcDbVertex
100
AcDb2dVertex
 10
-23.99463511431135
 20
-0.5522472438417699
 30
0.0
  0
VERTEX
  5
280
330
263
100
AcDbEntity
  8
Default
100
AcDbVertex
100
AcDb2dVertex
 10
-24.01468678786296
 20
-0.5763981038964726
 30
0.0
  0
VERTEX
  5
281
330
263
100
AcDbEntity
  8
Default
100
AcDbVertex
100
AcDb2dVertex
 10
-24.03385567030563
 20
-0.6010139720907535
 30
0.0
  0
VERTEX
  5
282
330
263
100
AcDbEntity
  8
Default
100
AcDbVertex
100
AcDb2dVertex
 10
-24.05212951761484
 20
-0.6260490447330855
 30
0.0
  0
VERTEX
  5
283
330
263
100
AcDbEntity
  8
Default
100
AcDbVertex
100
AcDb2dVertex
 10
-24.06949907803906
 20
-0.6514574516628586
 30
0.0
  0
VERTEX
  5
284
330
263
100
AcDbEntity
  8
Default
100
AcDbVertex
100
AcDb2dVertex
 10
-24.08595803799079
 20
-0.677193485214791
 30
0.0
  0
VERTEX
  5
285
330
263
100
AcDbEntity
  8
Default
100
AcDbVertex
100
AcDb2dVertex
 10
-24.10162319974712
 20
-0.7034202557523018
 30
0.0
  0
VERTEX
  5
286
330
263
100
AcDbEntity
  8
Default
100
AcDbVertex
100
AcDb2dVertex
 10
-24.11658826424294
 20
-0.730315155206939
 30
0.0
  0
VERTEX
  5
287
330
263
100
AcDbEntity
  8
Default
100
AcDbVertex
100
AcDb2dVertex
 10
-24.13081516603546
 20
-0.7578521053480355
 30
0.0
  0
VERTEX
  5
288
330
263
100
AcDbEntity
  8
Default
100
AcDbVertex
100
AcDb2dVertex
 10
-24.14426700762579
 20
-0.7860023269970388
 30
0.0
  0
VERTEX
  5
289
330
263
100
AcDbEntity
  8
Default
100
AcDbVertex
100
AcDb2dVertex
 10
-24.15690828846337
 20
-0.8147343939673689
 30
0.0
  0
VERTEX
  5
28A
330
263
100
AcDbEntity
  8
Default
100
AcDbVertex
100
AcDb2dVertex
 10
-24.16870513236051
 20
-0.8440143095817011
 30
0.0
  0
VERTEX
  5
28B
330
263
100
AcDbEntity
  8
Default
100
AcDbVertex
100
AcDb2dVertex
 10
-24.1796255107781
 20
-0.87380560595715
 30
0.0
  0
VERTEX
  5
28C
330
263
100
AcDbEntity
  8
Default
100
AcDbVertex
100
AcDb2dVertex
 10
-24.18963945937628
 20
-0.9040694659274929
 30
0.0
  0
VERTEX
  5
28D
330
263
100
AcDbEntity
  8
Default
100
AcDbVertex
100
AcDb2dVertex
 10
-24.19871928520334
 20
-0.9347648671353529
 30
0.0
  0
VERTEX
  5
28E
330
263
100
AcDbEntity
  8
Default
100
AcDbVertex
100
AcDb2dVertex
 10
-24.20683976192268
 20
-0.9658487474832249
 30
0.0
  0
VERTEX
  5
28F
330
263
100
AcDbEntity
  8
Default
100
AcDbVertex
100
AcDb2dVertex
 10
-24.21397831055556
 20
-0.9972761907880934
 30
0.0
  0
VERTEX
  5
290
330
263
100
AcDbEntity
  8
Default
100
AcDbVertex
100
AcDb2dVertex
 10
-24.22011516334535
 20
-1.029000631148254
 30
0.0
  0
VERTEX
  5
291
330
263
100
AcDbEntity
  8
Default
100
AcDbVertex
100
AcDb2dVertex
 10
-24.22523350852752
 20
-1.060974074211155
 30
0.0
  0
VERTEX
  5
292
330
263
100
AcDbEntity
  8
Default
100
AcDbVertex
100
AcDb2dVertex
 10
-24.22931961401484
 20
-1.093147333235772
 30
0.0
  0
VERTEX
  5
293
330
263
100
AcDbEntity
  8
Default
100
AcDbVertex
100
AcDb2dVertex
 10
-24.23236292827765
 20
-1.125470277580034
 30
0.0
  0
VERTEX
  5
294
330
263
100
AcDbEntity
  8
Default
100
AcDbVertex
100
AcDb2dVertex
 10
-24.23435615700569
 20
-1.157892091020226
 30
0.0
  0
VERTEX
  5
295
330
263
100
AcDbEntity
  8
Default
100
AcDbVertex
100
AcDb2dVertex
 10
-24.23529531447925
 20
-1.190361537131189
 30
0.0
  0
VERTEX
  5
296
330
263
100
AcDbEntity
  8
Default
100
AcDbVertex
100
AcDb2dVertex
 10
-24.23517974894044
 20
-1.22282722882859
 30
0.0
  0
VERTEX
  5
297
330
263
100
AcDbEntity
  8
Default
100
AcDbVertex
100
AcDb2dVertex
 10
-24.23401214163646
 20
-1.25523789910093
 30
0.0
  0
VERTEX
  5
298
330
263
100
AcDbEntity
  8
Default
100
AcDbVertex
100
AcDb2dVertex
 10
-24.23179847959372
 20
-1.287542669941486
 30
0.0
  0
VERTEX
  5
299
330
263
100
AcDbEntity
  8
Default
100
AcDbVertex
100
AcDb2dVertex
 10
-24.22854800256725
 20
-1.31969131652932
 30
0.0
  0
VERTEX
  5
29A
330
263
100
AcDbEntity
  8
Default
100
AcDbVertex
100
AcDb2dVertex
 10
-24.22427312498388
 20
-1.351634523802726
 30
0.0
  0
VERTEX
  5
29B
330
263
100
AcDbEntity
  8
Default
100
AcDbVertex
100
AcDb2dVertex
 10
-24.21898933405252
 20
-1.383324132715174
 30
0.0
  0
VERTEX
  5
29C
330
263
100
AcDbEntity
  8
Default
100
AcDbVertex
100
AcDb2dVertex
 10
-24.21271506554143
 20
-1.41471337365872
 30
0.0
  0
VERTEX
  5
29D
330
263
100
AcDbEntity
  8
Default
100
AcDbVertex
100
AcDb2dVertex
 10
-24.20547155901448
 20
-1.445757084777488
 30
0.0
  0
VERTEX
  5
29E
330
263
100
AcDbEntity
  8
Default
100
AcDbVertex
100
AcDb2dVertex
 10
-24.19728269457009
 20
-1.476411913167557
 30
0.0
  0
VERTEX
  5
29F
330
263
100
AcDbEntity
  8
Default
100
AcDbVertex
100
AcDb2dVertex
 10
-24.18817481333272
 20
-1.506636497262
 30
0.0
  0
VERTEX
  5
2A0
330
263
100
AcDbEntity
  8
Default
100
AcDbVertex
100
AcDb2dVertex
 10
-24.17817652410475
 20
-1.536391629023022
 30
0.0
  0
VERTEX
  5
2A1
330
263
100
AcDbEntity
  8
Default
100
AcDbVertex
100
AcDb2dVertex
 10
-24.16731849869502
 20
-1.565640394898888
 30
0.0
  0
VERTEX
  5
2A2
330
263
100
AcDbEntity
  8
Default
100
AcDbVertex
100
AcDb2dVertex
 10
-24.15563325849828
 20
-1.594348294843529
 30
0.0
  0
VERTEX
  5
2A3
330
263
100
AcDbEntity
  8
Default
100
AcDbVertex
100
AcDb2dVertex
 10
-24.14315495490884
 20
-1.622483339033457
 30
0.0
  0
VERTEX
  5
2A4
330
263
100
AcDbEntity
  8
Default
100
AcDbVertex
100
AcDb2dVertex
 10
-24.12991914611471
 20
-1.650016122242646
 30
0.0
  0
SEQEND
  5
2A5
330
263
100
AcDbEntity
  8
Default
  0
POLYLINE
  5
2A6
330
1F
100
AcDbEntity
  8
Default
100
AcDb2dPolyline
 66
     1
 10
0.0
 20
0.0
 30
0.0
  0
VERTEX
  5
2A7
330
2A6
100
AcDbEntity
  8
Default
100
AcDbVertex
100
AcDb2dVertex
 10
-24.12991914611471
 20
-1.650016122242646
 30
0.0
  0
VERTEX
  5
2A8
330
2A6
100
AcDbEntity
  8
Default
100
AcDbVertex
100
AcDb2dVertex
 10
-24.06915940708505
 20
-1.768783065407684
 30
0.0
  0
VERTEX
  5
2A9
330
2A6
100
AcDbEntity
  8
Default
100
AcDbVertex
100
AcDb2dVertex
 10
-24.0057300601921
 20
-1.88721093046653
 30
0.0
  0
VERTEX
  5
2AA
330
2A6
100
AcDbEntity
  8
Default
100
AcDbVertex
100
AcDb2dVertex
 10
-23.93962297022367
 20
-2.005288734748884
 30
0.0
  0
VERTEX
  5
2AB
330
2A6
100
AcDbEntity
  8
Default
100
AcDbVertex
100
AcDb2dVertex
 10
-23.87083037092044
 20
-2.123005479214351
 30
0.0
  0
VERTEX
  5
2AC
330
2A6
100
AcDbEntity
  8
Default
100
AcDbVertex
100
AcDb2dVertex
 10
-23.7993448700029
 20
-2.240350151213133
 30
0.0
  0
VERTEX
  5
2AD
330
2A6
100
AcDbEntity
  8
Default
100
AcDbVertex
100
AcDb2dVertex
 10
-23.72515945409894
 20
-2.357311727278703
 30
0.0
  0
VERTEX
  5
2AE
330
2A6
100
AcDbEntity
  8
Default
100
AcDbVertex
100
AcDb2dVertex
 10
-23.64826749356837
 20
-2.473879175951294
 30
0.0
  0
VERTEX
  5
2AF
330
2A6
100
AcDbEntity
  8
Default
100
AcDbVertex
100
AcDb2dVertex
 10
-23.56866274722037
 20
-2.590041460630958
 30
0.0
  0
VERTEX
  5
2B0
330
2A6
100
AcDbEntity
  8
Default
100
AcDbVertex
100
AcDb2dVertex
 10
-23.40129190208199
 20
-2.821106383226113
 30
0.0
  0
VERTEX
  5
2B1
330
2A6
100
AcDbEntity
  8
Default
100
AcDbVertex
100
AcDb2dVertex
 10
-23.22300493031054
 20
-3.050418209617938
 30
0.0
  0
VERTEX
  5
2B2
330
2A6
100
AcDbEntity
  8
Default
100
AcDbVertex
100
AcDb2dVertex
 10
-23.03376634132499
 20
-3.277888759215607
 30
0.0
  0
VERTEX
  5
2B3
330
2A6
100
AcDbEntity
  8
Default
100
AcDbVertex
100
AcDb2dVertex
 10
-22.83354727227167
 20
-3.503430052004053
 30
0.0
  0
VERTEX
  5
2B4
330
2A6
100
AcDbEntity
  8
Default
100
AcDbVertex
100
AcDb2dVertex
 10
-22.62232560948019
 20
-3.726954405541787
 30
0.0
  0
VERTEX
  5
2B5
330
2A6
100
AcDbEntity
  8
Default
100
AcDbVertex
100
AcDb2dVertex
 10
-22.40008610100336
 20
-3.948374533041897
 30
0.0
  0
VERTEX
  5
2B6
330
2A6
100
AcDbEntity
  8
Default
100
AcDbVertex
100
AcDb2dVertex
 10
-22.16682045982251
 20
-4.167603642334528
 30
0.0
  0
VERTEX
  5
2B7
330
2A6
100
AcDbEntity
  8
Default
100
AcDbVertex
100
AcDb2dVertex
 10
-21.92252745731826
 20
-4.38455553550227
 30
0.0
  0
VERTEX
  5
2B8
330
2A6
100
AcDbEntity
  8
Default
100
AcDbVertex
100
AcDb2dVertex
 10
-21.66721300662928
 20
-4.599144708973733
 30
0.0
  0
VERTEX
  5
2B9
330
2A6
100
AcDbEntity
  8
Default
100
AcDbVertex
100
AcDb2dVertex
 10
-21.40089023554418
 20
-4.811286453855049
 30
0.0
  0
VERTEX
  5
2BA
330
2A6
100
AcDbEntity
  8
Default
100
AcDbVertex
100
AcDb2dVertex
 10
-21.12357954859756
 20
-5.020896956274377
 30
0.0
  0
VERTEX
  5
2BB
330
2A6
100
AcDbEntity
  8
Default
100
AcDbVertex
100
AcDb2dVertex
 10
-20.8353086780682
 20
-5.227893397510453
 30
0.0
  0
VERTEX
  5
2BC
330
2A6
100
AcDbEntity
  8
Default
100
AcDbVertex
100
AcDb2dVertex
 10
-20.53611272360623
 20
-5.432194053673176
 30
0.0
  0
VERTEX
  5
2BD
330
2A6
100
AcDbEntity
  8
Default
100
AcDbVertex
100
AcDb2dVertex
 10
-20.22603418024647
 20
-5.633718394701863
 30
0.0
  0
VERTEX
  5
2BE
330
2A6
100
AcDbEntity
  8
Default
100
AcDbVertex
100
AcDb2dVertex
 10
-19.90512295459734
 20
-5.832387182445498
 30
0.0
  0
VERTEX
  5
2BF
330
2A6
100
AcDbEntity
  8
Default
100
AcDbVertex
100
AcDb2dVertex
 10
-19.57343636902757
 20
-6.028122567588711
 30
0.0
  0
VERTEX
  5
2C0
330
2A6
100
AcDbEntity
  8
Default
100
AcDbVertex
100
AcDb2dVertex
 10
-19.2310391537078
 20
-6.22084818518778
 30
0.0
  0
VERTEX
  5
2C1
330
2A6
100
AcDbEntity
  8
Default
100
AcDbVertex
100
AcDb2dVertex
 10
-18.8780034263995
 20
-6.410489248582191
 30
0.0
  0
VERTEX
  5
2C2
330
2A6
100
AcDbEntity
  8
Default
100
AcDbVertex
100
AcDb2dVertex
 10
-18.51440865992014
 20
-6.59697264144972
 30
0.0
  0
VERTEX
  5
2C3
330
2A6
100
AcDbEntity
  8
Default
100
AcDbVertex
100
AcDb2dVertex
 10
-18.14034163725061
 20
-6.780227007776183
 30
0.0
  0
VERTEX
  5
2C4
330
2A6
100
AcDbEntity
  8
Default
100
AcDbVertex
100
AcDb2dVertex
 10
-17.3611741502909
 20
-7.136772561718926
 30
0.0
  0
VERTEX
  5
2C5
330
2A6
100
AcDbEntity
  8
Default
100
AcDbVertex
100
AcDb2dVertex
 10
-16.54133895014904
 20
-7.479593534595507
 30
0.0
  0
VERTEX
  5
2C6
330
2A6
100
AcDbEntity
  8
Default
100
AcDbVertex
100
AcDb2dVertex
 10
-15.68178604846667
 20
-7.808191044203167
 30
0.0
  0
VERTEX
  5
2C7
330
2A6
100
AcDbEntity
  8
Default
100
AcDbVertex
100
AcDb2dVertex
 10
-14.78357391156659
 20
-8.122102086875293
 30
0.0
  0
VERTEX
  5
2C8
330
2A6
100
AcDbEntity
  8
Default
100
AcDbVertex
100
AcDb2dVertex
 10
-13.35719684805897
 20
-8.576139566143144
 30
0.0
  0
VERTEX
  5
2C9
330
2A6
100
AcDbEntity
  8
Default
100
AcDbVertex
100
AcDb2dVertex
 10
-11.95537303478986
 20
-8.977093205499955
 30
0.0
  0
VERTEX
  5
2CA
330
2A6
100
AcDbEntity
  8
Default
100
AcDbVertex
100
AcDb2dVertex
 10
-10.58251535329726
 20
-9.32392418577763
 30
0.0
  0
VERTEX
  5
2CB
330
2A6
100
AcDbEntity
  8
Default
100
AcDbVertex
100
AcDb2dVertex
 10
-9.24281219923015
 20
-9.615951240641794
 30
0.0
  0
VERTEX
  5
2CC
330
2A6
100
AcDbEntity
  8
Default
100
AcDbVertex
100
AcDb2dVertex
 10
-8.586630685842545
 20
-9.741298904163887
 30
0.0
  0
VERTEX
  5
2CD
330
2A6
100
AcDbEntity
  8
Default
100
AcDbVertex
100
AcDb2dVertex
 10
-7.940185730732512
 20
-9.852853160171575
 30
0.0
  0
VERTEX
  5
2CE
330
2A6
100
AcDbEntity
  8
Default
100
AcDbVertex
100
AcDb2dVertex
 10
-7.303919979277
 20
-9.950629577123223
 30
0.0
  0
VERTEX
  5
2CF
330
2A6
100
AcDbEntity
  8
Default
100
AcDbVertex
100
AcDb2dVertex
 10
-6.678255156963583
 20
-10.03466550990781
 30
0.0
  0
VERTEX
  5
2D0
330
2A6
100
AcDbEntity
  8
Default
100
AcDbVertex
100
AcDb2dVertex
 10
-6.063591243906919
 20
-10.1050196982572
 30
0.0
  0
VERTEX
  5
2D1
330
2A6
100
AcDbEntity
  8
Default
100
AcDbVertex
100
AcDb2dVertex
 10
-5.460305749755022
 20
-10.16177178755296
 30
0.0
  0
VERTEX
  5
2D2
330
2A6
100
AcDbEntity
  8
Default
100
AcDbVertex
100
AcDb2dVertex
 10
-4.868753090862633
 20
-10.20502177631268
 30
0.0
  0
VERTEX
  5
2D3
330
2A6
100
AcDbEntity
  8
Default
100
AcDbVertex
100
AcDb2dVertex
 10
-4.289264070812583
 20
-10.23488939507049
 30
0.0
  0
VERTEX
  5
2D4
330
2A6
100
AcDbEntity
  8
Default
100
AcDbVertex
100
AcDb2dVertex
 10
-3.72214546458283
 20
-10.25151342173889
 30
0.0
  0
VERTEX
  5
2D5
330
2A6
100
AcDbEntity
  8
Default
100
AcDbVertex
100
AcDb2dVertex
 10
-3.167679705895613
 20
-10.25505093885286
 30
0.0
  0
VERTEX
  5
2D6
330
2A6
100
AcDbEntity
  8
Default
100
AcDbVertex
100
AcDb2dVertex
 10
-2.626124676553737
 20
-10.24567653834955
 30
0.0
  0
VERTEX
  5
2D7
330
2A6
100
AcDbEntity
  8
Default
100
AcDbVertex
100
AcDb2dVertex
 10
-2.097713595875006
 20
-10.2235814797287
 30
0.0
  0
VERTEX
  5
2D8
330
2A6
100
AcDbEntity
  8
Default
100
AcDbVertex
100
AcDb2dVertex
 10
-1.582655007685362
 20
-10.18897280756893
 30
0.0
  0
VERTEX
  5
2D9
330
2A6
100
AcDbEntity
  8
Default
100
AcDbVertex
100
AcDb2dVertex
 10
-1.081132861730195
 20
-10.14207243444593
 30
0.0
  0
VERTEX
  5
2DA
330
2A6
100
AcDbEntity
  8
Default
100
AcDbVertex
100
AcDb2dVertex
 10
-0.5933066858159799
 20
-10.08311619531083
 30
0.0
  0
VERTEX
  5
2DB
330
2A6
100
AcDbEntity
  8
Default
100
AcDbVertex
100
AcDb2dVertex
 10
-0.1193118445045955
 20
-10.01235287934457
 30
0.0
  0
VERTEX
  5
2DC
330
2A6
100
AcDbEntity
  8
Default
100
AcDbVertex
100
AcDb2dVertex
 10
0.3407401202470731
 20
-9.930043245208937
 30
0.0
  0
VERTEX
  5
2DD
330
2A6
100
AcDbEntity
  8
Default
100
AcDbVertex
100
AcDb2dVertex
 10
0.7867610714775778
 20
-9.83645902547224
 30
0.0
  0
VERTEX
  5
2DE
330
2A6
100
AcDbEntity
  8
Default
100
AcDbVertex
100
AcDb2dVertex
 10
1.218685787922221
 20
-9.731881925799723
 30
0.0
  0
VERTEX
  5
2DF
330
2A6
100
AcDbEntity
  8
Default
100
AcDbVertex
100
AcDb2dVertex
 10
1.636471408549174
 20
-9.616602624272517
 30
0.0
  0
VERTEX
  5
2E0
330
2A6
100
AcDbEntity
  8
Default
100
AcDbVertex
100
AcDb2dVertex
 10
2.040096816636109
 20
-9.490919775937087
 30
0.0
  0
VERTEX
  5
2E1
330
2A6
100
AcDbEntity
  8
Default
100
AcDbVertex
100
AcDb2dVertex
 10
2.429561969215167
 20
-9.355139027395724
 30
0.0
  0
VERTEX
  5
2E2
330
2A6
100
AcDbEntity
  8
Default
100
AcDbVertex
100
AcDb2dVertex
 10
2.618990022507105
 20
-9.283559127572362
 30
0.0
  0
VERTEX
  5
2E3
330
2A6
100
AcDbEntity
  8
Default
100
AcDbVertex
100
AcDb2dVertex
 10
2.804887177779005
 20
-9.209572045932324
 30
0.0
  0
VERTEX
  5
2E4
330
2A6
100
AcDbEntity
  8
Default
100
AcDbVertex
100
AcDb2dVertex
 10
2.987259029297912
 20
-9.133217525389698
 30
0.0
  0
VERTEX
  5
2E5
330
2A6
100
AcDbEntity
  8
Default
100
AcDbVertex
100
AcDb2dVertex
 10
3.166112346151245
 20
-9.054535567331705
 30
0.0
  0
SEQEND
  5
2E6
330
2A6
100
AcDbEntity
  8
Default
  0
POLYLINE
  5
2E7
330
1F
100
AcDbEntity
  8
Default
100
AcDb2dPolyline
 66
     1
 10
0.0
 20
0.0
 30
0.0
  0
VERTEX
  5
2E8
330
2E7
100
AcDbEntity
  8
Default
100
AcDbVertex
100
AcDb2dVertex
 10
3.166112346151245
 20
-9.054535567331705
 30
0.0
  0
VERTEX
  5
2E9
330
2E7
100
AcDbEntity
  8
Default
100
AcDbVertex
100
AcDb2dVertex
 10
5.033143118040528
 20
-8.250678216053368
 30
0.0
  0
VERTEX
  5
2EA
330
2E7
100
AcDbEntity
  8
Default
100
AcDbVertex
100
AcDb2dVertex
 10
6.926332263501808
 20
-7.510525931794716
 30
0.0
  0
VERTEX
  5
2EB
330
2E7
100
AcDbEntity
  8
Default
100
AcDbVertex
100
AcDb2dVertex
 10
8.843506827077366
 20
-6.834928242955733
 30
0.0
  0
VERTEX
  5
2EC
330
2E7
100
AcDbEntity
  8
Default
100
AcDbVertex
100
AcDb2dVertex
 10
10.78246632344258
 20
-6.224660583775892
 30
0.0
  0
VERTEX
  5
2ED
330
2E7
100
AcDbEntity
  8
Default
100
AcDbVertex
100
AcDb2dVertex
 10
12.74098526306832
 20
-5.680423404309989
 30
0.0
  0
VERTEX
  5
2EE
330
2E7
100
AcDbEntity
  8
Default
100
AcDbVertex
100
AcDb2dVertex
 10
14.71681570658249
 20
-5.202841366469005
 30
0.0
  0
VERTEX
  5
2EF
330
2E7
100
AcDbEntity
  8
Default
100
AcDbVertex
100
AcDb2dVertex
 10
16.70768984489898
 20
-4.792462627048615
 30
0.0
  0
VERTEX
  5
2F0
330
2E7
100
AcDbEntity
  8
Default
100
AcDbVertex
100
AcDb2dVertex
 10
18.71132260215265
 20
-4.44975820856853
 30
0.0
  0
VERTEX
  5
2F1
330
2E7
100
AcDbEntity
  8
Default
100
AcDbVertex
100
AcDb2dVertex
 10
20.72541425845255
 20
-4.175121458644491
 30
0.0
  0
VERTEX
  5
2F2
330
2E7
100
AcDbEntity
  8
Default
100
AcDbVertex
100
AcDb2dVertex
 10
22.7476530894433
 20
-3.968867598513658
 30
0.0
  0
VERTEX
  5
2F3
330
2E7
100
AcDbEntity
  8
Default
100
AcDbVertex
100
AcDb2dVertex
 10
24.77571801964487
 20
-3.831233361231552
 30
0.0
  0
VERTEX
  5
2F4
330
2E7
100
AcDbEntity
  8
Default
100
AcDbVertex
100
AcDb2dVertex
 10
26.8072812865253
 20
-3.762376719955677
 30
0.0
  0
VERTEX
  5
2F5
330
2E7
100
AcDbEntity
  8
Default
100
AcDbVertex
100
AcDb2dVertex
 10
28.84001111224876
 20
-3.762376706627879
 30
0.0
  0
VERTEX
  5
2F6
330
2E7
100
AcDbEntity
  8
Default
100
AcDbVertex
100
AcDb2dVertex
 10
30.87157438003214
 20
-3.831233321263458
 30
0.0
  0
VERTEX
  5
2F7
330
2E7
100
AcDbEntity
  8
Default
100
AcDbVertex
100
AcDb2dVertex
 10
32.89963931203853
 20
-3.968867531951144
 30
0.0
  0
VERTEX
  5
2F8
330
2E7
100
AcDbEntity
  8
Default
100
AcDbVertex
100
AcDb2dVertex
 10
34.92187814573393
 20
-4.175121365563951
 30
0.0
  0
VERTEX
  5
2F9
330
2E7
100
AcDbEntity
  8
Default
100
AcDbVertex
100
AcDb2dVertex
 10
36.9359698056352
 20
-4.449758089076809
 30
0.0
  0
VERTEX
  5
2FA
330
2E7
100
AcDbEntity
  8
Default
100
AcDbVertex
100
AcDb2dVertex
 10
38.93960256738281
 20
-4.792462481282849
 30
0.0
  0
VERTEX
  5
2FB
330
2E7
100
AcDbEntity
  8
Default
100
AcDbVertex
100
AcDb2dVertex
 10
40.93047671108069
 20
-5.202841194596518
 30
0.0
  0
VERTEX
  5
2FC
330
2E7
100
AcDbEntity
  8
Default
100
AcDbVertex
100
AcDb2dVertex
 10
42.90630716085748
 20
-5.680423206528042
 30
0.0
  0
VERTEX
  5
2FD
330
2E7
100
AcDbEntity
  8
Default
100
AcDbVertex
100
AcDb2dVertex
 10
44.8648261076199
 20
-6.224660360311489
 30
0.0
  0
VERTEX
  5
2FE
330
2E7
100
AcDbEntity
  8
Default
100
AcDbVertex
100
AcDb2dVertex
 10
46.80378561198768
 20
-6.834927994065364
 30
0.0
  0
VERTEX
  5
2FF
330
2E7
100
AcDbEntity
  8
Default
100
AcDbVertex
100
AcDb2dVertex
 10
48.72096018442249
 20
-7.510525657764056
 30
0.0
  0
VERTEX
  5
300
330
2E7
100
AcDbEntity
  8
Default
100
AcDbVertex
100
AcDb2dVertex
 10
50.61414933958954
 20
-8.250677917196946
 30
0.0
  0
VERTEX
  5
301
330
2E7
100
AcDbEntity
  8
Default
100
AcDbVertex
100
AcDb2dVertex
 10
52.48118012201996
 20
-9.054535243992532
 30
0.0
  0
SEQEND
  5
302
330
2E7
100
AcDbEntity
  8
Default
  0
POLYLINE
  5
303
330
1F
100
AcDbEntity
  8
Default
100
AcDb2dPolyline
 66
     1
 10
0.0
 20
0.0
 30
0.0
  0
VERTEX
  5
304
330
303
100
AcDbEntity
  8
Default
100
AcDbVertex
100
AcDb2dVertex
 10
52.48118012201996
 20
-9.054535243992532
 30
0.0
  0
VERTEX
  5
305
330
303
100
AcDbEntity
  8
Default
100
AcDbVertex
100
AcDb2dVertex
 10
52.66003343343233
 20
-9.133217215425951
 30
0.0
  0
VERTEX
  5
306
330
303
100
AcDbEntity
  8
Default
100
AcDbVertex
100
AcDb2dVertex
 10
52.84240527974332
 20
-9.209571749334504
 30
0.0
  0
VERTEX
  5
307
330
303
100
AcDbEntity
  8
Default
100
AcDbVertex
100
AcDb2dVertex
 10
53.02830243004433
 20
-9.28355884432603
 30
0.0
  0
VERTEX
  5
308
330
303
100
AcDbEntity
  8
Default
100
AcDbVertex
100
AcDb2dVertex
 10
53.21773047860629
 20
-9.355138757481454
 30
0.0
  0
VERTEX
  5
309
330
303
100
AcDbEntity
  8
Default
100
AcDbVertex
100
AcDb2dVertex
 10
53.6071956224631
 20
-9.49091953260846
 30
0.0
  0
VERTEX
  5
30A
330
303
100
AcDbEntity
  8
Default
100
AcDbVertex
100
AcDb2dVertex
 10
54.01082102283524
 20
-9.616602407390781
 30
0.0
  0
VERTEX
  5
30B
330
303
100
AcDbEntity
  8
Default
100
AcDbVertex
100
AcDb2dVertex
 10
54.42860663678181
 20
-9.731881735184716
 30
0.0
  0
VERTEX
  5
30C
330
303
100
AcDbEntity
  8
Default
100
AcDbVertex
100
AcDb2dVertex
 10
54.86053134760526
 20
-9.836458860901928
 30
0.0
  0
VERTEX
  5
30D
330
303
100
AcDbEntity
  8
Default
100
AcDbVertex
100
AcDb2dVertex
 10
55.30655229429632
 20
-9.930043106419113
 30
0.0
  0
VERTEX
  5
30E
330
303
100
AcDbEntity
  8
Default
100
AcDbVertex
100
AcDb2dVertex
 10
55.76660425561038
 20
-10.01235276602874
 30
0.0
  0
VERTEX
  5
30F
330
303
100
AcDbEntity
  8
Default
100
AcDbVertex
100
AcDb2dVertex
 10
56.24059909460344
 20
-10.08311610712024
 30
0.0
  0
VERTEX
  5
310
330
303
100
AcDbEntity
  8
Default
100
AcDbVertex
100
AcDb2dVertex
 10
56.7284252693333
 20
-10.14207237098972
 30
0.0
  0
VERTEX
  5
311
330
303
100
AcDbEntity
  8
Default
100
AcDbVertex
100
AcDb2dVertex
 10
57.22994741524985
 20
-10.18897276841458
 30
0.0
  0
VERTEX
  5
312
330
303
100
AcDbEntity
  8
Default
100
AcDbVertex
100
AcDb2dVertex
 10
57.74500600455531
 20
-10.22358146440256
 30
0.0
  0
VERTEX
  5
313
330
303
100
AcDbEntity
  8
Default
100
AcDbVertex
100
AcDb2dVertex
 10
58.27341708750981
 20
-10.24567654633759
 30
0.0
  0
VERTEX
  5
314
330
303
100
AcDbEntity
  8
Default
100
AcDbVertex
100
AcDb2dVertex
 10
58.81497212028962
 20
-10.2550509696016
 30
0.0
  0
VERTEX
  5
315
330
303
100
AcDbEntity
  8
Default
100
AcDbVertex
100
AcDb2dVertex
 10
59.36943788357578
 20
-10.25151347465651
 30
0.0
  0
VERTEX
  5
316
330
303
100
AcDbEntity
  8
Default
100
AcDbVertex
100
AcDb2dVertex
 10
59.93655649556084
 20
-10.23488946952816
 30
0.0
  0
VERTEX
  5
317
330
303
100
AcDbEntity
  8
Default
100
AcDbVertex
100
AcDb2dVertex
 10
60.51604552251439
 20
-10.20502187164602
 30
0.0
  0
VERTEX
  5
318
330
303
100
AcDbEntity
  8
Default
100
AcDbVertex
100
AcDb2dVertex
 10
61.10759818944673
 20
-10.16177190306373
 30
0.0
  0
VERTEX
  5
319
330
303
100
AcDbEntity
  8
Default
100
AcDbVertex
100
AcDb2dVertex
 10
61.71088369275972
 20
-10.10501983321512
 30
0.0
  0
VERTEX
  5
31A
330
303
100
AcDbEntity
  8
Default
100
AcDbVertex
100
AcDb2dVertex
 10
62.32554761607967
 20
-10.03466566355257
 30
0.0
  0
VERTEX
  5
31B
330
303
100
AcDbEntity
  8
Default
100
AcDbVertex
100
AcDb2dVertex
 10
62.9512124497361
 20
-9.95062974866665
 30
0.0
  0
VERTEX
  5
31C
330
303
100
AcDbEntity
  8
Default
100
AcDbVertex
100
AcDb2dVertex
 10
63.58747821358831
 20
-9.852853348799945
 30
0.0
  0
VERTEX
  5
31D
330
303
100
AcDbEntity
  8
Default
100
AcDbVertex
100
AcDb2dVertex
 10
64.23392318211924
 20
-9.741299109040375
 30
0.0
  0
VERTEX
  5
31E
330
303
100
AcDbEntity
  8
Default
100
AcDbVertex
100
AcDb2dVertex
 10
64.8901047099191
 20
-9.615951460909029
 30
0.0
  0
VERTEX
  5
31F
330
303
100
AcDbEntity
  8
Default
100
AcDbVertex
100
AcDb2dVertex
 10
66.22980789563708
 20
-9.323924434185624
 30
0.0
  0
VERTEX
  5
320
330
303
100
AcDbEntity
  8
Default
100
AcDbVertex
100
AcDb2dVertex
 10
67.6026656122724
 20
-8.97709347844153
 30
0.0
  0
VERTEX
  5
321
330
303
100
AcDbEntity
  8
Default
100
AcDbVertex
100
AcDb2dVertex
 10
69.00448946380516
 20
-8.57613985994855
 30
0.0
  0
VERTEX
  5
322
330
303
100
AcDbEntity
  8
Default
100
AcDbVertex
100
AcDb2dVertex
 10
70.43086656828768
 20
-8.122102397859887
 30
0.0
  0
VERTEX
  5
323
330
303
100
AcDbEntity
  8
Default
100
AcDbVertex
100
AcDb2dVertex
 10
71.32907876738741
 20
-7.808191351369473
 30
0.0
  0
VERTEX
  5
324
330
303
100
AcDbEntity
  8
Default
100
AcDbVertex
100
AcDb2dVertex
 10
72.18863172849795
 20
-7.479593835214218
 30
0.0
  0
VERTEX
  5
325
330
303
100
AcDbEntity
  8
Default
100
AcDbVertex
100
AcDb2dVertex
 10
73.00846698506724
 20
-7.136772853143126
 30
0.0
  0
VERTEX
  5
326
330
303
100
AcDbEntity
  8
Default
100
AcDbVertex
100
AcDb2dVertex
 10
73.78763452524915
 20
-6.780227287453322
 30
0.0
  0
VERTEX
  5
327
330
303
100
AcDbEntity
  8
Default
100
AcDbVertex
100
AcDb2dVertex
 10
74.16170157327099
 20
-6.596972914328682
 30
0.0
  0
VERTEX
  5
328
330
303
100
AcDbEntity
  8
Default
100
AcDbVertex
100
AcDb2dVertex
 10
74.52529636423648
 20
-6.41048951406523
 30
0.0
  0
VERTEX
  5
329
330
303
100
AcDbEntity
  8
Default
100
AcDbVertex
100
AcDb2dVertex
 10
74.87833211514669
 20
-6.220848442691923
 30
0.0
  0
VERTEX
  5
32A
330
303
100
AcDbEntity
  8
Default
100
AcDbVertex
100
AcDb2dVertex
 10
75.22072935316773
 20
-6.028122816546342
 30
0.0
  0
VERTEX
  5
32B
330
303
100
AcDbEntity
  8
Default
100
AcDbVertex
100
AcDb2dVertex
 10
75.55241596052358
 20
-5.832387422304901
 30
0.0
  0
VERTEX
  5
32C
330
303
100
AcDbEntity
  8
Default
100
AcDbVertex
100
AcDb2dVertex
 10
75.87332720703068
 20
-5.633718624927727
 30
0.0
  0
VERTEX
  5
32D
330
303
100
AcDbEntity
  8
Default
100
AcDbVertex
100
AcDb2dVertex
 10
76.18340577030925
 20
-5.432194273747069
 30
0.0
  0
VERTEX
  5
32E
330
303
100
AcDbEntity
  8
Default
100
AcDbVertex
100
AcDb2dVertex
 10
76.48260174374153
 20
-5.227893606931262
 30
0.0
  0
VERTEX
  5
32F
330
303
100
AcDbEntity
  8
Default
100
AcDbVertex
100
AcDb2dVertex
 10
76.77087263228509
 20
-5.02089715455871
 30
0.0
  0
VERTEX
  5
330
330
303
100
AcDbEntity
  8
Default
100
AcDbVertex
100
AcDb2dVertex
 10
77.04818333628404
 20
-4.811286640537599
 30
0.0
  0
VERTEX
  5
331
330
303
100
AcDbEntity
  8
Default
100
AcDbVertex
100
AcDb2dVertex
 10
77.31450612345544
 20
-4.599144883607603
 30
0.0
  0
VERTEX
  5
332
330
303
100
AcDbEntity
  8
Default
100
AcDbVertex
100
AcDb2dVertex
 10
77.56982058926236
 20
-4.384555697659268
 30
0.0
  0
VERTEX
  5
333
330
303
100
AcDbEntity
  8
Default
100
AcDbVertex
100
AcDb2dVertex
 10
77.81411360591547
 20
-4.167603791605412
 30
0.0
  0
VERTEX
  5
334
330
303
100
AcDbEntity
  8
Default
100
AcDbVertex
100
AcDb2dVertex
 10
78.04737926027715
 20
-3.948374669036605
 30
0.0
  0
VERTEX
  5
335
330
303
100
AcDbEntity
  8
Default
100
AcDbVertex
100
AcDb2dVertex
 10
78.26961878096934
 20
-3.726954527889599
 30
0.0
  0
VERTEX
  5
336
330
303
100
AcDbEntity
  8
Default
100
AcDbVertex
100
AcDb2dVertex
 10
78.480840455015
 20
-3.50343016035374
 30
0.0
  0
VERTEX
  5
337
330
303
100
AcDbEntity
  8
Default
100
AcDbVertex
100
AcDb2dVertex
 10
78.68105953436708
 20
-3.277888853235532
 30
0.0
  0
VERTEX
  5
338
330
303
100
AcDbEntity
  8
Default
100
AcDbVertex
100
AcDb2dVertex
 10
78.87029813270337
 20
-3.05041828899613
 30
0.0
  0
VERTEX
  5
339
330
303
100
AcDbEntity
  8
Default
100
AcDbVertex
100
AcDb2dVertex
 10
79.04858511288627
 20
-2.821106447670291
 30
0.0
  0
VERTEX
  5
33A
330
303
100
AcDbEntity
  8
Default
100
AcDbVertex
100
AcDb2dVertex
 10
79.21595596550715
 20
-2.590041509868536
 30
0.0
  0
VERTEX
  5
33B
330
303
100
AcDbEntity
  8
Default
100
AcDbVertex
100
AcDb2dVertex
 10
79.2955607152516
 20
-2.473879217489495
 30
0.0
  0
VERTEX
  5
33C
330
303
100
AcDbEntity
  8
Default
100
AcDbVertex
100
AcDb2dVertex
 10
79.37245267895085
 20
-2.357311761056747
 30
0.0
  0
VERTEX
  5
33D
330
303
100
AcDbEntity
  8
Default
100
AcDbVertex
100
AcDb2dVertex
 10
79.44663809779738
 20
-2.240350177172683
 30
0.0
  0
VERTEX
  5
33E
330
303
100
AcDbEntity
  8
Default
100
AcDbVertex
100
AcDb2dVertex
 10
79.5181236014331
 20
-2.123005497299511
 30
0.0
  0
VERTEX
  5
33F
330
303
100
AcDbEntity
  8
Default
100
AcDbVertex
100
AcDb2dVertex
 10
79.586916203232
 20
-2.005288744906188
 30
0.0
  0
VERTEX
  5
340
330
303
100
AcDbEntity
  8
Default
100
AcDbVertex
100
AcDb2dVertex
 10
79.65302329547545
 20
-1.887210932644938
 30
0.0
  0
VERTEX
  5
341
330
303
100
AcDbEntity
  8
Default
100
AcDbVertex
100
AcDb2dVertex
 10
79.71645264442473
 20
-1.768783059558567
 30
0.0
  0
VERTEX
  5
342
330
303
100
AcDbEntity
  8
Default
100
AcDbVertex
100
AcDb2dVertex
 10
79.77721238529413
 20
-1.650016108319782
 30
0.0
  0
SEQEND
  5
343
330
303
100
AcDbEntity
  8
Default
  0
POLYLINE
  5
344
330
1F
100
AcDbEntity
  8
Default
100
AcDb2dPolyline
 66
     1
 10
0.0
 20
0.0
 30
0.0
  0
VERTEX
  5
345
330
344
100
AcDbEntity
  8
Default
100
AcDbVertex
100
AcDb2dVertex
 10
79.77721238529413
 20
-1.650016108319782
 30
0.0
  0
VERTEX
  5
346
330
344
100
AcDbEntity
  8
Default
100
AcDbVertex
100
AcDb2dVertex
 10
79.79044819356956
 20
-1.622483325099783
 30
0.0
  0
VERTEX
  5
347
330
344
100
AcDbEntity
  8
Default
100
AcDbVertex
100
AcDb2dVertex
 10
79.802926496641
 20
-1.594348280920877
 30
0.0
  0
VERTEX
  5
348
330
344
100
AcDbEntity
  8
Default
100
AcDbVertex
100
AcDb2dVertex
 10
79.81461173632185
 20
-1.565640381009103
 30
0.0
  0
VERTEX
  5
349
330
344
100
AcDbEntity
  8
Default
100
AcDbVertex
100
AcDb2dVertex
 10
79.82546976121913
 20
-1.536391615187858
 30
0.0
  0
VERTEX
  5
34A
330
344
100
AcDbEntity
  8
Default
100
AcDbVertex
100
AcDb2dVertex
 10
79.83546804993944
 20
-1.506636483503008
 30
0.0
  0
VERTEX
  5
34B
330
344
100
AcDbEntity
  8
Default
100
AcDbVertex
100
AcDb2dVertex
 10
79.84457593067528
 20
-1.476411899505978
 30
0.0
  0
VERTEX
  5
34C
330
344
100
AcDbEntity
  8
Default
100
AcDbVertex
100
AcDb2dVertex
 10
79.8527647946256
 20
-1.445757071234145
 30
0.0
  0
VERTEX
  5
34D
330
344
100
AcDbEntity
  8
Default
100
AcDbVertex
100
AcDb2dVertex
 10
79.86000830066725
 20
-1.414713360253911
 30
0.0
  0
VERTEX
  5
34E
330
344
100
AcDbEntity
  8
Default
100
AcDbVertex
100
AcDb2dVertex
 10
79.86628256870303
 20
-1.383324119468564
 30
0.0
  0
VERTEX
  5
34F
330
344
100
AcDbEntity
  8
Default
100
AcDbVertex
100
AcDb2dVertex
 10
79.87156635917032
 20
-1.351634510733249
 30
0.0
  0
VERTEX
  5
350
330
344
100
AcDbEntity
  8
Default
100
AcDbVertex
100
AcDb2dVertex
 10
79.87584123630195
 20
-1.319691303655081
 30
0.0
  0
VERTEX
  5
351
330
344
100
AcDbEntity
  8
Default
100
AcDbVertex
100
AcDb2dVertex
 10
79.8790917128901
 20
-1.287542657279675
 30
0.0
  0
VERTEX
  5
352
330
344
100
AcDbEntity
  8
Default
100
AcDbVertex
100
AcDb2dVertex
 10
79.88130537450891
 20
-1.255237886667736
 30
0.0
  0
VERTEX
  5
353
330
344
100
AcDbEntity
  8
Default
100
AcDbVertex
100
AcDb2dVertex
 10
79.88247298140426
 20
-1.222827216639128
 30
0.0
  0
VERTEX
  5
354
330
344
100
AcDbEntity
  8
Default
100
AcDbVertex
100
AcDb2dVertex
 10
79.88258854655052
 20
-1.190361525199436
 30
0.0
  0
VERTEX
  5
355
330
344
100
AcDbEntity
  8
Default
100
AcDbVertex
100
AcDb2dVertex
 10
79.88164938870123
 20
-1.157892079358964
 30
0.0
  0
VERTEX
  5
356
330
344
100
AcDbEntity
  8
Default
100
AcDbVertex
100
AcDb2dVertex
 10
79.87965615961484
 20
-1.125470266200807
 30
0.0
  0
VERTEX
  5
357
330
344
100
AcDbEntity
  8
Default
100
AcDbVertex
100
AcDb2dVertex
 10
79.87661284501162
 20
-1.093147322148849
 30
0.0
  0
VERTEX
  5
358
330
344
100
AcDbEntity
  8
Default
100
AcDbVertex
100
AcDb2dVertex
 10
79.87252673920212
 20
-1.060974063425511
 30
0.0
  0
VERTEX
  5
359
330
344
100
AcDbEntity
  8
Default
100
AcDbVertex
100
AcDb2dVertex
 10
79.8674083937163
 20
-1.029000620671554
 30
0.0
  0
VERTEX
  5
35A
330
344
100
AcDbEntity
  8
Default
100
AcDbVertex
100
AcDb2dVertex
 10
79.86127154064155
 20
-0.9972761806266941
 30
0.0
  0
VERTEX
  5
35B
330
344
100
AcDbEntity
  8
Default
100
AcDbVertex
100
AcDb2dVertex
 10
79.85413299174247
 20
-0.9658487376421839
 30
0.0
  0
VERTEX
  5
35C
330
344
100
AcDbEntity
  8
Default
100
AcDbVertex
100
AcDb2dVertex
 10
79.8460125147756
 20
-0.9347648576184484
 30
0.0
  0
VERTEX
  5
35D
330
344
100
AcDbEntity
  8
Default
100
AcDbVertex
100
AcDb2dVertex
 10
79.83693268871954
 20
-0.9040694567372547
 30
0.0
  0
VERTEX
  5
35E
330
344
100
AcDbEntity
  8
Default
100
AcDbVertex
100
AcDb2dVertex
 10
79.82691873991064
 20
-0.8738055970948978
 30
0.0
  0
VERTEX
  5
35F
330
344
100
AcDbEntity
  8
Default
100
AcDbVertex
100
AcDb2dVertex
 10
79.81599836130025
 20
-0.8440143010475933
 30
0.0
  0
VERTEX
  5
360
330
344
100
AcDbEntity
  8
Default
100
AcDbVertex
100
AcDb2dVertex
 10
79.80420151722778
 20
-0.8147343857604565
 30
0.0
  0
VERTEX
  5
361
330
344
100
AcDbEntity
  8
Default
100
AcDbVertex
100
AcDb2dVertex
 10
79.79156023623189
 20
-0.7860023191153274
 30
0.0
  0
VERTEX
  5
362
330
344
100
AcDbEntity
  8
Default
100
AcDbVertex
100
AcDb2dVertex
 10
79.77810839449965
 20
-0.7578520977885526
 30
0.0
  0
VERTEX
  5
363
330
344
100
AcDbEntity
  8
Default
100
AcDbVertex
100
AcDb2dVertex
 10
79.763881492581
 20
-0.7303151479658054
 30
0.0
  0
VERTEX
  5
364
330
344
100
AcDbEntity
  8
Default
100
AcDbVertex
100
AcDb2dVertex
 10
79.74891642797414
 20
-0.7034202488248065
 30
0.0
  0
VERTEX
  5
365
330
344
100
AcDbEntity
  8
Default
100
AcDbVertex
100
AcDb2dVertex
 10
79.73325126612114
 20
-0.6771934785954687
 30
0.0
  0
VERTEX
  5
366
330
344
100
AcDbEntity
  8
Default
100
AcDbVertex
100
AcDb2dVertex
 10
79.71679230608774
 20
-0.6514574453509795
 30
0.0
  0
VERTEX
  5
367
330
344
100
AcDbEntity
  8
Default
100
AcDbVertex
100
AcDb2dVertex
 10
79.69942274559826
 20
-0.6260490387324164
 30
0.0
  0
VERTEX
  5
368
330
344
100
AcDbEntity
  8
Default
100
AcDbVertex
100
AcDb2dVertex
 10
79.68114889824055
 20
-0.6010139664039728
 30
0.0
  0
VERTEX
  5
369
330
344
100
AcDbEntity
  8
Default
100
AcDbVertex
100
AcDb2dVertex
 10
79.66198001576642
 20
-0.5763980985251289
 30
0.0
  0
VERTEX
  5
36A
330
344
100
AcDbEntity
  8
Default
100
AcDbVertex
100
AcDb2dVertex
 10
79.6419283422006
 20
-0.5522472387862483
 30
0.0
  0
VERTEX
  5
36B
330
344
100
AcDbEntity
  8
Default
100
AcDbVertex
100
AcDb2dVertex
 10
79.62100914704271
 20
-0.5286068867745379
 30
0.0
  0
VERTEX
  5
36C
330
344
100
AcDbEntity
  8
Default
100
AcDbVertex
100
AcDb2dVertex
 10
79.59924073625672
 20
-0.5055219938567785
 30
0.0
  0
VERTEX
  5
36D
330
344
100
AcDbEntity
  8
Default
100
AcDbVertex
100
AcDb2dVertex
 10
79.57664444000024
 20
-0.4830367149683559
 30
0.0
  0
VERTEX
  5
36E
330
344
100
AcDbEntity
  8
Default
100
AcDbVertex
100
AcDb2dVertex
 10
79.55324457633735
 20
-0.4611941588673988
 30
0.0
  0
VERTEX
  5
36F
330
344
100
AcDbEntity
  8
Default
100
AcDbVertex
100
AcDb2dVertex
 10
79.52906839049803
 20
-0.4400361395422954
 30
0.0
  0
VERTEX
  5
370
330
344
100
AcDbEntity
  8
Default
100
AcDbVertex
100
AcDb2dVertex
 10
79.50414596959064
 20
-0.4196029315454083
 30
0.0
  0
VERTEX
  5
371
330
344
100
AcDbEntity
  8
Default
100
AcDbVertex
100
AcDb2dVertex
 10
79.47851013303112
 20
-0.3999330320612899
 30
0.0
  0
VERTEX
  5
372
330
344
100
AcDbEntity
  8
Default
100
AcDbVertex
100
AcDb2dVertex
 10
79.45219629931869
 20
-0.3810629325012214
 30
0.0
  0
VERTEX
  5
373
330
344
100
AcDbEntity
  8
Default
100
AcDbVertex
100
AcDb2dVertex
 10
79.42524233015267
 20
-0.3630269023459314
 30
0.0
  0
VERTEX
  5
374
330
344
100
AcDbEntity
  8
Default
100
AcDbVertex
100
AcDb2dVertex
 10
79.3976883532412
 20
-0.3458567878348557
 30
0.0
  0
VERTEX
  5
375
330
344
100
AcDbEntity
  8
Default
100
AcDbVertex
100
AcDb2dVertex
 10
79.36957656548984
 20
-0.3295818279248082
 30
0.0
  0
VERTEX
  5
376
330
344
100
AcDbEntity
  8
Default
100
AcDbVertex
100
AcDb2dVertex
 10
79.34095101856903
 20
-0.3142284897165044
 30
0.0
  0
VERTEX
  5
377
330
344
100
AcDbEntity
  8
Default
100
AcDbVertex
100
AcDb2dVertex
 10
79.31185738913767
 20
-0.299820325278571
 30
0.0
  0
VERTEX
  5
378
330
344
100
AcDbEntity
  8
Default
100
AcDbVertex
100
AcDb2dVertex
 10
79.28234273623363
 20
-0.2863778514913797
 30
0.0
  0
VERTEX
  5
379
330
344
100
AcDbEntity
  8
Default
100
AcDbVertex
100
AcDb2dVertex
 10
79.25245524853314
 20
-0.2739184541943364
 30
0.0
  0
VERTEX
  5
37A
330
344
100
AcDbEntity
  8
Default
100
AcDbVertex
100
AcDb2dVertex
 10
79.22224398431673
 20
-0.2624563175581188
 30
0.0
  0
VERTEX
  5
37B
330
344
100
AcDbEntity
  8
Default
100
AcDbVertex
100
AcDb2dVertex
 10
79.19175860706328
 20
-0.2520023792264312
 30
0.0
  0
VERTEX
  5
37C
330
344
100
AcDbEntity
  8
Default
100
AcDbVertex
100
AcDb2dVertex
 10
79.1610491196205
 20
-0.2425643113891295
 30
0.0
  0
VERTEX
  5
37D
330
344
100
AcDbEntity
  8
Default
100
AcDbVertex
100
AcDb2dVertex
 10
79.1301655998725
 20
-0.2341465275690835
 30
0.0
  0
VERTEX
  5
37E
330
344
100
AcDbEntity
  8
Default
100
AcDbVertex
100
AcDb2dVertex
 10
79.09915794074219
 20
-0.2267502145376423
 30
0.0
  0
VERTEX
  5
37F
330
344
100
AcDbEntity
  8
Default
100
AcDbVertex
100
AcDb2dVertex
 10
79.06807559723471
 20
-0.2203733884262642
 30
0.0
  0
VERTEX
  5
380
330
344
100
AcDbEntity
  8
Default
100
AcDbVertex
100
AcDb2dVertex
 10
79.0369673430491
 20
-0.2150109737821047
 30
0.0
  0
VERTEX
  5
381
330
344
100
AcDbEntity
  8
Default
100
AcDbVertex
100
AcDb2dVertex
 10
79.00588103906765
 20
-0.2106549040294987
 30
0.0
  0
VERTEX
  5
382
330
344
100
AcDbEntity
  8
Default
100
AcDbVertex
100
AcDb2dVertex
 10
78.97486341577942
 20
-0.2072942415524227
 30
0.0
  0
VERTEX
  5
383
330
344
100
AcDbEntity
  8
Default
100
AcDbVertex
100
AcDb2dVertex
 10
78.94395987141722
 20
-0.2049153154090089
 30
0.0
  0
VERTEX
  5
384
330
344
100
AcDbEntity
  8
Default
100
AcDbVertex
100
AcDb2dVertex
 10
78.91321428728916
 20
-0.2035018745304432
 30
0.0
  0
VERTEX
  5
385
330
344
100
AcDbEntity
  8
Default
100
AcDbVertex
100
AcDb2dVertex
 10
78.88266886147844
 20
-0.2030352541441713
 30
0.0
  0
SEQEND
  5
386
330
344
100
AcDbEntity
  8
Default
  0
POLYLINE
  5
387
330
1F
100
AcDbEntity
  8
Default
100
AcDb2dPolyline
 66
     1
 10
0.0
 20
0.0
 30
0.0
  0
VERTEX
  5
388
330
387
100
AcDbEntity
  8
Default
100
AcDbVertex
100
AcDb2dVertex
 10
78.88266886147844
 20
-0.2030352541441713
 30
0.0
  0
VERTEX
  5
389
330
387
100
AcDbEntity
  8
Default
100
AcDbVertex
100
AcDb2dVertex
 10
66.08500241365583
 20
-0.2030352541440186
 30
0.0
  0
SEQEND
  5
38A
330
387
100
AcDbEntity
  8
Default
  0
POLYLINE
  5
38B
330
1F
100
AcDbEntity
  8
Default
100
AcDb2dPolyline
 66
     1
 10
0.0
 20
0.0
 30
0.0
  0
VERTEX
  5
38C
330
38B
100
AcDbEntity
  8
Default
100
AcDbVertex
100
AcDb2dVertex
 10
66.08500241365583
 20
-0.2030352541440186
 30
0.0
  0
VERTEX
  5
38D
330
38B
100
AcDbEntity
  8
Default
100
AcDbVertex
100
AcDb2dVertex
 10
65.91080528491068
 20
-0.2060706394667322
 30
0.0
  0
VERTEX
  5
38E
330
38B
100
AcDbEntity
  8
Default
100
AcDbVertex
100
AcDb2dVertex
 10
65.73681965832867
 20
-0.2151731100092449
 30
0.0
  0
VERTEX
  5
38F
330
38B
100
AcDbEntity
  8
Default
100
AcDbVertex
100
AcDb2dVertex
 10
65.56325677927671
 20
-0.2303316139693633
 30
0.0
  0
VERTEX
  5
390
330
38B
100
AcDbEntity
  8
Default
100
AcDbVertex
100
AcDb2dVertex
 10
65.39032737984108
 20
-0.2515277465869127
 30
0.0
  0
VERTEX
  5
391
330
38B
100
AcDbEntity
  8
Default
100
AcDbVertex
100
AcDb2dVertex
 10
65.21824142296612
 20
-0.2787357724899556
 30
0.0
  0
VERTEX
  5
392
330
38B
100
AcDbEntity
  8
Default
100
AcDbVertex
100
AcDb2dVertex
 10
65.04720784752693
 20
-0.3119226569414973
 30
0.0
  0
VERTEX
  5
393
330
38B
100
AcDbEntity
  8
Default
100
AcDbVertex
100
AcDb2dVertex
 10
64.87743431464536
 20
-0.3510481059487492
 30
0.0
  0
VERTEX
  5
394
330
38B
100
AcDbEntity
  8
Default
100
AcDbVertex
100
AcDb2dVertex
 10
64.70912695555734
 20
-0.3960646151862468
 30
0.0
  0
VERTEX
  5
395
330
38B
100
AcDbEntity
  8
Default
100
AcDbVertex
100
AcDb2dVertex
 10
64.54249012133788
 20
-0.4469175276734229
 30
0.0
  0
VERTEX
  5
396
330
38B
100
AcDbEntity
  8
Default
100
AcDbVertex
100
AcDb2dVertex
 10
64.37772613478731
 20
-0.5035451001366059
 30
0.0
  0
VERTEX
  5
397
330
38B
100
AcDbEntity
  8
Default
100
AcDbVertex
100
AcDb2dVertex
 10
64.2150350447802
 20
-0.5658785779748675
 30
0.0
  0
VERTEX
  5
398
330
38B
100
AcDbEntity
  8
Default
100
AcDbVertex
100
AcDb2dVertex
 10
64.05461438337528
 20
-0.6338422787387121
 30
0.0
  0
VERTEX
  5
399
330
38B
100
AcDbEntity
  8
Default
100
AcDbVertex
100
AcDb2dVertex
 10
63.89665892598097
 20
-0.7073536840202284
 30
0.0
  0
VERTEX
  5
39A
330
38B
100
AcDbEntity
  8
Default
100
AcDbVertex
100
AcDb2dVertex
 10
63.74136045486807
 20
-0.7863235396431594
 30
0.0
  0
VERTEX
  5
39B
330
38B
100
AcDbEntity
  8
Default
100
AcDbVertex
100
AcDb2dVertex
 10
63.58890752631652
 20
-0.8706559640312275
 30
0.0
  0
VERTEX
  5
39C
330
38B
100
AcDbEntity
  8
Default
100
AcDbVertex
100
AcDb2dVertex
 10
63.43948524167902
 20
-0.9602485646231459
 30
0.0
  0
VERTEX
  5
39D
330
38B
100
AcDbEntity
  8
Default
100
AcDbVertex
100
AcDb2dVertex
 10
63.29327502263945
 20
-1.054992562192971
 30
0.0
  0
VERTEX
  5
39E
330
38B
100
AcDbEntity
  8
Default
100
AcDbVertex
100
AcDb2dVertex
 10
63.15045439093895
 20
-1.154772922924846
 30
0.0
  0
VERTEX
  5
39F
330
38B
100
AcDbEntity
  8
Default
100
AcDbVertex
100
AcDb2dVertex
 10
63.01119675283724
 20
-1.259468498081789
 30
0.0
  0
VERTEX
  5
3A0
330
38B
100
AcDbEntity
  8
Default
100
AcDbVertex
100
AcDb2dVertex
 10
62.87567118857061
 20
-1.368952171098925
 30
0.0
  0
VERTEX
  5
3A1
330
38B
100
AcDbEntity
  8
Default
100
AcDbVertex
100
AcDb2dVertex
 10
62.74404224706251
 20
-1.483091011922593
 30
0.0
  0
VERTEX
  5
3A2
330
38B
100
AcDbEntity
  8
Default
100
AcDbVertex
100
AcDb2dVertex
 10
62.61646974613579
 20
-1.601746438407918
 30
0.0
  0
VERTEX
  5
3A3
330
38B
100
AcDbEntity
  8
Default
100
AcDbVertex
100
AcDb2dVertex
 10
62.49310857846922
 20
-1.724774384578895
 30
0.0
  0
SEQEND
  5
3A4
330
38B
100
AcDbEntity
  8
Default
  0
POLYLINE
  5
3A5
330
1F
100
AcDbEntity
  8
Default
100
AcDb2dPolyline
 66
     1
 10
0.0
 20
0.0
 30
0.0
  0
VERTEX
  5
3A6
330
3A5
100
AcDbEntity
  8
Default
100
AcDbVertex
100
AcDb2dVertex
 10
62.4931085784692
 20
-1.724774384578896
 30
0.0
  0
VERTEX
  5
3A7
330
3A5
100
AcDbEntity
  8
Default
100
AcDbVertex
100
AcDb2dVertex
 10
62.33255283380785
 20
-1.884890069186864
 30
0.0
  0
VERTEX
  5
3A8
330
3A5
100
AcDbEntity
  8
Default
100
AcDbVertex
100
AcDb2dVertex
 10
62.16651007792305
 20
-2.039308276725426
 30
0.0
  0
VERTEX
  5
3A9
330
3A5
100
AcDbEntity
  8
Default
100
AcDbVertex
100
AcDb2dVertex
 10
61.99518237278203
 20
-2.187841091457914
 30
0.0
  0
VERTEX
  5
3AA
330
3A5
100
AcDbEntity
  8
Default
100
AcDbVertex
100
AcDb2dVertex
 10
61.8187782117512
 20
-2.330307759742998
 30
0.0
  0
VERTEX
  5
3AB
330
3A5
100
AcDbEntity
  8
Default
100
AcDbVertex
100
AcDb2dVertex
 10
61.63751226587487
 20
-2.466534909998736
 30
0.0
  0
VERTEX
  5
3AC
330
3A5
100
AcDbEntity
  8
Default
100
AcDbVertex
100
AcDb2dVertex
 10
61.45160512263617
 20
-2.596356763683187
 30
0.0
  0
VERTEX
  5
3AD
330
3A5
100
AcDbEntity
  8
Default
100
AcDbVertex
100
AcDb2dVertex
 10
61.26128301751815
 20
-2.719615337034854
 30
0.0
  0
VERTEX
  5
3AE
330
3A5
100
AcDbEntity
  8
Default
100
AcDbVertex
100
AcDb2dVertex
 10
61.06677755869163
 20
-2.836160633327432
 30
0.0
  0
VERTEX
  5
3AF
330
3A5
100
AcDbEntity
  8
Default
100
AcDbVertex
100
AcDb2dVertex
 10
60.86832544516486
 20
-2.945850825404934
 30
0.0
  0
VERTEX
  5
3B0
330
3A5
100
AcDbEntity
  8
Default
100
AcDbVertex
100
AcDb2dVertex
 10
60.66616817873805
 20
-3.048552428275022
 30
0.0
  0
VERTEX
  5
3B1
330
3A5
100
AcDbEntity
  8
Default
100
AcDbVertex
100
AcDb2dVertex
 10
60.46055177011326
 20
-3.144140461550552
 30
0.0
  0
VERTEX
  5
3B2
330
3A5
100
AcDbEntity
  8
Default
100
AcDbVertex
100
AcDb2dVertex
 10
60.25172643951718
 20
-3.232498601541616
 30
0.0
  0
VERTEX
  5
3B3
330
3A5
100
AcDbEntity
  8
Default
100
AcDbVertex
100
AcDb2dVertex
 10
60.03994631220137
 20
-3.313519322813023
 30
0.0
  0
VERTEX
  5
3B4
330
3A5
100
AcDbEntity
  8
Default
100
AcDbVertex
100
AcDb2dVertex
 10
59.82546910919024
 20
-3.387104029034935
 30
0.0
  0
VERTEX
  5
3B5
330
3A5
100
AcDbEntity
  8
Default
100
AcDbVertex
100
AcDb2dVertex
 10
59.60855583365334
 20
-3.453163172967441
 30
0.0
  0
VERTEX
  5
3B6
330
3A5
100
AcDbEntity
  8
Default
100
AcDbVertex
100
AcDb2dVertex
 10
59.38947045328345
 20
-3.511616365433034
 30
0.0
  0
VERTEX
  5
3B7
330
3A5
100
AcDbEntity
  8
Default
100
AcDbVertex
100
AcDb2dVertex
 10
59.16847957906705
 20
-3.562392473144404
 30
0.0
  0
VERTEX
  5
3B8
330
3A5
100
AcDbEntity
  8
Default
100
AcDbVertex
100
AcDb2dVertex
 10
58.94585214083821
 20
-3.605429705268476
 30
0.0
  0
VERTEX
  5
3B9
330
3A5
100
AcDbEntity
  8
Default
100
AcDbVertex
100
AcDb2dVertex
 10
58.7218590600104
 20
-3.640675688621364
 30
0.0
  0
VERTEX
  5
3BA
330
3A5
100
AcDbEntity
  8
Default
100
AcDbVertex
100
AcDb2dVertex
 10
58.49677291988496
 20
-3.668087531402728
 30
0.0
  0
VERTEX
  5
3BB
330
3A5
100
AcDbEntity
  8
Default
100
AcDbVertex
100
AcDb2dVertex
 10
58.2708676339369
 20
-3.687631875391981
 30
0.0
  0
VERTEX
  5
3BC
330
3A5
100
AcDbEntity
  8
Default
100
AcDbVertex
100
AcDb2dVertex
 10
58.04441811248223
 20
-3.699284936542819
 30
0.0
  0
VERTEX
  5
3BD
330
3A5
100
AcDbEntity
  8
Default
100
AcDbVertex
100
AcDb2dVertex
 10
57.81769992813194
 20
-3.703032533926673
 30
0.0
  0
VERTEX
  5
3BE
330
3A5
100
AcDbEntity
  8
Default
100
AcDbVertex
100
AcDb2dVertex
 10
57.5909889804403
 20
-3.698870106989876
 30
0.0
  0
VERTEX
  5
3BF
330
3A5
100
AcDbEntity
  8
Default
100
AcDbVertex
100
AcDb2dVertex
 10
57.36456116015509
 20
-3.686802721103513
 30
0.0
  0
VERTEX
  5
3C0
330
3A5
100
AcDbEntity
  8
Default
100
AcDbVertex
100
AcDb2dVertex
 10
57.1386920134786
 20
-3.666845061399247
 30
0.0
  0
VERTEX
  5
3C1
330
3A5
100
AcDbEntity
  8
Default
100
AcDbVertex
100
AcDb2dVertex
 10
56.9136564067479
 20
-3.639021414898573
 30
0.0
  0
VERTEX
  5
3C2
330
3A5
100
AcDbEntity
  8
Default
100
AcDbVertex
100
AcDb2dVertex
 10
56.68972819194261
 20
-3.603365640957276
 30
0.0
  0
VERTEX
  5
3C3
330
3A5
100
AcDbEntity
  8
Default
100
AcDbVertex
100
AcDb2dVertex
 10
56.46717987342677
 20
-3.559921130061061
 30
0.0
  0
VERTEX
  5
3C4
330
3A5
100
AcDbEntity
  8
Default
100
AcDbVertex
100
AcDb2dVertex
 10
56.24628227633094
 20
-3.508740751022482
 30
0.0
  0
VERTEX
  5
3C5
330
3A5
100
AcDbEntity
  8
Default
100
AcDbVertex
100
AcDb2dVertex
 10
56.0273042169777
 20
-3.449886786643442
 30
0.0
  0
VERTEX
  5
3C6
330
3A5
100
AcDbEntity
  8
Default
100
AcDbVertex
100
AcDb2dVertex
 10
55.81051217575165
 20
-3.383430857921542
 30
0.0
  0
VERTEX
  5
3C7
330
3A5
100
AcDbEntity
  8
Default
100
AcDbVertex
100
AcDb2dVertex
 10
55.59616997281225
 20
-3.309453836892545
 30
0.0
  0
VERTEX
  5
3C8
330
3A5
100
AcDbEntity
  8
Default
100
AcDbVertex
100
AcDb2dVertex
 10
55.38453844704375
 20
-3.228045748214969
 30
0.0
  0
VERTEX
  5
3C9
330
3A5
100
AcDbEntity
  8
Default
100
AcDbVertex
100
AcDb2dVertex
 10
55.17587513863328
 20
-3.139305659616637
 30
0.0
  0
VERTEX
  5
3CA
330
3A5
100
AcDbEntity
  8
Default
100
AcDbVertex
100
AcDb2dVertex
 10
54.97043397566317
 20
-3.043341561336436
 30
0.0
  0
VERTEX
  5
3CB
330
3A5
100
AcDbEntity
  8
Default
100
AcDbVertex
100
AcDb2dVertex
 10
54.76846496509891
 20
-2.940270234708058
 30
0.0
  0
VERTEX
  5
3CC
330
3A5
100
AcDbEntity
  8
Default
100
AcDbVertex
100
AcDb2dVertex
 10
54.57021388854882
 20
-2.83021711004559
 30
0.0
  0
VERTEX
  5
3CD
330
3A5
100
AcDbEntity
  8
Default
100
AcDbVertex
100
AcDb2dVertex
 10
54.37592200316573
 20
-2.713316114003951
 30
0.0
  0
VERTEX
  5
3CE
330
3A5
100
AcDbEntity
  8
Default
100
AcDbVertex
100
AcDb2dVertex
 10
54.18582574805455
 20
-2.589709506599874
 30
0.0
  0
VERTEX
  5
3CF
330
3A5
100
AcDbEntity
  8
Default
100
AcDbVertex
100
AcDb2dVertex
 10
54.00015645654304
 20
-2.459547708091812
 30
0.0
  0
VERTEX
  5
3D0
330
3A5
100
AcDbEntity
  8
Default
100
AcDbVertex
100
AcDb2dVertex
 10
53.81914007466597
 20
-2.322989115929408
 30
0.0
  0
VERTEX
  5
3D1
330
3A5
100
AcDbEntity
  8
Default
100
AcDbVertex
100
AcDb2dVertex
 10
53.64299688620525
 20
-2.18019991199532
 30
0.0
  0
VERTEX
  5
3D2
330
3A5
100
AcDbEntity
  8
Default
100
AcDbVertex
100
AcDb2dVertex
 10
53.47194124462051
 20
-2.031353860373932
 30
0.0
  0
VERTEX
  5
3D3
330
3A5
100
AcDbEntity
  8
Default
100
AcDbVertex
100
AcDb2dVertex
 10
53.3061813121966
 20
-1.876632095893104
 30
0.0
  0
VERTEX
  5
3D4
330
3A5
100
AcDbEntity
  8
Default
100
AcDbVertex
100
AcDb2dVertex
 10
53.14591880672513
 20
-1.716222903696244
 30
0.0
  0
VERTEX
  5
3D5
330
3A5
100
AcDbEntity
  8
Default
100
AcDbVertex
100
AcDb2dVertex
 10
52.99134875602863
 20
-1.550321490112976
 30
0.0
  0
VERTEX
  5
3D6
330
3A5
100
AcDbEntity
  8
Default
100
AcDbVertex
100
AcDb2dVertex
 10
52.84265926062589
 20
-1.379129745107214
 30
0.0
  0
VERTEX
  5
3D7
330
3A5
100
AcDbEntity
  8
Default
100
AcDbVertex
100
AcDb2dVertex
 10
52.7000312648272
 20
-1.202855996591756
 30
0.0
  0
VERTEX
  5
3D8
330
3A5
100
AcDbEntity
  8
Default
100
AcDbVertex
100
AcDb2dVertex
 10
52.56363833653837
 20
-1.021714756908353
 30
0.0
  0
VERTEX
  5
3D9
330
3A5
100
AcDbEntity
  8
Default
100
AcDbVertex
100
AcDb2dVertex
 10
52.43364645604116
 20
-0.8359264617817717
 30
0.0
  0
VERTEX
  5
3DA
330
3A5
100
AcDbEntity
  8
Default
100
AcDbVertex
100
AcDb2dVertex
 10
52.31021381400735
 20
-0.6457172020655491
 30
0.0
  0
VERTEX
  5
3DB
330
3A5
100
AcDbEntity
  8
Default
100
AcDbVertex
100
AcDb2dVertex
 10
52.19349061899216
 20
-0.4513184486058357
 30
0.0
  0
VERTEX
  5
3DC
330
3A5
100
AcDbEntity
  8
Default
100
AcDbVertex
100
AcDb2dVertex
 10
52.08361891464142
 20
-0.2529667705582224
 30
0.0
  0
VERTEX
  5
3DD
330
3A5
100
AcDbEntity
  8
Default
100
AcDbVertex
100
AcDb2dVertex
 10
51.9807324068347
 20
-0.0509035475002415
 30
0.0
  0
VERTEX
  5
3DE
330
3A5
100
AcDbEntity
  8
Default
100
AcDbVertex
100
AcDb2dVertex
 10
51.88495630097501
 20
0.1546253243100129
 30
0.0
  0
VERTEX
  5
3DF
330
3A5
100
AcDbEntity
  8
Default
100
AcDbVertex
100
AcDb2dVertex
 10
51.79640714962294
 20
0.3633697311717761
 30
0.0
  0
VERTEX
  5
3E0
330
3A5
100
AcDbEntity
  8
Default
100
AcDbVertex
100
AcDb2dVertex
 10
51.71519271066062
 20
0.5750756463118005
 30
0.0
  0
VERTEX
  5
3E1
330
3A5
100
AcDbEntity
  8
Default
100
AcDbVertex
100
AcDb2dVertex
 10
51.64141181615823
 20
0.7894854390164943
 30
0.0
  0
VERTEX
  5
3E2
330
3A5
100
AcDbEntity
  8
Default
100
AcDbVertex
100
AcDb2dVertex
 10
51.57515425210256
 20
1.006338188149751
 30
0.0
  0
VERTEX
  5
3E3
330
3A5
100
AcDbEntity
  8
Default
100
AcDbVertex
100
AcDb2dVertex
 10
51.516500649134
 20
1.225369999675038
 30
0.0
  0
VERTEX
  5
3E4
330
3A5
100
AcDbEntity
  8
Default
100
AcDbVertex
100
AcDb2dVertex
 10
51.46552238442488
 20
1.446314327795241
 30
0.0
  0
VERTEX
  5
3E5
330
3A5
100
AcDbEntity
  8
Default
100
AcDbVertex
100
AcDb2dVertex
 10
51.42228149481863
 20
1.668902299319543
 30
0.0
  0
VERTEX
  5
3E6
330
3A5
100
AcDbEntity
  8
Default
100
AcDbVertex
100
AcDb2dVertex
 10
51.38683060133553
 20
1.892863040862542
 30
0.0
  0
VERTEX
  5
3E7
330
3A5
100
AcDbEntity
  8
Default
100
AcDbVertex
100
AcDb2dVertex
 10
51.35921284513661
 20
2.117924008477496
 30
0.0
  0
VERTEX
  5
3E8
330
3A5
100
AcDbEntity
  8
Default
100
AcDbVertex
100
AcDb2dVertex
 10
51.33946183502415
 20
2.343811319322481
 30
0.0
  0
VERTEX
  5
3E9
330
3A5
100
AcDbEntity
  8
Default
100
AcDbVertex
100
AcDb2dVertex
 10
51.32760160654211
 20
2.570250084955918
 30
0.0
  0
VERTEX
  5
3EA
330
3A5
100
AcDbEntity
  8
Default
100
AcDbVertex
100
AcDb2dVertex
 10
51.32364659272663
 20
2.796964745855831
 30
0.0
  0
VERTEX
  5
3EB
330
3A5
100
AcDbEntity
  8
Default
100
AcDbVertex
100
AcDb2dVertex
 10
51.3276016065421
 20
3.02367940675574
 30
0.0
  0
VERTEX
  5
3EC
330
3A5
100
AcDbEntity
  8
Default
100
AcDbVertex
100
AcDb2dVertex
 10
51.33946183502415
 20
3.250118172389179
 30
0.0
  0
VERTEX
  5
3ED
330
3A5
100
AcDbEntity
  8
Default
100
AcDbVertex
100
AcDb2dVertex
 10
51.35921284513661
 20
3.476005483234166
 30
0.0
  0
VERTEX
  5
3EE
330
3A5
100
AcDbEntity
  8
Default
100
AcDbVertex
100
AcDb2dVertex
 10
51.38683060133553
 20
3.701066450849119
 30
0.0
  0
VERTEX
  5
3EF
330
3A5
100
AcDbEntity
  8
Default
100
AcDbVertex
100
AcDb2dVertex
 10
51.42228149481864
 20
3.925027192392119
 30
0.0
  0
VERTEX
  5
3F0
330
3A5
100
AcDbEntity
  8
Default
100
AcDbVertex
100
AcDb2dVertex
 10
51.46552238442488
 20
4.147615163916418
 30
0.0
  0
VERTEX
  5
3F1
330
3A5
100
AcDbEntity
  8
Default
100
AcDbVertex
100
AcDb2dVertex
 10
51.516500649134
 20
4.368559492036624
 30
0.0
  0
VERTEX
  5
3F2
330
3A5
100
AcDbEntity
  8
Default
100
AcDbVertex
100
AcDb2dVertex
 10
51.57515425210256
 20
4.58759130356191
 30
0.0
  0
VERTEX
  5
3F3
330
3A5
100
AcDbEntity
  8
Default
100
AcDbVertex
100
AcDb2dVertex
 10
51.64141181615822
 20
4.804444052695167
 30
0.0
  0
VERTEX
  5
3F4
330
3A5
100
AcDbEntity
  8
Default
100
AcDbVertex
100
AcDb2dVertex
 10
51.71519271066061
 20
5.018853845399859
 30
0.0
  0
VERTEX
  5
3F5
330
3A5
100
AcDbEntity
  8
Default
100
AcDbVertex
100
AcDb2dVertex
 10
51.79640714962294
 20
5.230559760539887
 30
0.0
  0
VERTEX
  5
3F6
330
3A5
100
AcDbEntity
  8
Default
100
AcDbVertex
100
AcDb2dVertex
 10
51.88495630097501
 20
5.439304167401649
 30
0.0
  0
VERTEX
  5
3F7
330
3A5
100
AcDbEntity
  8
Default
100
AcDbVertex
100
AcDb2dVertex
 10
51.9807324068347
 20
5.644833039211903
 30
0.0
  0
VERTEX
  5
3F8
330
3A5
100
AcDbEntity
  8
Default
100
AcDbVertex
100
AcDb2dVertex
 10
52.08361891464142
 20
5.846896262269882
 30
0.0
  0
VERTEX
  5
3F9
330
3A5
100
AcDbEntity
  8
Default
100
AcDbVertex
100
AcDb2dVertex
 10
52.19349061899216
 20
6.045247940317497
 30
0.0
  0
VERTEX
  5
3FA
330
3A5
100
AcDbEntity
  8
Default
100
AcDbVertex
100
AcDb2dVertex
 10
52.31021381400735
 20
6.239646693777209
 30
0.0
  0
VERTEX
  5
3FB
330
3A5
100
AcDbEntity
  8
Default
100
AcDbVertex
100
AcDb2dVertex
 10
52.43364645604116
 20
6.429855953493432
 30
0.0
  0
VERTEX
  5
3FC
330
3A5
100
AcDbEntity
  8
Default
100
AcDbVertex
100
AcDb2dVertex
 10
52.56363833653837
 20
6.615644248620012
 30
0.0
  0
VERTEX
  5
3FD
330
3A5
100
AcDbEntity
  8
Default
100
AcDbVertex
100
AcDb2dVertex
 10
52.7000312648272
 20
6.796785488303415
 30
0.0
  0
VERTEX
  5
3FE
330
3A5
100
AcDbEntity
  8
Default
100
AcDbVertex
100
AcDb2dVertex
 10
52.84265926062589
 20
6.973059236818875
 30
0.0
  0
VERTEX
  5
3FF
330
3A5
100
AcDbEntity
  8
Default
100
AcDbVertex
100
AcDb2dVertex
 10
52.99134875602864
 20
7.144250981824636
 30
0.0
  0
VERTEX
  5
400
330
3A5
100
AcDbEntity
  8
Default
100
AcDbVertex
100
AcDb2dVertex
 10
53.14591880672512
 20
7.310152395407906
 30
0.0
  0
VERTEX
  5
401
330
3A5
100
AcDbEntity
  8
Default
100
AcDbVertex
100
AcDb2dVertex
 10
53.30618131219659
 20
7.470561587604764
 30
0.0
  0
VERTEX
  5
402
330
3A5
100
AcDbEntity
  8
Default
100
AcDbVertex
100
AcDb2dVertex
 10
53.4719412446205
 20
7.625283352085593
 30
0.0
  0
VERTEX
  5
403
330
3A5
100
AcDbEntity
  8
Default
100
AcDbVertex
100
AcDb2dVertex
 10
53.64299688620525
 20
7.774129403706981
 30
0.0
  0
VERTEX
  5
404
330
3A5
100
AcDbEntity
  8
Default
100
AcDbVertex
100
AcDb2dVertex
 10
53.81914007466597
 20
7.916918607641071
 30
0.0
  0
VERTEX
  5
405
330
3A5
100
AcDbEntity
  8
Default
100
AcDbVertex
100
AcDb2dVertex
 10
54.00015645654303
 20
8.053477199803474
 30
0.0
  0
VERTEX
  5
406
330
3A5
100
AcDbEntity
  8
Default
100
AcDbVertex
100
AcDb2dVertex
 10
54.18582574805455
 20
8.183638998311535
 30
0.0
  0
VERTEX
  5
407
330
3A5
100
AcDbEntity
  8
Default
100
AcDbVertex
100
AcDb2dVertex
 10
54.37592200316573
 20
8.307245605715613
 30
0.0
  0
VERTEX
  5
408
330
3A5
100
AcDbEntity
  8
Default
100
AcDbVertex
100
AcDb2dVertex
 10
54.57021388854882
 20
8.424146601757252
 30
0.0
  0
VERTEX
  5
409
330
3A5
100
AcDbEntity
  8
Default
100
AcDbVertex
100
AcDb2dVertex
 10
54.76846496509891
 20
8.534199726419718
 30
0.0
  0
VERTEX
  5
40A
330
3A5
100
AcDbEntity
  8
Default
100
AcDbVertex
100
AcDb2dVertex
 10
54.97043397566317
 20
8.637271053048098
 30
0.0
  0
VERTEX
  5
40B
330
3A5
100
AcDbEntity
  8
Default
100
AcDbVertex
100
AcDb2dVertex
 10
55.17587513863328
 20
8.733235151328302
 30
0.0
  0
VERTEX
  5
40C
330
3A5
100
AcDbEntity
  8
Default
100
AcDbVertex
100
AcDb2dVertex
 10
55.38453844704375
 20
8.821975239926633
 30
0.0
  0
VERTEX
  5
40D
330
3A5
100
AcDbEntity
  8
Default
100
AcDbVertex
100
AcDb2dVertex
 10
55.59616997281225
 20
8.903383328604207
 30
0.0
  0
VERTEX
  5
40E
330
3A5
100
AcDbEntity
  8
Default
100
AcDbVertex
100
AcDb2dVertex
 10
55.81051217575165
 20
8.977360349633205
 30
0.0
  0
VERTEX
  5
40F
330
3A5
100
AcDbEntity
  8
Default
100
AcDbVertex
100
AcDb2dVertex
 10
56.0273042169777
 20
9.043816278355106
 30
0.0
  0
VERTEX
  5
410
330
3A5
100
AcDbEntity
  8
Default
100
AcDbVertex
100
AcDb2dVertex
 10
56.24628227633094
 20
9.102670242734147
 30
0.0
  0
VERTEX
  5
411
330
3A5
100
AcDbEntity
  8
Default
100
AcDbVertex
100
AcDb2dVertex
 10
56.46717987342677
 20
9.153850621772722
 30
0.0
  0
VERTEX
  5
412
330
3A5
100
AcDbEntity
  8
Default
100
AcDbVertex
100
AcDb2dVertex
 10
56.68972819194261
 20
9.197295132668938
 30
0.0
  0
VERTEX
  5
413
330
3A5
100
AcDbEntity
  8
Default
100
AcDbVertex
100
AcDb2dVertex
 10
56.9136564067479
 20
9.232950906610236
 30
0.0
  0
VERTEX
  5
414
330
3A5
100
AcDbEntity
  8
Default
100
AcDbVertex
100
AcDb2dVertex
 10
57.1386920134786
 20
9.260774553110911
 30
0.0
  0
VERTEX
  5
415
330
3A5
100
AcDbEntity
  8
Default
100
AcDbVertex
100
AcDb2dVertex
 10
57.36456116015509
 20
9.280732212815177
 30
0.0
  0
VERTEX
  5
416
330
3A5
100
AcDbEntity
  8
Default
100
AcDbVertex
100
AcDb2dVertex
 10
57.5909889804403
 20
9.292799598701539
 30
0.0
  0
VERTEX
  5
417
330
3A5
100
AcDbEntity
  8
Default
100
AcDbVertex
100
AcDb2dVertex
 10
57.81769992813193
 20
9.296962025638338
 30
0.0
  0
VERTEX
  5
418
330
3A5
100
AcDbEntity
  8
Default
100
AcDbVertex
100
AcDb2dVertex
 10
58.04441811248222
 20
9.293214428254483
 30
0.0
  0
VERTEX
  5
419
330
3A5
100
AcDbEntity
  8
Default
100
AcDbVertex
100
AcDb2dVertex
 10
58.2708676339369
 20
9.281561367103645
 30
0.0
  0
VERTEX
  5
41A
330
3A5
100
AcDbEntity
  8
Default
100
AcDbVertex
100
AcDb2dVertex
 10
58.49677291988495
 20
9.262017023114392
 30
0.0
  0
VERTEX
  5
41B
330
3A5
100
AcDbEntity
  8
Default
100
AcDbVertex
100
AcDb2dVertex
 10
58.7218590600104
 20
9.234605180333027
 30
0.0
  0
VERTEX
  5
41C
330
3A5
100
AcDbEntity
  8
Default
100
AcDbVertex
100
AcDb2dVertex
 10
58.94585214083821
 20
9.19935919698014
 30
0.0
  0
VERTEX
  5
41D
330
3A5
100
AcDbEntity
  8
Default
100
AcDbVertex
100
AcDb2dVertex
 10
59.16847957906705
 20
9.156321964856069
 30
0.0
  0
VERTEX
  5
41E
330
3A5
100
AcDbEntity
  8
Default
100
AcDbVertex
100
AcDb2dVertex
 10
59.38947045328344
 20
9.105545857144698
 30
0.0
  0
VERTEX
  5
41F
330
3A5
100
AcDbEntity
  8
Default
100
AcDbVertex
100
AcDb2dVertex
 10
59.60855583365334
 20
9.047092664679104
 30
0.0
  0
VERTEX
  5
420
330
3A5
100
AcDbEntity
  8
Default
100
AcDbVertex
100
AcDb2dVertex
 10
59.82546910919024
 20
8.9810335207466
 30
0.0
  0
VERTEX
  5
421
330
3A5
100
AcDbEntity
  8
Default
100
AcDbVertex
100
AcDb2dVertex
 10
60.03994631220137
 20
8.907448814524688
 30
0.0
  0
VERTEX
  5
422
330
3A5
100
AcDbEntity
  8
Default
100
AcDbVertex
100
AcDb2dVertex
 10
60.25172643951718
 20
8.82642809325328
 30
0.0
  0
VERTEX
  5
423
330
3A5
100
AcDbEntity
  8
Default
100
AcDbVertex
100
AcDb2dVertex
 10
60.46055177011326
 20
8.738069953262219
 30
0.0
  0
VERTEX
  5
424
330
3A5
100
AcDbEntity
  8
Default
100
AcDbVertex
100
AcDb2dVertex
 10
60.66616817873806
 20
8.642481919986686
 30
0.0
  0
VERTEX
  5
425
330
3A5
100
AcDbEntity
  8
Default
100
AcDbVertex
100
AcDb2dVertex
 10
60.86832544516486
 20
8.539780317116598
 30
0.0
  0
VERTEX
  5
426
330
3A5
100
AcDbEntity
  8
Default
100
AcDbVertex
100
AcDb2dVertex
 10
61.06677755869163
 20
8.430090125039097
 30
0.0
  0
VERTEX
  5
427
330
3A5
100
AcDbEntity
  8
Default
100
AcDbVertex
100
AcDb2dVertex
 10
61.26128301751815
 20
8.313544828746519
 30
0.0
  0
VERTEX
  5
428
330
3A5
100
AcDbEntity
  8
Default
100
AcDbVertex
100
AcDb2dVertex
 10
61.45160512263617
 20
8.190286255394852
 30
0.0
  0
VERTEX
  5
429
330
3A5
100
AcDbEntity
  8
Default
100
AcDbVertex
100
AcDb2dVertex
 10
61.63751226587487
 20
8.060464401710401
 30
0.0
  0
VERTEX
  5
42A
330
3A5
100
AcDbEntity
  8
Default
100
AcDbVertex
100
AcDb2dVertex
 10
61.8187782117512
 20
7.924237251454665
 30
0.0
  0
VERTEX
  5
42B
330
3A5
100
AcDbEntity
  8
Default
100
AcDbVertex
100
AcDb2dVertex
 10
61.99518237278203
 20
7.781770583169581
 30
0.0
  0
VERTEX
  5
42C
330
3A5
100
AcDbEntity
  8
Default
100
AcDbVertex
100
AcDb2dVertex
 10
62.16651007792304
 20
7.633237768437093
 30
0.0
  0
VERTEX
  5
42D
330
3A5
100
AcDbEntity
  8
Default
100
AcDbVertex
100
AcDb2dVertex
 10
62.33255283380785
 20
7.478819560898527
 30
0.0
  0
VERTEX
  5
42E
330
3A5
100
AcDbEntity
  8
Default
100
AcDbVertex
100
AcDb2dVertex
 10
62.4931085784692
 20
7.318703876290561
 30
0.0
  0
SEQEND
  5
42F
330
3A5
100
AcDbEntity
  8
Default
  0
POLYLINE
  5
430
330
1F
100
AcDbEntity
  8
Default
100
AcDb2dPolyline
 66
     1
 10
0.0
 20
0.0
 30
0.0
  0
VERTEX
  5
431
330
430
100
AcDbEntity
  8
Default
100
AcDbVertex
100
AcDb2dVertex
 10
62.4931085784692
 20
7.318703876290559
 30
0.0
  0
VERTEX
  5
432
330
430
100
AcDbEntity
  8
Default
100
AcDbVertex
100
AcDb2dVertex
 10
62.61646974613578
 20
7.195675930119605
 30
0.0
  0
VERTEX
  5
433
330
430
100
AcDbEntity
  8
Default
100
AcDbVertex
100
AcDb2dVertex
 10
62.74404224706249
 20
7.077020503634301
 30
0.0
  0
VERTEX
  5
434
330
430
100
AcDbEntity
  8
Default
100
AcDbVertex
100
AcDb2dVertex
 10
62.87567118857058
 20
6.962881662810654
 30
0.0
  0
VERTEX
  5
435
330
430
100
AcDbEntity
  8
Default
100
AcDbVertex
100
AcDb2dVertex
 10
63.01119675283719
 20
6.853397989793538
 30
0.0
  0
VERTEX
  5
436
330
430
100
AcDbEntity
  8
Default
100
AcDbVertex
100
AcDb2dVertex
 10
63.1504543909389
 20
6.748702414636613
 30
0.0
  0
VERTEX
  5
437
330
430
100
AcDbEntity
  8
Default
100
AcDbVertex
100
AcDb2dVertex
 10
63.29327502263938
 20
6.648922053904755
 30
0.0
  0
VERTEX
  5
438
330
430
100
AcDbEntity
  8
Default
100
AcDbVertex
100
AcDb2dVertex
 10
63.43948524167894
 20
6.554178056334947
 30
0.0
  0
VERTEX
  5
439
330
430
100
AcDbEntity
  8
Default
100
AcDbVertex
100
AcDb2dVertex
 10
63.58890752631643
 20
6.464585455743045
 30
0.0
  0
VERTEX
  5
43A
330
430
100
AcDbEntity
  8
Default
100
AcDbVertex
100
AcDb2dVertex
 10
63.74136045486795
 20
6.380253031354991
 30
0.0
  0
VERTEX
  5
43B
330
430
100
AcDbEntity
  8
Default
100
AcDbVertex
100
AcDb2dVertex
 10
63.89665892598083
 20
6.301283175732072
 30
0.0
  0
VERTEX
  5
43C
330
430
100
AcDbEntity
  8
Default
100
AcDbVertex
100
AcDb2dVertex
 10
64.05461438337514
 20
6.227771770450569
 30
0.0
  0
VERTEX
  5
43D
330
430
100
AcDbEntity
  8
Default
100
AcDbVertex
100
AcDb2dVertex
 10
64.21503504478004
 20
6.159808069686735
 30
0.0
  0
VERTEX
  5
43E
330
430
100
AcDbEntity
  8
Default
100
AcDbVertex
100
AcDb2dVertex
 10
64.37772613478712
 20
6.097474591848482
 30
0.0
  0
VERTEX
  5
43F
330
430
100
AcDbEntity
  8
Default
100
AcDbVertex
100
AcDb2dVertex
 10
64.54249012133768
 20
6.040847019385308
 30
0.0
  0
VERTEX
  5
440
330
430
100
AcDbEntity
  8
Default
100
AcDbVertex
100
AcDb2dVertex
 10
64.70912695555712
 20
5.989994106898139
 30
0.0
  0
VERTEX
  5
441
330
430
100
AcDbEntity
  8
Default
100
AcDbVertex
100
AcDb2dVertex
 10
64.87743431464511
 20
5.944977597660647
 30
0.0
  0
VERTEX
  5
442
330
430
100
AcDbEntity
  8
Default
100
AcDbVertex
100
AcDb2dVertex
 10
65.04720784752668
 20
5.905852148653399
 30
0.0
  0
VERTEX
  5
443
330
430
100
AcDbEntity
  8
Default
100
AcDbVertex
100
AcDb2dVertex
 10
65.21824142296583
 20
5.872665264201861
 30
0.0
  0
VERTEX
  5
444
330
430
100
AcDbEntity
  8
Default
100
AcDbVertex
100
AcDb2dVertex
 10
65.39032737984078
 20
5.845457238298819
 30
0.0
  0
VERTEX
  5
445
330
430
100
AcDbEntity
  8
Default
100
AcDbVertex
100
AcDb2dVertex
 10
65.5632567792764
 20
5.82426110568127
 30
0.0
  0
VERTEX
  5
446
330
430
100
AcDbEntity
  8
Default
100
AcDbVertex
100
AcDb2dVertex
 10
65.73681965832833
 20
5.80910260172115
 30
0.0
  0
VERTEX
  5
447
330
430
100
AcDbEntity
  8
Default
100
AcDbVertex
100
AcDb2dVertex
 10
65.91080528491031
 20
5.800000131178634
 30
0.0
  0
VERTEX
  5
448
330
430
100
AcDbEntity
  8
Default
100
AcDbVertex
100
AcDb2dVertex
 10
66.08500241365545
 20
5.796964745855917
 30
0.0
  0
SEQEND
  5
449
330
430
100
AcDbEntity
  8
Default
  0
POLYLINE
  5
44A
330
1F
100
AcDbEntity
  8
Default
100
AcDb2dPolyline
 66
     1
 10
0.0
 20
0.0
 30
0.0
  0
VERTEX
  5
44B
330
44A
100
AcDbEntity
  8
Default
100
AcDbVertex
100
AcDb2dVertex
 10
66.08500241365545
 20
5.796964745855917
 30
0.0
  0
VERTEX
  5
44C
330
44A
100
AcDbEntity
  8
Default
100
AcDbVertex
100
AcDb2dVertex
 10
78.88266891605241
 20
5.796964745855789
 30
0.0
  0
SEQEND
  5
44D
330
44A
100
AcDbEntity
  8
Default
  0
POLYLINE
  5
44E
330
1F
100
AcDbEntity
  8
Default
100
AcDb2dPolyline
 66
     1
 10
0.0
 20
0.0
 30
0.0
  0
VERTEX
  5
44F
330
44E
100
AcDbEntity
  8
Default
100
AcDbVertex
100
AcDb2dVertex
 10
78.88266891605241
 20
5.796964745855789
 30
0.0
  0
VERTEX
  5
450
330
44E
100
AcDbEntity
  8
Default
100
AcDbVertex
100
AcDb2dVertex
 10
78.91321434166714
 20
5.797431366236075
 30
0.0
  0
VERTEX
  5
451
330
44E
100
AcDbEntity
  8
Default
100
AcDbVertex
100
AcDb2dVertex
 10
78.94395992559514
 20
5.798844807096314
 30
0.0
  0
VERTEX
  5
452
330
44E
100
AcDbEntity
  8
Default
100
AcDbVertex
100
AcDb2dVertex
 10
78.97486346975404
 20
5.801223733208555
 30
0.0
  0
VERTEX
  5
453
330
44E
100
AcDbEntity
  8
Default
100
AcDbVertex
100
AcDb2dVertex
 10
79.00588109283655
 20
5.804584395641172
 30
0.0
  0
VERTEX
  5
454
330
44E
100
AcDbEntity
  8
Default
100
AcDbVertex
100
AcDb2dVertex
 10
79.03696739661079
 20
5.808940465335649
 30
0.0
  0
VERTEX
  5
455
330
44E
100
AcDbEntity
  8
Default
100
AcDbVertex
100
AcDb2dVertex
 10
79.06807565058861
 20
5.8143028799077
 30
0.0
  0
VERTEX
  5
456
330
44E
100
AcDbEntity
  8
Default
100
AcDbVertex
100
AcDb2dVertex
 10
79.09915799388877
 20
5.820679705932761
 30
0.0
  0
VERTEX
  5
457
330
44E
100
AcDbEntity
  8
Default
100
AcDbVertex
100
AcDb2dVertex
 10
79.13016565281323
 20
5.828076018863531
 30
0.0
  0
VERTEX
  5
458
330
44E
100
AcDbEntity
  8
Default
100
AcDbVertex
100
AcDb2dVertex
 10
79.1610491723579
 20
5.836493802568486
 30
0.0
  0
VERTEX
  5
459
330
44E
100
AcDbEntity
  8
Default
100
AcDbVertex
100
AcDb2dVertex
 10
79.191758659601
 20
5.845931870276306
 30
0.0
  0
VERTEX
  5
45A
330
44E
100
AcDbEntity
  8
Default
100
AcDbVertex
100
AcDb2dVertex
 10
79.22224403665946
 20
5.856385808464241
 30
0.0
  0
VERTEX
  5
45B
330
44E
100
AcDbEntity
  8
Default
100
AcDbVertex
100
AcDb2dVertex
 10
79.25245530068662
 20
5.867847944942651
 30
0.0
  0
VERTEX
  5
45C
330
44E
100
AcDbEntity
  8
Default
100
AcDbVertex
100
AcDb2dVertex
 10
79.28234278820466
 20
5.880307342068138
 30
0.0
  0
VERTEX
  5
45D
330
44E
100
AcDbEntity
  8
Default
100
AcDbVertex
100
AcDb2dVertex
 10
79.3118574409341
 20
5.893749815670429
 30
0.0
  0
VERTEX
  5
45E
330
44E
100
AcDbEntity
  8
Default
100
AcDbVertex
100
AcDb2dVertex
 10
79.34095107019975
 20
5.908157979910607
 30
0.0
  0
VERTEX
  5
45F
330
44E
100
AcDbEntity
  8
Default
100
AcDbVertex
100
AcDb2dVertex
 10
79.36957661696466
 20
5.923511317908885
 30
0.0
  0
VERTEX
  5
460
330
44E
100
AcDbEntity
  8
Default
100
AcDbVertex
100
AcDb2dVertex
 10
79.39768840457091
 20
5.939786277597302
 30
0.0
  0
VERTEX
  5
461
330
44E
100
AcDbEntity
  8
Default
100
AcDbVertex
100
AcDb2dVertex
 10
79.42524238134885
 20
5.956956391875886
 30
0.0
  0
VERTEX
  5
462
330
44E
100
AcDbEntity
  8
Default
100
AcDbVertex
100
AcDb2dVertex
 10
79.45219635039376
 20
5.974992421788643
 30
0.0
  0
VERTEX
  5
463
330
44E
100
AcDbEntity
  8
Default
100
AcDbVertex
100
AcDb2dVertex
 10
79.47851018399827
 20
5.99386252109702
 30
0.0
  0
VERTEX
  5
464
330
44E
100
AcDbEntity
  8
Default
100
AcDbVertex
100
AcDb2dVertex
 10
79.5041460204636
 20
6.01353242032123
 30
0.0
  0
VERTEX
  5
465
330
44E
100
AcDbEntity
  8
Default
100
AcDbVertex
100
AcDb2dVertex
 10
79.52906844129116
 20
6.033965628050987
 30
0.0
  0
VERTEX
  5
466
330
44E
100
AcDbEntity
  8
Default
100
AcDbVertex
100
AcDb2dVertex
 10
79.5532446270655
 20
6.055123647102769
 30
0.0
  0
VERTEX
  5
467
330
44E
100
AcDbEntity
  8
Default
100
AcDbVertex
100
AcDb2dVertex
 10
79.57664449067858
 20
6.076966202925281
 30
0.0
  0
VERTEX
  5
468
330
44E
100
AcDbEntity
  8
Default
100
AcDbVertex
100
AcDb2dVertex
 10
79.59924078690072
 20
6.09945148153122
 30
0.0
  0
VERTEX
  5
469
330
44E
100
AcDbEntity
  8
Default
100
AcDbVertex
100
AcDb2dVertex
 10
79.62100919766809
 20
6.122536374163563
 30
0.0
  0
VERTEX
  5
46A
330
44E
100
AcDbEntity
  8
Default
100
AcDbVertex
100
AcDb2dVertex
 10
79.64192839282316
 20
6.146176725888025
 30
0.0
  0
VERTEX
  5
46B
330
44E
100
AcDbEntity
  8
Default
100
AcDbVertex
100
AcDb2dVertex
 10
79.66198006640192
 20
6.170327585338923
 30
0.0
  0
VERTEX
  5
46C
330
44E
100
AcDbEntity
  8
Default
100
AcDbVertex
100
AcDb2dVertex
 10
79.68114894890472
 20
6.194943452930135
 30
0.0
  0
VERTEX
  5
46D
330
44E
100
AcDbEntity
  8
Default
100
AcDbVertex
100
AcDb2dVertex
 10
79.69942279630666
 20
6.21997852497236
 30
0.0
  0
VERTEX
  5
46E
330
44E
100
AcDbEntity
  8
Default
100
AcDbVertex
100
AcDb2dVertex
 10
79.71679235685566
 20
6.245386931307146
 30
0.0
  0
VERTEX
  5
46F
330
44E
100
AcDbEntity
  8
Default
100
AcDbVertex
100
AcDb2dVertex
 10
79.73325131696355
 20
6.271122964271292
 30
0.0
  0
VERTEX
  5
470
330
44E
100
AcDbEntity
  8
Default
100
AcDbVertex
100
AcDb2dVertex
 10
79.74891647890469
 20
6.297349734219622
 30
0.0
  0
VERTEX
  5
471
330
44E
100
AcDbEntity
  8
Default
100
AcDbVertex
100
AcDb2dVertex
 10
79.76388154361278
 20
6.324244633074628
 30
0.0
  0
VERTEX
  5
472
330
44E
100
AcDbEntity
  8
Default
100
AcDbVertex
100
AcDb2dVertex
 10
79.77810844564644
 20
6.351781582607088
 30
0.0
  0
VERTEX
  5
473
330
44E
100
AcDbEntity
  8
Default
100
AcDbVertex
100
AcDb2dVertex
 10
79.79156028750806
 20
6.379931803640037
 30
0.0
  0
VERTEX
  5
474
330
44E
100
AcDbEntity
  8
Default
100
AcDbVertex
100
AcDb2dVertex
 10
79.80420156864832
 20
6.408663869988631
 30
0.0
  0
VERTEX
  5
475
330
44E
100
AcDbEntity
  8
Default
100
AcDbVertex
100
AcDb2dVertex
 10
79.81599841288063
 20
6.437943784977412
 30
0.0
  0
VERTEX
  5
476
330
44E
100
AcDbEntity
  8
Default
100
AcDbVertex
100
AcDb2dVertex
 10
79.82691879166683
 20
6.467735080725495
 30
0.0
  0
VERTEX
  5
477
330
44E
100
AcDbEntity
  8
Default
100
AcDbVertex
100
AcDb2dVertex
 10
79.83693274066788
 20
6.497998940068776
 30
0.0
  0
VERTEX
  5
478
330
44E
100
AcDbEntity
  8
Default
100
AcDbVertex
100
AcDb2dVertex
 10
79.84601256693274
 20
6.528694340652096
 30
0.0
  0
VERTEX
  5
479
330
44E
100
AcDbEntity
  8
Default
100
AcDbVertex
100
AcDb2dVertex
 10
79.85413304412532
 20
6.559778220380265
 30
0.0
  0
VERTEX
  5
47A
330
44E
100
AcDbEntity
  8
Default
100
AcDbVertex
100
AcDb2dVertex
 10
79.86127159326715
 20
6.591205663072653
 30
0.0
  0
VERTEX
  5
47B
330
44E
100
AcDbEntity
  8
Default
100
AcDbVertex
100
AcDb2dVertex
 10
79.86740844660173
 20
6.622930102830002
 30
0.0
  0
VERTEX
  5
47C
330
44E
100
AcDbEntity
  8
Default
100
AcDbVertex
100
AcDb2dVertex
 10
79.87252679236438
 20
6.654903545302245
 30
0.0
  0
VERTEX
  5
47D
330
44E
100
AcDbEntity
  8
Default
100
AcDbVertex
100
AcDb2dVertex
 10
79.87661289846768
 20
6.687076803750859
 30
0.0
  0
VERTEX
  5
47E
330
44E
100
AcDbEntity
  8
Default
100
AcDbVertex
100
AcDb2dVertex
 10
79.87965621338137
 20
6.719399747536274
 30
0.0
  0
VERTEX
  5
47F
330
44E
100
AcDbEntity
  8
Default
100
AcDbVertex
100
AcDb2dVertex
 10
79.88164944279447
 20
6.751821560437254
 30
0.0
  0
VERTEX
  5
480
330
44E
100
AcDbEntity
  8
Default
100
AcDbVertex
100
AcDb2dVertex
 10
79.88258860098637
 20
6.784291006031073
 30
0.0
  0
VERTEX
  5
481
330
44E
100
AcDbEntity
  8
Default
100
AcDbVertex
100
AcDb2dVertex
 10
79.88247303619802
 20
6.816756697235768
 30
0.0
  0
VERTEX
  5
482
330
44E
100
AcDbEntity
  8
Default
100
AcDbVertex
100
AcDb2dVertex
 10
79.88130542967528
 20
6.849167367042124
 30
0.0
  0
VERTEX
  5
483
330
44E
100
AcDbEntity
  8
Default
100
AcDbVertex
100
AcDb2dVertex
 10
79.87909176844303
 20
6.881472137445596
 30
0.0
  0
VERTEX
  5
484
330
44E
100
AcDbEntity
  8
Default
100
AcDbVertex
100
AcDb2dVertex
 10
79.87584129225456
 20
6.913620783627294
 30
0.0
  0
VERTEX
  5
485
330
44E
100
AcDbEntity
  8
Default
100
AcDbVertex
100
AcDb2dVertex
 10
79.87156641553483
 20
6.945563990527428
 30
0.0
  0
VERTEX
  5
486
330
44E
100
AcDbEntity
  8
Default
100
AcDbVertex
100
AcDb2dVertex
 10
79.86628262549073
 20
6.977253599101219
 30
0.0
  0
VERTEX
  5
487
330
44E
100
AcDbEntity
  8
Default
100
AcDbVertex
100
AcDb2dVertex
 10
79.86000835788833
 20
7.008642839742307
 30
0.0
  0
VERTEX
  5
488
330
44E
100
AcDbEntity
  8
Default
100
AcDbVertex
100
AcDb2dVertex
 10
79.85276485228918
 20
7.039686550596215
 30
0.0
  0
VERTEX
  5
489
330
44E
100
AcDbEntity
  8
Default
100
AcDbVertex
100
AcDb2dVertex
 10
79.84457598878939
 20
7.07034137876023
 30
0.0
  0
VERTEX
  5
48A
330
44E
100
AcDbEntity
  8
Default
100
AcDbVertex
100
AcDb2dVertex
 10
79.83546810851085
 20
7.100565962668428
 30
0.0
  0
VERTEX
  5
48B
330
44E
100
AcDbEntity
  8
Default
100
AcDbVertex
100
AcDb2dVertex
 10
79.82546982025345
 20
7.130321094283815
 30
0.0
  0
VERTEX
  5
48C
330
44E
100
AcDbEntity
  8
Default
100
AcDbVertex
100
AcDb2dVertex
 10
79.81461179582347
 20
7.159569860055249
 30
0.0
  0
VERTEX
  5
48D
330
44E
100
AcDbEntity
  8
Default
100
AcDbVertex
100
AcDb2dVertex
 10
79.80292655661304
 20
7.188277759937049
 30
0.0
  0
VERTEX
  5
48E
330
44E
100
AcDbEntity
  8
Default
100
AcDbVertex
100
AcDb2dVertex
 10
79.7904482540139
 20
7.216412804105898
 30
0.0
  0
VERTEX
  5
48F
330
44E
100
AcDbEntity
  8
Default
100
AcDbVertex
100
AcDb2dVertex
 10
79.77721244621148
 20
7.24394558733575
 30
0.0
  0
SEQEND
  5
490
330
44E
100
AcDbEntity
  8
Default
  0
POLYLINE
  5
491
330
1F
100
AcDbEntity
  8
Default
100
AcDb2dPolyline
 66
     1
 10
0.0
 20
0.0
 30
0.0
  0
VERTEX
  5
492
330
491
100
AcDbEntity
  8
Default
100
AcDbVertex
100
AcDb2dVertex
 10
79.77721244621148
 20
7.243945587335751
 30
0.0
  0
VERTEX
  5
493
330
491
100
AcDbEntity
  8
Default
100
AcDbVertex
100
AcDb2dVertex
 10
79.71645270426069
 20
7.362712544750713
 30
0.0
  0
VERTEX
  5
494
330
491
100
AcDbEntity
  8
Default
100
AcDbVertex
100
AcDb2dVertex
 10
79.65302335403875
 20
7.481140423973629
 30
0.0
  0
VERTEX
  5
495
330
491
100
AcDbEntity
  8
Default
100
AcDbVertex
100
AcDb2dVertex
 10
79.58691626032974
 20
7.599218242329989
 30
0.0
  0
VERTEX
  5
496
330
491
100
AcDbEntity
  8
Default
100
AcDbVertex
100
AcDb2dVertex
 10
79.51812365687074
 20
7.71693500077517
 30
0.0
  0
VERTEX
  5
497
330
491
100
AcDbEntity
  8
Default
100
AcDbVertex
100
AcDb2dVertex
 10
79.44663815137878
 20
7.834279686655137
 30
0.0
  0
VERTEX
  5
498
330
491
100
AcDbEntity
  8
Default
100
AcDbVertex
100
AcDb2dVertex
 10
79.37245273047846
 20
7.951241276499103
 30
0.0
  0
VERTEX
  5
499
330
491
100
AcDbEntity
  8
Default
100
AcDbVertex
100
AcDb2dVertex
 10
79.29556076452634
 20
8.067808738843034
 30
0.0
  0
VERTEX
  5
49A
330
491
100
AcDbEntity
  8
Default
100
AcDbVertex
100
AcDb2dVertex
 10
79.21595601232863
 20
8.183971037082705
 30
0.0
  0
VERTEX
  5
49B
330
491
100
AcDbEntity
  8
Default
100
AcDbVertex
100
AcDb2dVertex
 10
79.04858515419483
 20
8.415035986446712
 30
0.0
  0
VERTEX
  5
49C
330
491
100
AcDbEntity
  8
Default
100
AcDbVertex
100
AcDb2dVertex
 10
78.87029816768245
 20
8.644347839110532
 30
0.0
  0
VERTEX
  5
49D
330
491
100
AcDbEntity
  8
Default
100
AcDbVertex
100
AcDb2dVertex
 10
78.68105956219159
 20
8.87181841444891
 30
0.0
  0
VERTEX
  5
49E
330
491
100
AcDbEntity
  8
Default
100
AcDbVertex
100
AcDb2dVertex
 10
78.48084047485233
 20
9.097359732412379
 30
0.0
  0
VERTEX
  5
49F
330
491
100
AcDbEntity
  8
Default
100
AcDbVertex
100
AcDb2dVertex
 10
78.26961879198059
 20
9.320884110525098
 30
0.0
  0
VERTEX
  5
4A0
330
491
100
AcDbEntity
  8
Default
100
AcDbVertex
100
AcDb2dVertex
 10
78.04737926161832
 20
9.542304261965938
 30
0.0
  0
VERTEX
  5
4A1
330
491
100
AcDbEntity
  8
Default
100
AcDbVertex
100
AcDb2dVertex
 10
77.81411359673866
 20
9.761533394531034
 30
0.0
  0
VERTEX
  5
4A2
330
491
100
AcDbEntity
  8
Default
100
AcDbVertex
100
AcDb2dVertex
 10
77.56982056871705
 20
9.978485310269214
 30
0.0
  0
VERTEX
  5
4A3
330
491
100
AcDbEntity
  8
Default
100
AcDbVertex
100
AcDb2dVertex
 10
77.31450609068979
 20
10.19307450557565
 30
0.0
  0
VERTEX
  5
4A4
330
491
100
AcDbEntity
  8
Default
100
AcDbVertex
100
AcDb2dVertex
 10
77.04818329044609
 20
10.40521627152342
 30
0.0
  0
VERTEX
  5
4A5
330
491
100
AcDbEntity
  8
Default
100
AcDbVertex
100
AcDb2dVertex
 10
76.77087257252431
 20
10.6148267942081
 30
0.0
  0
VERTEX
  5
4A6
330
491
100
AcDbEntity
  8
Default
100
AcDbVertex
100
AcDb2dVertex
 10
76.48260166920991
 20
10.82182325487634
 30
0.0
  0
VERTEX
  5
4A7
330
491
100
AcDbEntity
  8
Default
100
AcDbVertex
100
AcDb2dVertex
 10
76.18340568016286
 20
11.02612392960655
 30
0.0
  0
VERTEX
  5
4A8
330
491
100
AcDbEntity
  8
Default
100
AcDbVertex
100
AcDb2dVertex
 10
75.8733271004309
 20
11.2276482883072
 30
0.0
  0
VERTEX
  5
4A9
330
491
100
AcDbEntity
  8
Default
100
AcDbVertex
100
AcDb2dVertex
 10
75.55241583663854
 20
11.42631709279714
 30
0.0
  0
VERTEX
  5
4AA
330
491
100
AcDbEntity
  8
Default
100
AcDbVertex
100
AcDb2dVertex
 10
75.22072921117373
 20
11.62205249373164
 30
0.0
  0
VERTEX
  5
4AB
330
491
100
AcDbEntity
  8
Default
100
AcDbVertex
100
AcDb2dVertex
 10
74.8783319542295
 20
11.81477812613846
 30
0.0
  0
VERTEX
  5
4AC
330
491
100
AcDbEntity
  8
Default
100
AcDbVertex
100
AcDb2dVertex
 10
74.52529618359277
 20
12.00441920332946
 30
0.0
  0
VERTEX
  5
4AD
330
491
100
AcDbEntity
  8
Default
100
AcDbVertex
100
AcDb2dVertex
 10
74.16170137210969
 20
12.19090260895577
 30
0.0
  0
VERTEX
  5
4AE
330
491
100
AcDbEntity
  8
Default
100
AcDbVertex
100
AcDb2dVertex
 10
73.78763430279284
 20
12.37415698697755
 30
0.0
  0
VERTEX
  5
4AF
330
491
100
AcDbEntity
  8
Default
100
AcDbVertex
100
AcDb2dVertex
 10
73.00846671774974
 20
12.73070256102333
 30
0.0
  0
VERTEX
  5
4B0
330
491
100
AcDbEntity
  8
Default
100
AcDbVertex
100
AcDb2dVertex
 10
72.1886314134063
 20
13.07352354946912
 30
0.0
  0
VERTEX
  5
4B1
330
491
100
AcDbEntity
  8
Default
100
AcDbVertex
100
AcDb2dVertex
 10
71.32907840176475
 20
13.40212106994894
 30
0.0
  0
VERTEX
  5
4B2
330
491
100
AcDbEntity
  8
Default
100
AcDbVertex
100
AcDb2dVertex
 10
70.43086614955276
 20
13.71603211865403
 30
0.0
  0
VERTEX
  5
4B3
330
491
100
AcDbEntity
  8
Default
100
AcDbVertex
100
AcDb2dVertex
 10
69.00604730797713
 20
14.16959848309688
 30
0.0
  0
VERTEX
  5
4B4
330
491
100
AcDbEntity
  8
Default
100
AcDbVertex
100
AcDb2dVertex
 10
67.60572274296806
 20
14.57019915204341
 30
0.0
  0
VERTEX
  5
4B5
330
491
100
AcDbEntity
  8
Default
100
AcDbVertex
100
AcDb2dVertex
 10
66.23429111748715
 20
14.91679814909556
 30
0.0
  0
VERTEX
  5
4B6
330
491
100
AcDbEntity
  8
Default
100
AcDbVertex
100
AcDb2dVertex
 10
64.89592769085206
 20
15.20871546830778
 30
0.0
  0
VERTEX
  5
4B7
330
491
100
AcDbEntity
  8
Default
100
AcDbVertex
100
AcDb2dVertex
 10
64.240379912728
 20
15.33405406779871
 30
0.0
  0
VERTEX
  5
4B8
330
491
100
AcDbEntity
  8
Default
100
AcDbVertex
100
AcDb2dVertex
 10
63.59454278343293
 20
15.44562957997902
 30
0.0
  0
VERTEX
  5
4B9
330
491
100
AcDbEntity
  8
Default
100
AcDbVertex
100
AcDb2dVertex
 10
62.9588577011722
 20
15.54345729296848
 30
0.0
  0
VERTEX
  5
4BA
330
491
100
AcDbEntity
  8
Default
100
AcDbVertex
100
AcDb2dVertex
 10
62.33374524582978
 20
15.62757418948419
 30
0.0
  0
VERTEX
  5
4BB
330
491
100
AcDbEntity
  8
Default
100
AcDbVertex
100
AcDb2dVertex
 10
61.7196043568787
 20
15.69803854837348
 30
0.0
  0
VERTEX
  5
4BC
330
491
100
AcDbEntity
  8
Default
100
AcDbVertex
100
AcDb2dVertex
 10
61.11681161099256
 20
15.75492946900351
 30
0.0
  0
VERTEX
  5
4BD
330
491
100
AcDbEntity
  8
Default
100
AcDbVertex
100
AcDb2dVertex
 10
60.5257206012315
 20
15.79834632275443
 30
0.0
  0
VERTEX
  5
4BE
330
491
100
AcDbEntity
  8
Default
100
AcDbVertex
100
AcDb2dVertex
 10
59.94666141888538
 20
15.82840813628861
 30
0.0
  0
VERTEX
  5
4BF
330
491
100
AcDbEntity
  8
Default
100
AcDbVertex
100
AcDb2dVertex
 10
59.37994023828154
 20
15.84525291163933
 30
0.0
  0
VERTEX
  5
4C0
330
491
100
AcDbEntity
  8
Default
100
AcDbVertex
100
AcDb2dVertex
 10
58.82583900410864
 20
15.8490368884736
 30
0.0
  0
VERTEX
  5
4C1
330
491
100
AcDbEntity
  8
Default
100
AcDbVertex
100
AcDb2dVertex
 10
58.28461522008292
 20
15.83993375413555
 30
0.0
  0
VERTEX
  5
4C2
330
491
100
AcDbEntity
  8
Default
100
AcDbVertex
100
AcDb2dVertex
 10
57.75650183709462
 20
15.81813380726753
 30
0.0
  0
VERTEX
  5
4C3
330
491
100
AcDbEntity
  8
Default
100
AcDbVertex
100
AcDb2dVertex
 10
57.24170723832656
 20
15.78384308093636
 30
0.0
  0
VERTEX
  5
4C4
330
491
100
AcDbEntity
  8
Default
100
AcDbVertex
100
AcDb2dVertex
 10
56.74041531823983
 20
15.7372824312634
 30
0.0
  0
VERTEX
  5
4C5
330
491
100
AcDbEntity
  8
Default
100
AcDbVertex
100
AcDb2dVertex
 10
56.25278565177866
 20
15.67868659757072
 30
0.0
  0
VERTEX
  5
4C6
330
491
100
AcDbEntity
  8
Default
100
AcDbVertex
100
AcDb2dVertex
 10
55.7789537496586
 20
15.60830324001429
 30
0.0
  0
VERTEX
  5
4C7
330
491
100
AcDbEntity
  8
Default
100
AcDbVertex
100
AcDb2dVertex
 10
55.3190313951758
 20
15.52639196058243
 30
0.0
  0
VERTEX
  5
4C8
330
491
100
AcDbEntity
  8
Default
100
AcDbVertex
100
AcDb2dVertex
 10
54.87310705760837
 20
15.43322331319689
 30
0.0
  0
VERTEX
  5
4C9
330
491
100
AcDbEntity
  8
Default
100
AcDbVertex
100
AcDb2dVertex
 10
54.44124637697668
 20
15.32907780846943
 30
0.0
  0
VERTEX
  5
4CA
330
491
100
AcDbEntity
  8
Default
100
AcDbVertex
100
AcDb2dVertex
 10
54.02349271468655
 20
15.21424491844276
 30
0.0
  0
VERTEX
  5
4CB
330
491
100
AcDbEntity
  8
Default
100
AcDbVertex
100
AcDb2dVertex
 10
53.61986776439816
 20
15.08902208638643
 30
0.0
  0
VERTEX
  5
4CC
330
491
100
AcDbEntity
  8
Default
100
AcDbVertex
100
AcDb2dVertex
 10
53.23037221733959
 20
14.95371374643012
 30
0.0
  0
VERTEX
  5
4CD
330
491
100
AcDbEntity
  8
Default
100
AcDbVertex
100
AcDb2dVertex
 10
53.04091761796501
 20
14.88237432011591
 30
0.0
  0
VERTEX
  5
4CE
330
491
100
AcDbEntity
  8
Default
100
AcDbVertex
100
AcDb2dVertex
 10
52.85498647621946
 20
14.80863035750377
 30
0.0
  0
VERTEX
  5
4CF
330
491
100
AcDbEntity
  8
Default
100
AcDbVertex
100
AcDb2dVertex
 10
52.67257329651569
 20
14.73252145185606
 30
0.0
  0
VERTEX
  5
4D0
330
491
100
AcDbEntity
  8
Default
100
AcDbVertex
100
AcDb2dVertex
 10
52.49367141187955
 20
14.65408745572176
 30
0.0
  0
SEQEND
  5
4D1
330
491
100
AcDbEntity
  8
Default
  0
POLYLINE
  5
4D2
330
1F
100
AcDbEntity
  8
Default
100
AcDb2dPolyline
 66
     1
 10
0.0
 20
0.0
 30
0.0
  0
VERTEX
  5
4D3
330
4D2
100
AcDbEntity
  8
Default
100
AcDbVertex
100
AcDb2dVertex
 10
52.49367141187955
 20
14.65408745572176
 30
0.0
  0
VERTEX
  5
4D4
330
4D2
100
AcDbEntity
  8
Default
100
AcDbVertex
100
AcDb2dVertex
 10
52.27170856683864
 20
14.55891369294671
 30
0.0
  0
VERTEX
  5
4D5
330
4D2
100
AcDbEntity
  8
Default
100
AcDbVertex
100
AcDb2dVertex
 10
52.0465773858794
 20
14.47149801323584
 30
0.0
  0
VERTEX
  5
4D6
330
4D2
100
AcDbEntity
  8
Default
100
AcDbVertex
100
AcDb2dVertex
 10
51.81854893560333
 20
14.39194566842996
 30
0.0
  0
VERTEX
  5
4D7
330
4D2
100
AcDbEntity
  8
Default
100
AcDbVertex
100
AcDb2dVertex
 10
51.58789777103566
 20
14.3203524426122
 30
0.0
  0
VERTEX
  5
4D8
330
4D2
100
AcDbEntity
  8
Default
100
AcDbVertex
100
AcDb2dVertex
 10
51.35490160505049
 20
14.25680453678025
 30
0.0
  0
VERTEX
  5
4D9
330
4D2
100
AcDbEntity
  8
Default
100
AcDbVertex
100
AcDb2dVertex
 10
51.11984097399382
 20
14.20137846505709
 30
0.0
  0
VERTEX
  5
4DA
330
4D2
100
AcDbEntity
  8
Default
100
AcDbVertex
100
AcDb2dVertex
 10
50.88299889990704
 20
14.15414096256506
 30
0.0
  0
VERTEX
  5
4DB
330
4D2
100
AcDbEntity
  8
Default
100
AcDbVertex
100
AcDb2dVertex
 10
50.64466054975743
 20
14.11514890507411
 30
0.0
  0
VERTEX
  5
4DC
330
4D2
100
AcDbEntity
  8
Default
100
AcDbVertex
100
AcDb2dVertex
 10
50.40511289208622
 20
14.0844492405213
 30
0.0
  0
VERTEX
  5
4DD
330
4D2
100
AcDbEntity
  8
Default
100
AcDbVertex
100
AcDb2dVertex
 10
50.16464435148742
 20
14.06207893248361
 30
0.0
  0
VERTEX
  5
4DE
330
4D2
100
AcDbEntity
  8
Default
100
AcDbVertex
100
AcDb2dVertex
 10
49.92354446133351
 20
14.04806491567239
 30
0.0
  0
VERTEX
  5
4DF
330
4D2
100
AcDbEntity
  8
Default
100
AcDbVertex
100
AcDb2dVertex
 10
49.68210351516608
 20
14.04242406350292
 30
0.0
  0
VERTEX
  5
4E0
330
4D2
100
AcDbEntity
  8
Default
100
AcDbVertex
100
AcDb2dVertex
 10
49.44061221717133
 20
14.0451631677782
 30
0.0
  0
VERTEX
  5
4E1
330
4D2
100
AcDbEntity
  8
Default
100
AcDbVertex
100
AcDb2dVertex
 10
49.19936133216098
 20
14.0562789305113
 30
0.0
  0
VERTEX
  5
4E2
330
4D2
100
AcDbEntity
  8
Default
100
AcDbVertex
100
AcDb2dVertex
 10
48.95864133548026
 20
14.07575796789635
 30
0.0
  0
VERTEX
  5
4E3
330
4D2
100
AcDbEntity
  8
Default
100
AcDbVertex
100
AcDb2dVertex
 10
48.71874206326442
 20
14.10357682642306
 30
0.0
  0
VERTEX
  5
4E4
330
4D2
100
AcDbEntity
  8
Default
100
AcDbVertex
100
AcDb2dVertex
 10
48.47995236346492
 20
14.13970201111572
 30
0.0
  0
VERTEX
  5
4E5
330
4D2
100
AcDbEntity
  8
Default
100
AcDbVertex
100
AcDb2dVertex
 10
48.24255974806532
 20
14.18409002586241
 30
0.0
  0
VERTEX
  5
4E6
330
4D2
100
AcDbEntity
  8
Default
100
AcDbVertex
100
AcDb2dVertex
 10
48.00685004690583
 20
14.23668742578601
 30
0.0
  0
VERTEX
  5
4E7
330
4D2
100
AcDbEntity
  8
Default
100
AcDbVertex
100
AcDb2dVertex
 10
47.7731070635332
 20
14.29743088159384
 30
0.0
  0
VERTEX
  5
4E8
330
4D2
100
AcDbEntity
  8
Default
100
AcDbVertex
100
AcDb2dVertex
 10
47.54161223349028
 20
14.36624725582863
 30
0.0
  0
VERTEX
  5
4E9
330
4D2
100
AcDbEntity
  8
Default
100
AcDbVertex
100
AcDb2dVertex
 10
47.3126442854569
 20
14.44305369092879
 30
0.0
  0
VERTEX
  5
4EA
330
4D2
100
AcDbEntity
  8
Default
100
AcDbVertex
100
AcDb2dVertex
 10
47.08647890564968
 20
14.5277577089921
 30
0.0
  0
VERTEX
  5
4EB
330
4D2
100
AcDbEntity
  8
Default
100
AcDbVertex
100
AcDb2dVertex
 10
46.86338840588532
 20
14.62025732312269
 30
0.0
  0
VERTEX
  5
4EC
330
4D2
100
AcDbEntity
  8
Default
100
AcDbVertex
100
AcDb2dVertex
 10
46.6436413957067
 20
14.72044116022717
 30
0.0
  0
VERTEX
  5
4ED
330
4D2
100
AcDbEntity
  8
Default
100
AcDbVertex
100
AcDb2dVertex
 10
46.42750245896661
 20
14.8281885951121
 30
0.0
  0
VERTEX
  5
4EE
330
4D2
100
AcDbEntity
  8
Default
100
AcDbVertex
100
AcDb2dVertex
 10
46.21523183525865
 20
14.94336989572138
 30
0.0
  0
VERTEX
  5
4EF
330
4D2
100
AcDbEntity
  8
Default
100
AcDbVertex
100
AcDb2dVertex
 10
46.0070851065787
 20
15.06584637933867
 30
0.0
  0
VERTEX
  5
4F0
330
4D2
100
AcDbEntity
  8
Default
100
AcDbVertex
100
AcDb2dVertex
 10
45.80331288959444
 20
15.19547057956662
 30
0.0
  0
VERTEX
  5
4F1
330
4D2
100
AcDbEntity
  8
Default
100
AcDbVertex
100
AcDb2dVertex
 10
45.60416053389319
 20
15.33208642388221
 30
0.0
  0
VERTEX
  5
4F2
330
4D2
100
AcDbEntity
  8
Default
100
AcDbVertex
100
AcDb2dVertex
 10
45.40986782657159
 20
15.47552942155395
 30
0.0
  0
VERTEX
  5
4F3
330
4D2
100
AcDbEntity
  8
Default
100
AcDbVertex
100
AcDb2dVertex
 10
45.22066870352268
 20
15.62562686169514
 30
0.0
  0
VERTEX
  5
4F4
330
4D2
100
AcDbEntity
  8
Default
100
AcDbVertex
100
AcDb2dVertex
 10
45.03679096776813
 20
15.78219802121438
 30
0.0
  0
VERTEX
  5
4F5
330
4D2
100
AcDbEntity
  8
Default
100
AcDbVertex
100
AcDb2dVertex
 10
44.85845601517462
 20
15.94505438241311
 30
0.0
  0
VERTEX
  5
4F6
330
4D2
100
AcDbEntity
  8
Default
100
AcDbVertex
100
AcDb2dVertex
 10
44.68587856788473
 20
16.1139998599682
 30
0.0
  0
VERTEX
  5
4F7
330
4D2
100
AcDbEntity
  8
Default
100
AcDbVertex
100
AcDb2dVertex
 10
44.51926641578312
 20
16.28883103702621
 30
0.0
  0
VERTEX
  5
4F8
330
4D2
100
AcDbEntity
  8
Default
100
AcDbVertex
100
AcDb2dVertex
 10
44.35882016630966
 20
16.4693374101251
 30
0.0
  0
VERTEX
  5
4F9
330
4D2
100
AcDbEntity
  8
Default
100
AcDbVertex
100
AcDb2dVertex
 10
44.20473300292026
 20
16.65530164264852
 30
0.0
  0
VERTEX
  5
4FA
330
4D2
100
AcDbEntity
  8
Default
100
AcDbVertex
100
AcDb2dVertex
 10
44.05719045248658
 20
16.84649982650742
 30
0.0
  0
VERTEX
  5
4FB
330
4D2
100
AcDbEntity
  8
Default
100
AcDbVertex
100
AcDb2dVertex
 10
43.91637016191454
 20
17.04270175173401
 30
0.0
  0
VERTEX
  5
4FC
330
4D2
100
AcDbEntity
  8
Default
100
AcDbVertex
100
AcDb2dVertex
 10
43.78244168425061
 20
17.24367118366345
 30
0.0
  0
VERTEX
  5
4FD
330
4D2
100
AcDbEntity
  8
Default
100
AcDbVertex
100
AcDb2dVertex
 10
43.65556627453347
 20
17.44916614736944
 30
0.0
  0
VERTEX
  5
4FE
330
4D2
100
AcDbEntity
  8
Default
100
AcDbVertex
100
AcDb2dVertex
 10
43.53589669563664
 20
17.65893921901132
 30
0.0
  0
VERTEX
  5
4FF
330
4D2
100
AcDbEntity
  8
Default
100
AcDbVertex
100
AcDb2dVertex
 10
43.42357703433619
 20
17.87273782374196
 30
0.0
  0
VERTEX
  5
500
330
4D2
100
AcDbEntity
  8
Default
100
AcDbVertex
100
AcDb2dVertex
 10
43.31874252782469
 20
18.09030453981753
 30
0.0
  0
VERTEX
  5
501
330
4D2
100
AcDbEntity
  8
Default
100
AcDbVertex
100
AcDb2dVertex
 10
43.22151940088042
 20
18.3113774085432
 30
0.0
  0
VERTEX
  5
502
330
4D2
100
AcDbEntity
  8
Default
100
AcDbVertex
100
AcDb2dVertex
 10
43.13202471388789
 20
18.53569024968148
 30
0.0
  0
VERTEX
  5
503
330
4D2
100
AcDbEntity
  8
Default
100
AcDbVertex
100
AcDb2dVertex
 10
43.05036622189266
 20
18.76297298194348
 30
0.0
  0
VERTEX
  5
504
330
4D2
100
AcDbEntity
  8
Default
100
AcDbVertex
100
AcDb2dVertex
 10
42.97664224486006
 20
18.99295194817716
 30
0.0
  0
VERTEX
  5
505
330
4D2
100
AcDbEntity
  8
Default
100
AcDbVertex
100
AcDb2dVertex
 10
42.91094154929422
 20
19.22535024486107
 30
0.0
  0
VERTEX
  5
506
330
4D2
100
AcDbEntity
  8
Default
100
AcDbVertex
100
AcDb2dVertex
 10
42.85334324135977
 20
19.45988805550683
 30
0.0
  0
VERTEX
  5
507
330
4D2
100
AcDbEntity
  8
Default
100
AcDbVertex
100
AcDb2dVertex
 10
42.80391667163497
 20
19.69628298756895
 30
0.0
  0
VERTEX
  5
508
330
4D2
100
AcDbEntity
  8
Default
100
AcDbVertex
100
AcDb2dVertex
 10
42.76272135161097
 20
19.93425041245634
 30
0.0
  0
VERTEX
  5
509
330
4D2
100
AcDbEntity
  8
Default
100
AcDbVertex
100
AcDb2dVertex
 10
42.72980688203763
 20
20.17350380823606
 30
0.0
  0
VERTEX
  5
50A
330
4D2
100
AcDbEntity
  8
Default
100
AcDbVertex
100
AcDb2dVertex
 10
42.70521289320239
 20
20.41375510461672
 30
0.0
  0
VERTEX
  5
50B
330
4D2
100
AcDbEntity
  8
Default
100
AcDbVertex
100
AcDb2dVertex
 10
42.68896899721378
 20
20.65471502979625
 30
0.0
  0
VERTEX
  5
50C
330
4D2
100
AcDbEntity
  8
Default
100
AcDbVertex
100
AcDb2dVertex
 10
42.68109475234743
 20
20.89609345875626
 30
0.0
  0
SEQEND
  5
50D
330
4D2
100
AcDbEntity
  8
Default
  0
POLYLINE
  5
50E
330
1F
100
AcDbEntity
  8
Default
100
AcDb2dPolyline
 66
     1
 10
0.0
 20
0.0
 30
0.0
  0
VERTEX
  5
50F
330
50E
100
AcDbEntity
  8
Default
100
AcDbVertex
100
AcDb2dVertex
 10
25.43638195757278
 20
28.71046856068502
 30
0.0
  0
VERTEX
  5
510
330
50E
100
AcDbEntity
  8
Default
100
AcDbVertex
100
AcDb2dVertex
 10
25.45165939060217
 20
28.71866131302722
 30
0.0
  0
VERTEX
  5
511
330
50E
100
AcDbEntity
  8
Default
100
AcDbVertex
100
AcDb2dVertex
 10
25.46721165023128
 20
28.72631953549312
 30
0.0
  0
VERTEX
  5
512
330
50E
100
AcDbEntity
  8
Default
100
AcDbVertex
100
AcDb2dVertex
 10
25.48302004132825
 20
28.7334340222514
 30
0.0
  0
VERTEX
  5
513
330
50E
100
AcDbEntity
  8
Default
100
AcDbVertex
100
AcDb2dVertex
 10
25.49906556086953
 20
28.73999622108705
 30
0.0
  0
VERTEX
  5
514
330
50E
100
AcDbEntity
  8
Default
100
AcDbVertex
100
AcDb2dVertex
 10
25.51532892078313
 20
28.74599824368191
 30
0.0
  0
VERTEX
  5
515
330
50E
100
AcDbEntity
  8
Default
100
AcDbVertex
100
AcDb2dVertex
 10
25.53179057113449
 20
28.75143287509701
 30
0.0
  0
VERTEX
  5
516
330
50E
100
AcDbEntity
  8
Default
100
AcDbVertex
100
AcDb2dVertex
 10
25.54843072362717
 20
28.75629358244559
 30
0.0
  0
VERTEX
  5
517
330
50E
100
AcDbEntity
  8
Default
100
AcDbVertex
100
AcDb2dVertex
 10
25.56522937539006
 20
28.76057452274621
 30
0.0
  0
VERTEX
  5
518
330
50E
100
AcDbEntity
  8
Default
100
AcDbVertex
100
AcDb2dVertex
 10
25.58216633302252
 20
28.76427054994643
 30
0.0
  0
VERTEX
  5
519
330
50E
100
AcDbEntity
  8
Default
100
AcDbVertex
100
AcDb2dVertex
 10
25.59922123686854
 20
28.76737722110886
 30
0.0
  0
VERTEX
  5
51A
330
50E
100
AcDbEntity
  8
Default
100
AcDbVertex
100
AcDb2dVertex
 10
25.61637358549079
 20
28.76989080175192
 30
0.0
  0
VERTEX
  5
51B
330
50E
100
AcDbEntity
  8
Default
100
AcDbVertex
100
AcDb2dVertex
 10
25.63360276031507
 20
28.77180827033903
 30
0.0
  0
VERTEX
  5
51C
330
50E
100
AcDbEntity
  8
Default
100
AcDbVertex
100
AcDb2dVertex
 10
25.65088805041561
 20
28.77312732191072
 30
0.0
  0
VERTEX
  5
51D
330
50E
100
AcDbEntity
  8
Default
100
AcDbVertex
100
AcDb2dVertex
 10
25.66820867741129
 20
28.7738463708554
 30
0.0
  0
VERTEX
  5
51E
330
50E
100
AcDbEntity
  8
Default
100
AcDbVertex
100
AcDb2dVertex
 10
25.68554382044308
 20
28.77396455281541
 30
0.0
  0
VERTEX
  5
51F
330
50E
100
AcDbEntity
  8
Default
100
AcDbVertex
100
AcDb2dVertex
 10
25.70287264120245
 20
28.77348172572604
 30
0.0
  0
VERTEX
  5
520
330
50E
100
AcDbEntity
  8
Default
100
AcDbVertex
100
AcDb2dVertex
 10
25.72017430898075
 20
28.77239846998629
 30
0.0
  0
VERTEX
  5
521
330
50E
100
AcDbEntity
  8
Default
100
AcDbVertex
100
AcDb2dVertex
 10
25.73742802570953
 20
28.7707160877612
 30
0.0
  0
VERTEX
  5
522
330
50E
100
AcDbEntity
  8
Default
100
AcDbVertex
100
AcDb2dVertex
 10
25.75461305096156
 20
28.76843660141657
 30
0.0
  0
VERTEX
  5
523
330
50E
100
AcDbEntity
  8
Default
100
AcDbVertex
100
AcDb2dVertex
 10
25.77170872688257
 20
28.76556275108781
 30
0.0
  0
VERTEX
  5
524
330
50E
100
AcDbEntity
  8
Default
100
AcDbVertex
100
AcDb2dVertex
 10
25.78869450302375
 20
28.76209799138616
 30
0.0
  0
VERTEX
  5
525
330
50E
100
AcDbEntity
  8
Default
100
AcDbVertex
100
AcDb2dVertex
 10
25.80554996104511
 20
28.75804648724591
 30
0.0
  0
VERTEX
  5
526
330
50E
100
AcDbEntity
  8
Default
100
AcDbVertex
100
AcDb2dVertex
 10
25.82225483926009
 20
28.75341310891783
 30
0.0
  0
VERTEX
  5
527
330
50E
100
AcDbEntity
  8
Default
100
AcDbVertex
100
AcDb2dVertex
 10
25.83878905699177
 20
28.74820342611464
 30
0.0
  0
VERTEX
  5
528
330
50E
100
AcDbEntity
  8
Default
100
AcDbVertex
100
AcDb2dVertex
 10
25.85513273871159
 20
28.74242370131585
 30
0.0
  0
VERTEX
  5
529
330
50E
100
AcDbEntity
  8
Default
100
AcDbVertex
100
AcDb2dVertex
 10
25.87126623793138
 20
28.73608088223965
 30
0.0
  0
VERTEX
  5
52A
330
50E
100
AcDbEntity
  8
Default
100
AcDbVertex
100
AcDb2dVertex
 10
25.88717016082012
 20
28.72918259349119
 30
0.0
  0
VERTEX
  5
52B
330
50E
100
AcDbEntity
  8
Default
100
AcDbVertex
100
AcDb2dVertex
 10
25.90282538951698
 20
28.72173712739716
 30
0.0
  0
VERTEX
  5
52C
330
50E
100
AcDbEntity
  8
Default
100
AcDbVertex
100
AcDb2dVertex
 10
25.91821310511258
 20
28.71375343403774
 30
0.0
  0
VERTEX
  5
52D
330
50E
100
AcDbEntity
  8
Default
100
AcDbVertex
100
AcDb2dVertex
 10
25.93331481027091
 20
28.70524111048777
 30
0.0
  0
VERTEX
  5
52E
330
50E
100
AcDbEntity
  8
Default
100
AcDbVertex
100
AcDb2dVertex
 10
25.94811235146471
 20
28.69621038928035
 30
0.0
  0
VERTEX
  5
52F
330
50E
100
AcDbEntity
  8
Default
100
AcDbVertex
100
AcDb2dVertex
 10
25.96258794079754
 20
28.6866721261064
 30
0.0
  0
VERTEX
  5
530
330
50E
100
AcDbEntity
  8
Default
100
AcDbVertex
100
AcDb2dVertex
 10
25.97672417738634
 20
28.67663778676522
 30
0.0
  0
VERTEX
  5
531
330
50E
100
AcDbEntity
  8
Default
100
AcDbVertex
100
AcDb2dVertex
 10
25.99050406827875
 20
28.66611943338165
 30
0.0
  0
VERTEX
  5
532
330
50E
100
AcDbEntity
  8
Default
100
AcDbVertex
100
AcDb2dVertex
 10
26.00391104888008
 20
28.65512970990633
 30
0.0
  0
VERTEX
  5
533
330
50E
100
AcDbEntity
  8
Default
100
AcDbVertex
100
AcDb2dVertex
 10
26.01692900286538
 20
28.64368182691667
 30
0.0
  0
VERTEX
  5
534
330
50E
100
AcDbEntity
  8
Default
100
AcDbVertex
100
AcDb2dVertex
 10
26.02954228155259
 20
28.63178954573654
 30
0.0
  0
VERTEX
  5
535
330
50E
100
AcDbEntity
  8
Default
100
AcDbVertex
100
AcDb2dVertex
 10
26.04173572271359
 20
28.61946716189405
 30
0.0
  0
VERTEX
  5
536
330
50E
100
AcDbEntity
  8
Default
100
AcDbVertex
100
AcDb2dVertex
 10
26.05349466880051
 20
28.60672948793712
 30
0.0
  0
VERTEX
  5
537
330
50E
100
AcDbEntity
  8
Default
100
AcDbVertex
100
AcDb2dVertex
 10
26.06480498456529
 20
28.59359183562747
 30
0.0
  0
VERTEX
  5
538
330
50E
100
AcDbEntity
  8
Default
100
AcDbVertex
100
AcDb2dVertex
 10
26.0756530740515
 20
28.58006999753468
 30
0.0
  0
VERTEX
  5
539
330
50E
100
AcDbEntity
  8
Default
100
AcDbVertex
100
AcDb2dVertex
 10
26.08602589693778
 20
28.56618022805213
 30
0.0
  0
VERTEX
  5
53A
330
50E
100
AcDbEntity
  8
Default
100
AcDbVertex
100
AcDb2dVertex
 10
26.09591098421345
 20
28.55193922385788
 30
0.0
  0
VERTEX
  5
53B
330
50E
100
AcDbEntity
  8
Default
100
AcDbVertex
100
AcDb2dVertex
 10
26.10529645316728
 20
28.53736410384379
 30
0.0
  0
VERTEX
  5
53C
330
50E
100
AcDbEntity
  8
Default
100
AcDbVertex
100
AcDb2dVertex
 10
26.11417102167155
 20
28.52247238853723
 30
0.0
  0
VERTEX
  5
53D
330
50E
100
AcDbEntity
  8
Default
100
AcDbVertex
100
AcDb2dVertex
 10
26.12252402174409
 20
28.50728197903991
 30
0.0
  0
VERTEX
  5
53E
330
50E
100
AcDbEntity
  8
Default
100
AcDbVertex
100
AcDb2dVertex
 10
26.13034541237213
 20
28.49181113550919
 30
0.0
  0
VERTEX
  5
53F
330
50E
100
AcDbEntity
  8
Default
100
AcDbVertex
100
AcDb2dVertex
 10
26.13762579158242
 20
28.47607845520789
 30
0.0
  0
VERTEX
  5
540
330
50E
100
AcDbEntity
  8
Default
100
AcDbVertex
100
AcDb2dVertex
 10
26.14435640774318
 20
28.46010285014878
 30
0.0
  0
VERTEX
  5
541
330
50E
100
AcDbEntity
  8
Default
100
AcDbVertex
100
AcDb2dVertex
 10
26.15052917008437
 20
28.44390352436072
 30
0.0
  0
VERTEX
  5
542
330
50E
100
AcDbEntity
  8
Default
100
AcDbVertex
100
AcDb2dVertex
 10
26.15613665842341
 20
28.42749995080384
 30
0.0
  0
VERTEX
  5
543
330
50E
100
AcDbEntity
  8
Default
100
AcDbVertex
100
AcDb2dVertex
 10
26.1611721320849
 20
28.41091184796136
 30
0.0
  0
VERTEX
  5
544
330
50E
100
AcDbEntity
  8
Default
100
AcDbVertex
100
AcDb2dVertex
 10
26.16562953800349
 20
28.3941591561363
 30
0.0
  0
VERTEX
  5
545
330
50E
100
AcDbEntity
  8
Default
100
AcDbVertex
100
AcDb2dVertex
 10
26.16950351800015
 20
28.37726201348158
 30
0.0
  0
VERTEX
  5
546
330
50E
100
AcDbEntity
  8
Default
100
AcDbVertex
100
AcDb2dVertex
 10
26.17278941522317
 20
28.36024073179223
 30
0.0
  0
VERTEX
  5
547
330
50E
100
AcDbEntity
  8
Default
100
AcDbVertex
100
AcDb2dVertex
 10
26.17548327974608
 20
28.34311577208891
 30
0.0
  0
VERTEX
  5
548
330
50E
100
AcDbEntity
  8
Default
100
AcDbVertex
100
AcDb2dVertex
 10
26.17758187331582
 20
28.325907720022
 30
0.0
  0
VERTEX
  5
549
330
50E
100
AcDbEntity
  8
Default
100
AcDbVertex
100
AcDb2dVertex
 10
26.17908267324537
 20
28.30863726112596
 30
0.0
  0
VERTEX
  5
54A
330
50E
100
AcDbEntity
  8
Default
100
AcDbVertex
100
AcDb2dVertex
 10
26.17998387544625
 20
28.29132515595353
 30
0.0
  0
VERTEX
  5
54B
330
50E
100
AcDbEntity
  8
Default
100
AcDbVertex
100
AcDb2dVertex
 10
26.18028439659716
 20
28.27399221511978
 30
0.0
  0
SEQEND
  5
54C
330
50E
100
AcDbEntity
  8
Default
  0
POLYLINE
  5
54D
330
1F
100
AcDbEntity
  8
Default
100
AcDb2dPolyline
 66
     1
 10
0.0
 20
0.0
 30
0.0
  0
VERTEX
  5
54E
330
54D
100
AcDbEntity
  8
Default
100
AcDbVertex
100
AcDb2dVertex
 10
26.18028439659716
 20
28.27399221511978
 30
0.0
  0
VERTEX
  5
54F
330
54D
100
AcDbEntity
  8
Default
100
AcDbVertex
100
AcDb2dVertex
 10
26.18028439659714
 20
26.01776183701744
 30
0.0
  0
SEQEND
  5
550
330
54D
100
AcDbEntity
  8
Default
  0
POLYLINE
  5
551
330
1F
100
AcDbEntity
  8
Default
100
AcDb2dPolyline
 66
     1
 10
0.0
 20
0.0
 30
0.0
  0
VERTEX
  5
552
330
551
100
AcDbEntity
  8
Default
100
AcDbVertex
100
AcDb2dVertex
 10
26.18028439659714
 20
26.01776183701744
 30
0.0
  0
VERTEX
  5
553
330
551
100
AcDbEntity
  8
Default
100
AcDbVertex
100
AcDb2dVertex
 10
26.13522871136454
 20
25.96484796418981
 30
0.0
  0
VERTEX
  5
554
330
551
100
AcDbEntity
  8
Default
100
AcDbVertex
100
AcDb2dVertex
 10
26.09203863942937
 20
25.91040064657331
 30
0.0
  0
VERTEX
  5
555
330
551
100
AcDbEntity
  8
Default
100
AcDbVertex
100
AcDb2dVertex
 10
26.05076633164502
 20
25.85448562784354
 30
0.0
  0
VERTEX
  5
556
330
551
100
AcDbEntity
  8
Default
100
AcDbVertex
100
AcDb2dVertex
 10
26.0114616232161
 20
25.79717042388581
 30
0.0
  0
VERTEX
  5
557
330
551
100
AcDbEntity
  8
Default
100
AcDbVertex
100
AcDb2dVertex
 10
25.9741719735238
 20
25.73852424127157
 30
0.0
  0
VERTEX
  5
558
330
551
100
AcDbEntity
  8
Default
100
AcDbVertex
100
AcDb2dVertex
 10
25.93894240881989
 20
25.67861789369328
 30
0.0
  0
VERTEX
  5
559
330
551
100
AcDbEntity
  8
Default
100
AcDbVertex
100
AcDb2dVertex
 10
25.90581546785882
 20
25.61752371645879
 30
0.0
  0
VERTEX
  5
55A
330
551
100
AcDbEntity
  8
Default
100
AcDbVertex
100
AcDb2dVertex
 10
25.87483115053324
 20
25.55531547914841
 30
0.0
  0
VERTEX
  5
55B
330
551
100
AcDbEntity
  8
Default
100
AcDbVertex
100
AcDb2dVertex
 10
25.84602686957523
 20
25.49206829654009
 30
0.0
  0
VERTEX
  5
55C
330
551
100
AcDbEntity
  8
Default
100
AcDbVertex
100
AcDb2dVertex
 10
25.81943740538146
 20
25.42785853791037
 30
0.0
  0
VERTEX
  5
55D
330
551
100
AcDbEntity
  8
Default
100
AcDbVertex
100
AcDb2dVertex
 10
25.79509486401674
 20
25.36276373482054
 30
0.0
  0
VERTEX
  5
55E
330
551
100
AcDbEntity
  8
Default
100
AcDbVertex
100
AcDb2dVertex
 10
25.77302863844682
 20
25.2968624874993
 30
0.0
  0
VERTEX
  5
55F
330
551
100
AcDbEntity
  8
Default
100
AcDbVertex
100
AcDb2dVertex
 10
25.75326537304722
 20
25.23023436993515
 30
0.0
  0
VERTEX
  5
560
330
551
100
AcDbEntity
  8
Default
100
AcDbVertex
100
AcDb2dVertex
 10
25.7358289314308
 20
25.1629598337929
 30
0.0
  0
VERTEX
  5
561
330
551
100
AcDbEntity
  8
Default
100
AcDbVertex
100
AcDb2dVertex
 10
25.72074036763311
 20
25.09512011127046
 30
0.0
  0
VERTEX
  5
562
330
551
100
AcDbEntity
  8
Default
100
AcDbVertex
100
AcDb2dVertex
 10
25.70801790069023
 20
25.02679711701315
 30
0.0
  0
VERTEX
  5
563
330
551
100
AcDbEntity
  8
Default
100
AcDbVertex
100
AcDb2dVertex
 10
25.69767689263975
 20
24.95807334920392
 30
0.0
  0
VERTEX
  5
564
330
551
100
AcDbEntity
  8
Default
100
AcDbVertex
100
AcDb2dVertex
 10
25.6897298299715
 20
24.88903178994904
 30
0.0
  0
VERTEX
  5
565
330
551
100
AcDbEntity
  8
Default
100
AcDbVertex
100
AcDb2dVertex
 10
25.68418630855051
 20
24.81975580507945
 30
0.0
  0
VERTEX
  5
566
330
551
100
AcDbEntity
  8
Default
100
AcDbVertex
100
AcDb2dVertex
 10
25.68105302203019
 20
24.75032904348869
 30
0.0
  0
VERTEX
  5
567
330
551
100
AcDbEntity
  8
Default
100
AcDbVertex
100
AcDb2dVertex
 10
25.68033375376998
 20
24.68083533612919
 30
0.0
  0
VERTEX
  5
568
330
551
100
AcDbEntity
  8
Default
100
AcDbVertex
100
AcDb2dVertex
 10
25.68202937226701
 20
24.61135859478858
 30
0.0
  0
VERTEX
  5
569
330
551
100
AcDbEntity
  8
Default
100
AcDbVertex
100
AcDb2dVertex
 10
25.68613783010741
 20
24.54198271076848
 30
0.0
  0
VERTEX
  5
56A
330
551
100
AcDbEntity
  8
Default
100
AcDbVertex
100
AcDb2dVertex
 10
25.69265416643855
 20
24.47279145358798
 30
0.0
  0
VERTEX
  5
56B
330
551
100
AcDbEntity
  8
Default
100
AcDbVertex
100
AcDb2dVertex
 10
25.7015705129591
 20
24.40386836983426
 30
0.0
  0
VERTEX
  5
56C
330
551
100
AcDbEntity
  8
Default
100
AcDbVertex
100
AcDb2dVertex
 10
25.7128761034198
 20
24.33529668228223
 30
0.0
  0
VERTEX
  5
56D
330
551
100
AcDbEntity
  8
Default
100
AcDbVertex
100
AcDb2dVertex
 10
25.7265572866234
 20
24.26715918940535
 30
0.0
  0
VERTEX
  5
56E
330
551
100
AcDbEntity
  8
Default
100
AcDbVertex
100
AcDb2dVertex
 10
25.74259754290815
 20
24.19953816539863
 30
0.0
  0
VERTEX
  5
56F
330
551
100
AcDbEntity
  8
Default
100
AcDbVertex
100
AcDb2dVertex
 10
25.76097750409484
 20
24.13251526083479
 30
0.0
  0
VERTEX
  5
570
330
551
100
AcDbEntity
  8
Default
100
AcDbVertex
100
AcDb2dVertex
 10
25.78167497687332
 20
24.06617140407335
 30
0.0
  0
VERTEX
  5
571
330
551
100
AcDbEntity
  8
Default
100
AcDbVertex
100
AcDb2dVertex
 10
25.80466496960038
 20
24.00058670354185
 30
0.0
  0
VERTEX
  5
572
330
551
100
AcDbEntity
  8
Default
100
AcDbVertex
100
AcDb2dVertex
 10
25.82991972247646
 20
23.93584035100701
 30
0.0
  0
VERTEX
  5
573
330
551
100
AcDbEntity
  8
Default
100
AcDbVertex
100
AcDb2dVertex
 10
25.85740874106485
 20
23.87201052595285
 30
0.0
  0
VERTEX
  5
574
330
551
100
AcDbEntity
  8
Default
100
AcDbVertex
100
AcDb2dVertex
 10
25.88709883311294
 20
23.80917430118104
 30
0.0
  0
VERTEX
  5
575
330
551
100
AcDbEntity
  8
Default
100
AcDbVertex
100
AcDb2dVertex
 10
25.91895414863095
 20
23.74740754974755
 30
0.0
  0
VERTEX
  5
576
330
551
100
AcDbEntity
  8
Default
100
AcDbVertex
100
AcDb2dVertex
 10
25.95293622317983
 20
23.686784853348
 30
0.0
  0
VERTEX
  5
577
330
551
100
AcDbEntity
  8
Default
100
AcDbVertex
100
AcDb2dVertex
 10
25.98900402431606
 20
23.62737941226223
 30
0.0
  0
VERTEX
  5
578
330
551
100
AcDbEntity
  8
Default
100
AcDbVertex
100
AcDb2dVertex
 10
26.02711400113719
 20
23.56926295696693
 30
0.0
  0
VERTEX
  5
579
330
551
100
AcDbEntity
  8
Default
100
AcDbVertex
100
AcDb2dVertex
 10
26.06722013686843
 20
23.51250566152304
 30
0.0
  0
VERTEX
  5
57A
330
551
100
AcDbEntity
  8
Default
100
AcDbVertex
100
AcDb2dVertex
 10
26.10927400442663
 20
23.45717605884243
 30
0.0
  0
VERTEX
  5
57B
330
551
100
AcDbEntity
  8
Default
100
AcDbVertex
100
AcDb2dVertex
 10
26.15322482489472
 20
23.40334095793624
 30
0.0
  0
VERTEX
  5
57C
330
551
100
AcDbEntity
  8
Default
100
AcDbVertex
100
AcDb2dVertex
 10
26.19901952883585
 20
23.35106536324481
 30
0.0
  0
VERTEX
  5
57D
330
551
100
AcDbEntity
  8
Default
100
AcDbVertex
100
AcDb2dVertex
 10
26.24660282037335
 20
23.30041239614658
 30
0.0
  0
VERTEX
  5
57E
330
551
100
AcDbEntity
  8
Default
100
AcDbVertex
100
AcDb2dVertex
 10
26.29591724395901
 20
23.25144321874066
 30
0.0
  0
VERTEX
  5
57F
330
551
100
AcDbEntity
  8
Default
100
AcDbVertex
100
AcDb2dVertex
 10
26.34690325374907
 20
23.20421695999529
 30
0.0
  0
VERTEX
  5
580
330
551
100
AcDbEntity
  8
Default
100
AcDbVertex
100
AcDb2dVertex
 10
26.39949928550431
 20
23.15879064435117
 30
0.0
  0
VERTEX
  5
581
330
551
100
AcDbEntity
  8
Default
100
AcDbVertex
100
AcDb2dVertex
 10
26.45364183092715
 20
23.11521912286598
 30
0.0
  0
VERTEX
  5
582
330
551
100
AcDbEntity
  8
Default
100
AcDbVertex
100
AcDb2dVertex
 10
26.50926551434622
 20
23.07355500698322
 30
0.0
  0
VERTEX
  5
583
330
551
100
AcDbEntity
  8
Default
100
AcDbVertex
100
AcDb2dVertex
 10
26.56630317165578
 20
23.03384860500527
 30
0.0
  0
VERTEX
  5
584
330
551
100
AcDbEntity
  8
Default
100
AcDbVertex
100
AcDb2dVertex
 10
26.62468593141453
 20
22.99614786134749
 30
0.0
  0
VERTEX
  5
585
330
551
100
AcDbEntity
  8
Default
100
AcDbVertex
100
AcDb2dVertex
 10
26.68434329800604
 20
22.96049829864661
 30
0.0
  0
VERTEX
  5
586
330
551
100
AcDbEntity
  8
Default
100
AcDbVertex
100
AcDb2dVertex
 10
26.74520323676032
 20
22.92694296279337
 30
0.0
  0
VERTEX
  5
587
330
551
100
AcDbEntity
  8
Default
100
AcDbVertex
100
AcDb2dVertex
 10
26.80719226093374
 20
22.89552237095579
 30
0.0
  0
VERTEX
  5
588
330
551
100
AcDbEntity
  8
Default
100
AcDbVertex
100
AcDb2dVertex
 10
26.87023552044234
 20
22.86627446265571
 30
0.0
  0
VERTEX
  5
589
330
551
100
AcDbEntity
  8
Default
100
AcDbVertex
100
AcDb2dVertex
 10
26.93425689224123
 20
22.83923455395791
 30
0.0
  0
VERTEX
  5
58A
330
551
100
AcDbEntity
  8
Default
100
AcDbVertex
100
AcDb2dVertex
 10
26.9991790722412
 20
22.81443529482685
 30
0.0
  0
VERTEX
  5
58B
330
551
100
AcDbEntity
  8
Default
100
AcDbVertex
100
AcDb2dVertex
 10
27.06492366865127
 20
22.79190662970275
 30
0.0
  0
VERTEX
  5
58C
330
551
100
AcDbEntity
  8
Default
100
AcDbVertex
100
AcDb2dVertex
 10
27.13141129663474
 20
22.77167576134447
 30
0.0
  0
VERTEX
  5
58D
330
551
100
AcDbEntity
  8
Default
100
AcDbVertex
100
AcDb2dVertex
 10
27.19856167416418
 20
22.75376711798291
 30
0.0
  0
VERTEX
  5
58E
330
551
100
AcDbEntity
  8
Default
100
AcDbVertex
100
AcDb2dVertex
 10
27.26629371895988
 20
22.73820232382458
 30
0.0
  0
VERTEX
  5
58F
330
551
100
AcDbEntity
  8
Default
100
AcDbVertex
100
AcDb2dVertex
 10
27.33452564639449
 20
22.72500017294092
 30
0.0
  0
VERTEX
  5
590
330
551
100
AcDbEntity
  8
Default
100
AcDbVertex
100
AcDb2dVertex
 10
27.40317506824582
 20
22.71417660657501
 30
0.0
  0
VERTEX
  5
591
330
551
100
AcDbEntity
  8
Default
100
AcDbVertex
100
AcDb2dVertex
 10
27.47215909217831
 20
22.70574469389293
 30
0.0
  0
VERTEX
  5
592
330
551
100
AcDbEntity
  8
Default
100
AcDbVertex
100
AcDb2dVertex
 10
27.54139442183342
 20
22.69971461620307
 30
0.0
  0
VERTEX
  5
593
330
551
100
AcDbEntity
  8
Default
100
AcDbVertex
100
AcDb2dVertex
 10
27.61079745740766
 20
22.6960936546625
 30
0.0
  0
VERTEX
  5
594
330
551
100
AcDbEntity
  8
Default
100
AcDbVertex
100
AcDb2dVertex
 10
27.68028439659715
 20
22.69488618148515
 30
0.0
  0
VERTEX
  5
595
330
551
100
AcDbEntity
  8
Default
100
AcDbVertex
100
AcDb2dVertex
 10
27.74977133578664
 20
22.69609365466249
 30
0.0
  0
VERTEX
  5
596
330
551
100
AcDbEntity
  8
Default
100
AcDbVertex
100
AcDb2dVertex
 10
27.81917437136088
 20
22.69971461620307
 30
0.0
  0
VERTEX
  5
597
330
551
100
AcDbEntity
  8
Default
100
AcDbVertex
100
AcDb2dVertex
 10
27.88840970101599
 20
22.70574469389293
 30
0.0
  0
VERTEX
  5
598
330
551
100
AcDbEntity
  8
Default
100
AcDbVertex
100
AcDb2dVertex
 10
27.95739372494849
 20
22.71417660657502
 30
0.0
  0
VERTEX
  5
599
330
551
100
AcDbEntity
  8
Default
100
AcDbVertex
100
AcDb2dVertex
 10
28.02604314679981
 20
22.72500017294092
 30
0.0
  0
VERTEX
  5
59A
330
551
100
AcDbEntity
  8
Default
100
AcDbVertex
100
AcDb2dVertex
 10
28.09427507423442
 20
22.73820232382458
 30
0.0
  0
VERTEX
  5
59B
330
551
100
AcDbEntity
  8
Default
100
AcDbVertex
100
AcDb2dVertex
 10
28.16200711903012
 20
22.75376711798292
 30
0.0
  0
VERTEX
  5
59C
330
551
100
AcDbEntity
  8
Default
100
AcDbVertex
100
AcDb2dVertex
 10
28.22915749655956
 20
22.77167576134448
 30
0.0
  0
VERTEX
  5
59D
330
551
100
AcDbEntity
  8
Default
100
AcDbVertex
100
AcDb2dVertex
 10
28.29564512454303
 20
22.79190662970275
 30
0.0
  0
VERTEX
  5
59E
330
551
100
AcDbEntity
  8
Default
100
AcDbVertex
100
AcDb2dVertex
 10
28.3613897209531
 20
22.81443529482685
 30
0.0
  0
VERTEX
  5
59F
330
551
100
AcDbEntity
  8
Default
100
AcDbVertex
100
AcDb2dVertex
 10
28.42631190095307
 20
22.83923455395791
 30
0.0
  0
VERTEX
  5
5A0
330
551
100
AcDbEntity
  8
Default
100
AcDbVertex
100
AcDb2dVertex
 10
28.49033327275196
 20
22.86627446265571
 30
0.0
  0
VERTEX
  5
5A1
330
551
100
AcDbEntity
  8
Default
100
AcDbVertex
100
AcDb2dVertex
 10
28.55337653226055
 20
22.8955223709558
 30
0.0
  0
VERTEX
  5
5A2
330
551
100
AcDbEntity
  8
Default
100
AcDbVertex
100
AcDb2dVertex
 10
28.61536555643398
 20
22.92694296279338
 30
0.0
  0
VERTEX
  5
5A3
330
551
100
AcDbEntity
  8
Default
100
AcDbVertex
100
AcDb2dVertex
 10
28.67622549518826
 20
22.96049829864661
 30
0.0
  0
VERTEX
  5
5A4
330
551
100
AcDbEntity
  8
Default
100
AcDbVertex
100
AcDb2dVertex
 10
28.73588286177977
 20
22.99614786134749
 30
0.0
  0
VERTEX
  5
5A5
330
551
100
AcDbEntity
  8
Default
100
AcDbVertex
100
AcDb2dVertex
 10
28.79426562153851
 20
23.03384860500528
 30
0.0
  0
VERTEX
  5
5A6
330
551
100
AcDbEntity
  8
Default
100
AcDbVertex
100
AcDb2dVertex
 10
28.85130327884808
 20
23.07355500698322
 30
0.0
  0
VERTEX
  5
5A7
330
551
100
AcDbEntity
  8
Default
100
AcDbVertex
100
AcDb2dVertex
 10
28.90692696226715
 20
23.11521912286599
 30
0.0
  0
VERTEX
  5
5A8
330
551
100
AcDbEntity
  8
Default
100
AcDbVertex
100
AcDb2dVertex
 10
28.96106950768999
 20
23.15879064435117
 30
0.0
  0
VERTEX
  5
5A9
330
551
100
AcDbEntity
  8
Default
100
AcDbVertex
100
AcDb2dVertex
 10
29.01366553944522
 20
23.2042169599953
 30
0.0
  0
VERTEX
  5
5AA
330
551
100
AcDbEntity
  8
Default
100
AcDbVertex
100
AcDb2dVertex
 10
29.06465154923529
 20
23.25144321874067
 30
0.0
  0
VERTEX
  5
5AB
330
551
100
AcDbEntity
  8
Default
100
AcDbVertex
100
AcDb2dVertex
 10
29.11396597282095
 20
23.30041239614659
 30
0.0
  0
VERTEX
  5
5AC
330
551
100
AcDbEntity
  8
Default
100
AcDbVertex
100
AcDb2dVertex
 10
29.16154926435845
 20
23.35106536324482
 30
0.0
  0
VERTEX
  5
5AD
330
551
100
AcDbEntity
  8
Default
100
AcDbVertex
100
AcDb2dVertex
 10
29.20734396829958
 20
23.40334095793625
 30
0.0
  0
VERTEX
  5
5AE
330
551
100
AcDbEntity
  8
Default
100
AcDbVertex
100
AcDb2dVertex
 10
29.25129478876767
 20
23.45717605884244
 30
0.0
  0
VERTEX
  5
5AF
330
551
100
AcDbEntity
  8
Default
100
AcDbVertex
100
AcDb2dVertex
 10
29.29334865632587
 20
23.51250566152305
 30
0.0
  0
VERTEX
  5
5B0
330
551
100
AcDbEntity
  8
Default
100
AcDbVertex
100
AcDb2dVertex
 10
29.33345479205711
 20
23.56926295696694
 30
0.0
  0
VERTEX
  5
5B1
330
551
100
AcDbEntity
  8
Default
100
AcDbVertex
100
AcDb2dVertex
 10
29.37156476887824
 20
23.62737941226224
 30
0.0
  0
VERTEX
  5
5B2
330
551
100
AcDbEntity
  8
Default
100
AcDbVertex
100
AcDb2dVertex
 10
29.40763257001446
 20
23.68678485334802
 30
0.0
  0
VERTEX
  5
5B3
330
551
100
AcDbEntity
  8
Default
100
AcDbVertex
100
AcDb2dVertex
 10
29.44161464456335
 20
23.74740754974756
 30
0.0
  0
VERTEX
  5
5B4
330
551
100
AcDbEntity
  8
Default
100
AcDbVertex
100
AcDb2dVertex
 10
29.47346996008135
 20
23.80917430118105
 30
0.0
  0
VERTEX
  5
5B5
330
551
100
AcDbEntity
  8
Default
100
AcDbVertex
100
AcDb2dVertex
 10
29.50316005212944
 20
23.87201052595286
 30
0.0
  0
VERTEX
  5
5B6
330
551
100
AcDbEntity
  8
Default
100
AcDbVertex
100
AcDb2dVertex
 10
29.53064907071784
 20
23.93584035100702
 30
0.0
  0
VERTEX
  5
5B7
330
551
100
AcDbEntity
  8
Default
100
AcDbVertex
100
AcDb2dVertex
 10
29.55590382359391
 20
24.00058670354186
 30
0.0
  0
VERTEX
  5
5B8
330
551
100
AcDbEntity
  8
Default
100
AcDbVertex
100
AcDb2dVertex
 10
29.57889381632097
 20
24.06617140407337
 30
0.0
  0
VERTEX
  5
5B9
330
551
100
AcDbEntity
  8
Default
100
AcDbVertex
100
AcDb2dVertex
 10
29.59959128909946
 20
24.1325152608348
 30
0.0
  0
VERTEX
  5
5BA
330
551
100
AcDbEntity
  8
Default
100
AcDbVertex
100
AcDb2dVertex
 10
29.61797125028614
 20
24.19953816539864
 30
0.0
  0
VERTEX
  5
5BB
330
551
100
AcDbEntity
  8
Default
100
AcDbVertex
100
AcDb2dVertex
 10
29.63401150657089
 20
24.26715918940536
 30
0.0
  0
VERTEX
  5
5BC
330
551
100
AcDbEntity
  8
Default
100
AcDbVertex
100
AcDb2dVertex
 10
29.64769268977449
 20
24.33529668228224
 30
0.0
  0
VERTEX
  5
5BD
330
551
100
AcDbEntity
  8
Default
100
AcDbVertex
100
AcDb2dVertex
 10
29.65899828023518
 20
24.40386836983426
 30
0.0
  0
VERTEX
  5
5BE
330
551
100
AcDbEntity
  8
Default
100
AcDbVertex
100
AcDb2dVertex
 10
29.66791462675573
 20
24.47279145358799
 30
0.0
  0
VERTEX
  5
5BF
330
551
100
AcDbEntity
  8
Default
100
AcDbVertex
100
AcDb2dVertex
 10
29.67443096308688
 20
24.54198271076848
 30
0.0
  0
VERTEX
  5
5C0
330
551
100
AcDbEntity
  8
Default
100
AcDbVertex
100
AcDb2dVertex
 10
29.67853942092729
 20
24.61135859478859
 30
0.0
  0
VERTEX
  5
5C1
330
551
100
AcDbEntity
  8
Default
100
AcDbVertex
100
AcDb2dVertex
 10
29.68023503942431
 20
24.68083533612921
 30
0.0
  0
VERTEX
  5
5C2
330
551
100
AcDbEntity
  8
Default
100
AcDbVertex
100
AcDb2dVertex
 10
29.67951577116409
 20
24.7503290434887
 30
0.0
  0
VERTEX
  5
5C3
330
551
100
AcDbEntity
  8
Default
100
AcDbVertex
100
AcDb2dVertex
 10
29.67638248464378
 20
24.81975580507945
 30
0.0
  0
VERTEX
  5
5C4
330
551
100
AcDbEntity
  8
Default
100
AcDbVertex
100
AcDb2dVertex
 10
29.67083896322278
 20
24.88903178994905
 30
0.0
  0
VERTEX
  5
5C5
330
551
100
AcDbEntity
  8
Default
100
AcDbVertex
100
AcDb2dVertex
 10
29.66289190055454
 20
24.95807334920393
 30
0.0
  0
VERTEX
  5
5C6
330
551
100
AcDbEntity
  8
Default
100
AcDbVertex
100
AcDb2dVertex
 10
29.65255089250406
 20
25.02679711701316
 30
0.0
  0
VERTEX
  5
5C7
330
551
100
AcDbEntity
  8
Default
100
AcDbVertex
100
AcDb2dVertex
 10
29.63982842556118
 20
25.09512011127048
 30
0.0
  0
VERTEX
  5
5C8
330
551
100
AcDbEntity
  8
Default
100
AcDbVertex
100
AcDb2dVertex
 10
29.62473986176349
 20
25.16295983379291
 30
0.0
  0
VERTEX
  5
5C9
330
551
100
AcDbEntity
  8
Default
100
AcDbVertex
100
AcDb2dVertex
 10
29.60730342014707
 20
25.23023436993516
 30
0.0
  0
VERTEX
  5
5CA
330
551
100
AcDbEntity
  8
Default
100
AcDbVertex
100
AcDb2dVertex
 10
29.58754015474746
 20
25.29686248749931
 30
0.0
  0
VERTEX
  5
5CB
330
551
100
AcDbEntity
  8
Default
100
AcDbVertex
100
AcDb2dVertex
 10
29.56547392917755
 20
25.36276373482055
 30
0.0
  0
VERTEX
  5
5CC
330
551
100
AcDbEntity
  8
Default
100
AcDbVertex
100
AcDb2dVertex
 10
29.54113138781282
 20
25.42785853791039
 30
0.0
  0
VERTEX
  5
5CD
330
551
100
AcDbEntity
  8
Default
100
AcDbVertex
100
AcDb2dVertex
 10
29.51454192361905
 20
25.49206829654009
 30
0.0
  0
VERTEX
  5
5CE
330
551
100
AcDbEntity
  8
Default
100
AcDbVertex
100
AcDb2dVertex
 10
29.48573764266105
 20
25.55531547914842
 30
0.0
  0
VERTEX
  5
5CF
330
551
100
AcDbEntity
  8
Default
100
AcDbVertex
100
AcDb2dVertex
 10
29.45475332533547
 20
25.61752371645881
 30
0.0
  0
VERTEX
  5
5D0
330
551
100
AcDbEntity
  8
Default
100
AcDbVertex
100
AcDb2dVertex
 10
29.4216263843744
 20
25.67861789369329
 30
0.0
  0
VERTEX
  5
5D1
330
551
100
AcDbEntity
  8
Default
100
AcDbVertex
100
AcDb2dVertex
 10
29.38639681967049
 20
25.73852424127158
 30
0.0
  0
VERTEX
  5
5D2
330
551
100
AcDbEntity
  8
Default
100
AcDbVertex
100
AcDb2dVertex
 10
29.34910716997818
 20
25.79717042388582
 30
0.0
  0
VERTEX
  5
5D3
330
551
100
AcDbEntity
  8
Default
100
AcDbVertex
100
AcDb2dVertex
 10
29.30980246154926
 20
25.85448562784354
 30
0.0
  0
VERTEX
  5
5D4
330
551
100
AcDbEntity
  8
Default
100
AcDbVertex
100
AcDb2dVertex
 10
29.26853015376491
 20
25.91040064657332
 30
0.0
  0
VERTEX
  5
5D5
330
551
100
AcDbEntity
  8
Default
100
AcDbVertex
100
AcDb2dVertex
 10
29.22534008182974
 20
25.96484796418982
 30
0.0
  0
VERTEX
  5
5D6
330
551
100
AcDbEntity
  8
Default
100
AcDbVertex
100
AcDb2dVertex
 10
29.18028439659714
 20
26.01776183701745
 30
0.0
  0
SEQEND
  5
5D7
330
551
100
AcDbEntity
  8
Default
  0
POLYLINE
  5
5D8
330
1F
100
AcDbEntity
  8
Default
100
AcDb2dPolyline
 66
     1
 10
0.0
 20
0.0
 30
0.0
  0
VERTEX
  5
5D9
330
5D8
100
AcDbEntity
  8
Default
100
AcDbVertex
100
AcDb2dVertex
 10
29.18028439659714
 20
26.01776183701745
 30
0.0
  0
VERTEX
  5
5DA
330
5D8
100
AcDbEntity
  8
Default
100
AcDbVertex
100
AcDb2dVertex
 10
29.18028439659715
 20
28.27399221511978
 30
0.0
  0
SEQEND
  5
5DB
330
5D8
100
AcDbEntity
  8
Default
  0
POLYLINE
  5
5DC
330
1F
100
AcDbEntity
  8
Default
100
AcDb2dPolyline
 66
     1
 10
0.0
 20
0.0
 30
0.0
  0
VERTEX
  5
5DD
330
5DC
100
AcDbEntity
  8
Default
100
AcDbVertex
100
AcDb2dVertex
 10
29.18028439659715
 20
28.27399221511978
 30
0.0
  0
VERTEX
  5
5DE
330
5DC
100
AcDbEntity
  8
Default
100
AcDbVertex
100
AcDb2dVertex
 10
29.18058491774806
 20
28.29132515595352
 30
0.0
  0
VERTEX
  5
5DF
330
5DC
100
AcDbEntity
  8
Default
100
AcDbVertex
100
AcDb2dVertex
 10
29.18148611994893
 20
28.30863726112596
 30
0.0
  0
VERTEX
  5
5E0
330
5DC
100
AcDbEntity
  8
Default
100
AcDbVertex
100
AcDb2dVertex
 10
29.18298691987849
 20
28.325907720022
 30
0.0
  0
VERTEX
  5
5E1
330
5DC
100
AcDbEntity
  8
Default
100
AcDbVertex
100
AcDb2dVertex
 10
29.18508551344823
 20
28.3431157720889
 30
0.0
  0
VERTEX
  5
5E2
330
5DC
100
AcDbEntity
  8
Default
100
AcDbVertex
100
AcDb2dVertex
 10
29.18777937797114
 20
28.36024073179223
 30
0.0
  0
VERTEX
  5
5E3
330
5DC
100
AcDbEntity
  8
Default
100
AcDbVertex
100
AcDb2dVertex
 10
29.19106527519416
 20
28.37726201348158
 30
0.0
  0
VERTEX
  5
5E4
330
5DC
100
AcDbEntity
  8
Default
100
AcDbVertex
100
AcDb2dVertex
 10
29.19493925519082
 20
28.39415915613629
 30
0.0
  0
VERTEX
  5
5E5
330
5DC
100
AcDbEntity
  8
Default
100
AcDbVertex
100
AcDb2dVertex
 10
29.19939666110941
 20
28.41091184796135
 30
0.0
  0
VERTEX
  5
5E6
330
5DC
100
AcDbEntity
  8
Default
100
AcDbVertex
100
AcDb2dVertex
 10
29.2044321347709
 20
28.42749995080383
 30
0.0
  0
VERTEX
  5
5E7
330
5DC
100
AcDbEntity
  8
Default
100
AcDbVertex
100
AcDb2dVertex
 10
29.21003962310994
 20
28.44390352436071
 30
0.0
  0
VERTEX
  5
5E8
330
5DC
100
AcDbEntity
  8
Default
100
AcDbVertex
100
AcDb2dVertex
 10
29.21621238545113
 20
28.46010285014876
 30
0.0
  0
VERTEX
  5
5E9
330
5DC
100
AcDbEntity
  8
Default
100
AcDbVertex
100
AcDb2dVertex
 10
29.2229430016119
 20
28.47607845520788
 30
0.0
  0
VERTEX
  5
5EA
330
5DC
100
AcDbEntity
  8
Default
100
AcDbVertex
100
AcDb2dVertex
 10
29.23022338082218
 20
28.49181113550917
 30
0.0
  0
VERTEX
  5
5EB
330
5DC
100
AcDbEntity
  8
Default
100
AcDbVertex
100
AcDb2dVertex
 10
29.23804477145022
 20
28.50728197903989
 30
0.0
  0
VERTEX
  5
5EC
330
5DC
100
AcDbEntity
  8
Default
100
AcDbVertex
100
AcDb2dVertex
 10
29.24639777152276
 20
28.52247238853721
 30
0.0
  0
VERTEX
  5
5ED
330
5DC
100
AcDbEntity
  8
Default
100
AcDbVertex
100
AcDb2dVertex
 10
29.25527234002703
 20
28.53736410384376
 30
0.0
  0
VERTEX
  5
5EE
330
5DC
100
AcDbEntity
  8
Default
100
AcDbVertex
100
AcDb2dVertex
 10
29.26465780898086
 20
28.55193922385785
 30
0.0
  0
VERTEX
  5
5EF
330
5DC
100
AcDbEntity
  8
Default
100
AcDbVertex
100
AcDb2dVertex
 10
29.27454289625653
 20
28.56618022805211
 30
0.0
  0
VERTEX
  5
5F0
330
5DC
100
AcDbEntity
  8
Default
100
AcDbVertex
100
AcDb2dVertex
 10
29.28491571914281
 20
28.58006999753465
 30
0.0
  0
VERTEX
  5
5F1
330
5DC
100
AcDbEntity
  8
Default
100
AcDbVertex
100
AcDb2dVertex
 10
29.29576380862902
 20
28.59359183562744
 30
0.0
  0
VERTEX
  5
5F2
330
5DC
100
AcDbEntity
  8
Default
100
AcDbVertex
100
AcDb2dVertex
 10
29.3070741243938
 20
28.60672948793709
 30
0.0
  0
VERTEX
  5
5F3
330
5DC
100
AcDbEntity
  8
Default
100
AcDbVertex
100
AcDb2dVertex
 10
29.31883307048072
 20
28.61946716189403
 30
0.0
  0
VERTEX
  5
5F4
330
5DC
100
AcDbEntity
  8
Default
100
AcDbVertex
100
AcDb2dVertex
 10
29.33102651164172
 20
28.63178954573651
 30
0.0
  0
VERTEX
  5
5F5
330
5DC
100
AcDbEntity
  8
Default
100
AcDbVertex
100
AcDb2dVertex
 10
29.34363979032893
 20
28.64368182691664
 30
0.0
  0
VERTEX
  5
5F6
330
5DC
100
AcDbEntity
  8
Default
100
AcDbVertex
100
AcDb2dVertex
 10
29.35665774431423
 20
28.6551297099063
 30
0.0
  0
VERTEX
  5
5F7
330
5DC
100
AcDbEntity
  8
Default
100
AcDbVertex
100
AcDb2dVertex
 10
29.37006472491556
 20
28.66611943338161
 30
0.0
  0
VERTEX
  5
5F8
330
5DC
100
AcDbEntity
  8
Default
100
AcDbVertex
100
AcDb2dVertex
 10
29.38384461580796
 20
28.67663778676519
 30
0.0
  0
VERTEX
  5
5F9
330
5DC
100
AcDbEntity
  8
Default
100
AcDbVertex
100
AcDb2dVertex
 10
29.39798085239676
 20
28.68667212610637
 30
0.0
  0
VERTEX
  5
5FA
330
5DC
100
AcDbEntity
  8
Default
100
AcDbVertex
100
AcDb2dVertex
 10
29.41245644172959
 20
28.69621038928032
 30
0.0
  0
VERTEX
  5
5FB
330
5DC
100
AcDbEntity
  8
Default
100
AcDbVertex
100
AcDb2dVertex
 10
29.42725398292339
 20
28.70524111048774
 30
0.0
  0
VERTEX
  5
5FC
330
5DC
100
AcDbEntity
  8
Default
100
AcDbVertex
100
AcDb2dVertex
 10
29.44235568808172
 20
28.7137534340377
 30
0.0
  0
VERTEX
  5
5FD
330
5DC
100
AcDbEntity
  8
Default
100
AcDbVertex
100
AcDb2dVertex
 10
29.45774340367732
 20
28.72173712739713
 30
0.0
  0
VERTEX
  5
5FE
330
5DC
100
AcDbEntity
  8
Default
100
AcDbVertex
100
AcDb2dVertex
 10
29.47339863237418
 20
28.72918259349115
 30
0.0
  0
VERTEX
  5
5FF
330
5DC
100
AcDbEntity
  8
Default
100
AcDbVertex
100
AcDb2dVertex
 10
29.48930255526292
 20
28.73608088223962
 30
0.0
  0
VERTEX
  5
600
330
5DC
100
AcDbEntity
  8
Default
100
AcDbVertex
100
AcDb2dVertex
 10
29.50543605448271
 20
28.74242370131582
 30
0.0
  0
VERTEX
  5
601
330
5DC
100
AcDbEntity
  8
Default
100
AcDbVertex
100
AcDb2dVertex
 10
29.52177973620253
 20
28.74820342611461
 30
0.0
  0
VERTEX
  5
602
330
5DC
100
AcDbEntity
  8
Default
100
AcDbVertex
100
AcDb2dVertex
 10
29.5383139539342
 20
28.75341310891779
 30
0.0
  0
VERTEX
  5
603
330
5DC
100
AcDbEntity
  8
Default
100
AcDbVertex
100
AcDb2dVertex
 10
29.55501883214918
 20
28.75804648724588
 30
0.0
  0
VERTEX
  5
604
330
5DC
100
AcDbEntity
  8
Default
100
AcDbVertex
100
AcDb2dVertex
 10
29.57187429017054
 20
28.76209799138612
 30
0.0
  0
VERTEX
  5
605
330
5DC
100
AcDbEntity
  8
Default
100
AcDbVertex
100
AcDb2dVertex
 10
29.58886006631172
 20
28.76556275108777
 30
0.0
  0
VERTEX
  5
606
330
5DC
100
AcDbEntity
  8
Default
100
AcDbVertex
100
AcDb2dVertex
 10
29.60595574223273
 20
28.76843660141653
 30
0.0
  0
VERTEX
  5
607
330
5DC
100
AcDbEntity
  8
Default
100
AcDbVertex
100
AcDb2dVertex
 10
29.62314076748476
 20
28.77071608776117
 30
0.0
  0
VERTEX
  5
608
330
5DC
100
AcDbEntity
  8
Default
100
AcDbVertex
100
AcDb2dVertex
 10
29.64039448421354
 20
28.77239846998625
 30
0.0
  0
VERTEX
  5
609
330
5DC
100
AcDbEntity
  8
Default
100
AcDbVertex
100
AcDb2dVertex
 10
29.65769615199184
 20
28.773481725726
 30
0.0
  0
VERTEX
  5
60A
330
5DC
100
AcDbEntity
  8
Default
100
AcDbVertex
100
AcDb2dVertex
 10
29.6750249727512
 20
28.77396455281538
 30
0.0
  0
VERTEX
  5
60B
330
5DC
100
AcDbEntity
  8
Default
100
AcDbVertex
100
AcDb2dVertex
 10
29.692360115783
 20
28.77384637085537
 30
0.0
  0
VERTEX
  5
60C
330
5DC
100
AcDbEntity
  8
Default
100
AcDbVertex
100
AcDb2dVertex
 10
29.70968074277868
 20
28.77312732191069
 30
0.0
  0
VERTEX
  5
60D
330
5DC
100
AcDbEntity
  8
Default
100
AcDbVertex
100
AcDb2dVertex
 10
29.72696603287921
 20
28.771808270339
 30
0.0
  0
VERTEX
  5
60E
330
5DC
100
AcDbEntity
  8
Default
100
AcDbVertex
100
AcDb2dVertex
 10
29.74419520770349
 20
28.76989080175189
 30
0.0
  0
VERTEX
  5
60F
330
5DC
100
AcDbEntity
  8
Default
100
AcDbVertex
100
AcDb2dVertex
 10
29.76134755632574
 20
28.76737722110883
 30
0.0
  0
VERTEX
  5
610
330
5DC
100
AcDbEntity
  8
Default
100
AcDbVertex
100
AcDb2dVertex
 10
29.77840246017176
 20
28.7642705499464
 30
0.0
  0
VERTEX
  5
611
330
5DC
100
AcDbEntity
  8
Default
100
AcDbVertex
100
AcDb2dVertex
 10
29.79533941780421
 20
28.76057452274619
 30
0.0
  0
VERTEX
  5
612
330
5DC
100
AcDbEntity
  8
Default
100
AcDbVertex
100
AcDb2dVertex
 10
29.8121380695671
 20
28.75629358244557
 30
0.0
  0
VERTEX
  5
613
330
5DC
100
AcDbEntity
  8
Default
100
AcDbVertex
100
AcDb2dVertex
 10
29.82877822205979
 20
28.75143287509698
 30
0.0
  0
VERTEX
  5
614
330
5DC
100
AcDbEntity
  8
Default
100
AcDbVertex
100
AcDb2dVertex
 10
29.84523987241115
 20
28.74599824368189
 30
0.0
  0
VERTEX
  5
615
330
5DC
100
AcDbEntity
  8
Default
100
AcDbVertex
100
AcDb2dVertex
 10
29.86150323232475
 20
28.73999622108704
 30
0.0
  0
VERTEX
  5
616
330
5DC
100
AcDbEntity
  8
Default
100
AcDbVertex
100
AcDb2dVertex
 10
29.87754875186603
 20
28.73343402225138
 30
0.0
  0
VERTEX
  5
617
330
5DC
100
AcDbEntity
  8
Default
100
AcDbVertex
100
AcDb2dVertex
 10
29.89335714296299
 20
28.7263195354931
 30
0.0
  0
VERTEX
  5
618
330
5DC
100
AcDbEntity
  8
Default
100
AcDbVertex
100
AcDb2dVertex
 10
29.9089094025921
 20
28.71866131302721
 30
0.0
  0
VERTEX
  5
619
330
5DC
100
AcDbEntity
  8
Default
100
AcDbVertex
100
AcDb2dVertex
 10
29.92418683562149
 20
28.710468560685
 30
0.0
  0
SEQEND
  5
61A
330
5DC
100
AcDbEntity
  8
Default
  0
POLYLINE
  5
61B
330
1F
100
AcDbEntity
  8
Default
100
AcDb2dPolyline
 66
     1
 10
0.0
 20
0.0
 30
0.0
  0
VERTEX
  5
61C
330
61B
100
AcDbEntity
  8
Default
100
AcDbVertex
100
AcDb2dVertex
 10
30.93592213740274
 20
5.44954840205814
 30
0.0
  0
VERTEX
  5
61D
330
61B
100
AcDbEntity
  8
Default
100
AcDbVertex
100
AcDb2dVertex
 10
35.1842107985627
 20
5.44954840205814
 30
0.0
  0
SEQEND
  5
61E
330
61B
100
AcDbEntity
  8
Default
  0
POLYLINE
  5
61F
330
1F
100
AcDbEntity
  8
Default
100
AcDb2dPolyline
 66
     1
 10
0.0
 20
0.0
 30
0.0
  0
VERTEX
  5
620
330
61F
100
AcDbEntity
  8
Default
100
AcDbVertex
100
AcDb2dVertex
 10
35.1842107985627
 20
5.44954840205814
 30
0.0
  0
VERTEX
  5
621
330
61F
100
AcDbEntity
  8
Default
100
AcDbVertex
100
AcDb2dVertex
 10
30.93592213740274
 20
5.44954840205814
 30
0.0
  0
SEQEND
  5
622
330
61F
100
AcDbEntity
  8
Default
  0
POLYLINE
  5
623
330
1F
100
AcDbEntity
  8
Default
100
AcDb2dPolyline
 66
     1
 10
0.0
 20
0.0
 30
0.0
  0
VERTEX
  5
624
330
623
100
AcDbEntity
  8
Default
100
AcDbVertex
100
AcDb2dVertex
 10
34.56717494886853
 20
6.518285843819878
 30
0.0
  0
VERTEX
  5
625
330
623
100
AcDbEntity
  8
Default
100
AcDbVertex
100
AcDb2dVertex
 10
27.87184938654527
 20
18.11492989097842
 30
0.0
  0
SEQEND
  5
626
330
623
100
AcDbEntity
  8
Default
  0
POLYLINE
  5
627
330
1F
100
AcDbEntity
  8
Default
100
AcDb2dPolyline
 66
     1
 10
0.0
 20
0.0
 30
0.0
  0
VERTEX
  5
628
330
627
100
AcDbEntity
  8
Default
100
AcDbVertex
100
AcDb2dVertex
 10
27.87184938654527
 20
18.11492989097842
 30
0.0
  0
VERTEX
  5
629
330
627
100
AcDbEntity
  8
Default
100
AcDbVertex
100
AcDb2dVertex
 10
25.74770505596529
 20
14.43580398780452
 30
0.0
  0
SEQEND
  5
62A
330
627
100
AcDbEntity
  8
Default
  0
POLYLINE
  5
62B
330
1F
100
AcDbEntity
  8
Default
100
AcDb2dPolyline
 66
     1
 10
0.0
 20
0.0
 30
0.0
  0
VERTEX
  5
62C
330
62B
100
AcDbEntity
  8
Default
100
AcDbVertex
100
AcDb2dVertex
 10
25.74770505596529
 20
14.43580398780452
 30
0.0
  0
VERTEX
  5
62D
330
62B
100
AcDbEntity
  8
Default
100
AcDbVertex
100
AcDb2dVertex
 10
27.87184938654527
 20
10.75667808463063
 30
0.0
  0
SEQEND
  5
62E
330
62B
100
AcDbEntity
  8
Default
  0
POLYLINE
  5
62F
330
1F
100
AcDbEntity
  8
Default
100
AcDb2dPolyline
 66
     1
 10
0.0
 20
0.0
 30
0.0
  0
VERTEX
  5
630
330
62F
100
AcDbEntity
  8
Default
100
AcDbVertex
100
AcDb2dVertex
 10
27.87184938654527
 20
10.75667808463063
 30
0.0
  0
VERTEX
  5
631
330
62F
100
AcDbEntity
  8
Default
100
AcDbVertex
100
AcDb2dVertex
 10
25.13066920627113
 20
13.36706654604279
 30
0.0
  0
SEQEND
  5
632
330
62F
100
AcDbEntity
  8
Default
  0
POLYLINE
  5
633
330
1F
100
AcDbEntity
  8
Default
100
AcDb2dPolyline
 66
     1
 10
0.0
 20
0.0
 30
0.0
  0
VERTEX
  5
634
330
633
100
AcDbEntity
  8
Default
100
AcDbVertex
100
AcDb2dVertex
 10
25.13066920627113
 20
13.36706654604279
 30
0.0
  0
VERTEX
  5
635
330
633
100
AcDbEntity
  8
Default
100
AcDbVertex
100
AcDb2dVertex
 10
18.43534364394786
 20
1.770422498884253
 30
0.0
  0
SEQEND
  5
636
330
633
100
AcDbEntity
  8
Default
  0
POLYLINE
  5
637
330
1F
100
AcDbEntity
  8
Default
100
AcDb2dPolyline
 66
     1
 10
0.0
 20
0.0
 30
0.0
  0
VERTEX
  5
638
330
637
100
AcDbEntity
  8
Default
100
AcDbVertex
100
AcDb2dVertex
 10
18.43534364394786
 20
1.770422498884253
 30
0.0
  0
VERTEX
  5
639
330
637
100
AcDbEntity
  8
Default
100
AcDbVertex
100
AcDb2dVertex
 10
22.68363230510781
 20
1.770422498884251
 30
0.0
  0
SEQEND
  5
63A
330
637
100
AcDbEntity
  8
Default
  0
POLYLINE
  5
63B
330
1F
100
AcDbEntity
  8
Default
100
AcDb2dPolyline
 66
     1
 10
0.0
 20
0.0
 30
0.0
  0
VERTEX
  5
63C
330
63B
100
AcDbEntity
  8
Default
100
AcDbVertex
100
AcDb2dVertex
 10
22.68363230510781
 20
1.770422498884251
 30
0.0
  0
VERTEX
  5
63D
330
63B
100
AcDbEntity
  8
Default
100
AcDbVertex
100
AcDb2dVertex
 10
24.80777663568778
 20
5.44954840205814
 30
0.0
  0
SEQEND
  5
63E
330
63B
100
AcDbEntity
  8
Default
  0
POLYLINE
  5
63F
330
1F
100
AcDbEntity
  8
Default
100
AcDb2dPolyline
 66
     1
 10
0.0
 20
0.0
 30
0.0
  0
VERTEX
  5
640
330
63F
100
AcDbEntity
  8
Default
100
AcDbVertex
100
AcDb2dVertex
 10
24.80777663568778
 20
5.44954840205814
 30
0.0
  0
VERTEX
  5
641
330
63F
100
AcDbEntity
  8
Default
100
AcDbVertex
100
AcDb2dVertex
 10
23.91770400449615
 20
1.77042249888425
 30
0.0
  0
SEQEND
  5
642
330
63F
100
AcDbEntity
  8
Default
  0
POLYLINE
  5
643
330
1F
100
AcDbEntity
  8
Default
100
AcDb2dPolyline
 66
     1
 10
0.0
 20
0.0
 30
0.0
  0
VERTEX
  5
644
330
643
100
AcDbEntity
  8
Default
100
AcDbVertex
100
AcDb2dVertex
 10
23.91770400449615
 20
1.77042249888425
 30
0.0
  0
VERTEX
  5
645
330
643
100
AcDbEntity
  8
Default
100
AcDbVertex
100
AcDb2dVertex
 10
37.30835512914267
 20
1.770422498884245
 30
0.0
  0
SEQEND
  5
646
330
643
100
AcDbEntity
  8
Default
  0
POLYLINE
  5
647
330
1F
100
AcDbEntity
  8
Default
100
AcDb2dPolyline
 66
     1
 10
0.0
 20
0.0
 30
0.0
  0
VERTEX
  5
648
330
647
100
AcDbEntity
  8
Default
100
AcDbVertex
100
AcDb2dVertex
 10
37.30835512914267
 20
1.770422498884245
 30
0.0
  0
VERTEX
  5
649
330
647
100
AcDbEntity
  8
Default
100
AcDbVertex
100
AcDb2dVertex
 10
35.1842107985627
 20
5.449548402058142
 30
0.0
  0
SEQEND
  5
64A
330
647
100
AcDbEntity
  8
Default
  0
POLYLINE
  5
64B
330
1F
100
AcDbEntity
  8
Default
100
AcDb2dPolyline
 66
     1
 10
0.0
 20
0.0
 30
0.0
  0
VERTEX
  5
64C
330
64B
100
AcDbEntity
  8
Default
100
AcDbVertex
100
AcDb2dVertex
 10
30.93592213740274
 20
5.44954840205814
 30
0.0
  0
VERTEX
  5
64D
330
64B
100
AcDbEntity
  8
Default
100
AcDbVertex
100
AcDb2dVertex
 10
27.87184938654527
 20
10.75667808463063
 30
0.0
  0
SEQEND
  5
64E
330
64B
100
AcDbEntity
  8
Default
  0
POLYLINE
  5
64F
330
1F
100
AcDbEntity
  8
Default
100
AcDb2dPolyline
 66
     1
 10
0.0
 20
0.0
 30
0.0
  0
VERTEX
  5
650
330
64F
100
AcDbEntity
  8
Default
100
AcDbVertex
100
AcDb2dVertex
 10
27.87184938654527
 20
10.75667808463063
 30
0.0
  0
VERTEX
  5
651
330
64F
100
AcDbEntity
  8
Default
100
AcDbVertex
100
AcDb2dVertex
 10
24.80777663568778
 20
5.449548402058142
 30
0.0
  0
SEQEND
  5
652
330
64F
100
AcDbEntity
  8
Default
  0
POLYLINE
  5
653
330
1F
100
AcDbEntity
  8
Default
100
AcDb2dPolyline
 66
     1
 10
0.0
 20
0.0
 30
0.0
  0
VERTEX
  5
654
330
653
100
AcDbEntity
  8
Default
100
AcDbVertex
100
AcDb2dVertex
 10
24.80777663568778
 20
5.449548402058142
 30
0.0
  0
VERTEX
  5
655
330
653
100
AcDbEntity
  8
Default
100
AcDbVertex
100
AcDb2dVertex
 10
30.93592213740275
 20
5.449548402058142
 30
0.0
  0
SEQEND
  5
656
330
653
100
AcDbEntity
  8
Default
  0
ENDSEC
  0
SECTION
  2
OBJECTS
  0
DICTIONARY
  5
C
330
0
100
AcDbDictionary
281
     1
  3
ACAD_DETAILVIEWSTYLE
350
692
  3
ACAD_GROUP
350
D
  3
ACAD_LAYOUT
350
1A
  3
ACAD_MATERIAL
350
43
  3
ACAD_MLEADERSTYLE
350
6B
  3
ACAD_MLINESTYLE
350
17
  3
ACAD_PLOTSETTINGS
350
19
  3
ACAD_PLOTSTYLENAME
350
E
  3
ACAD_SCALELIST
350
47
  3
ACAD_SECTIONVIEWSTYLE
350
693
  3
ACAD_TABLESTYLE
350
69
  3
ACAD_VISUALSTYLE
350
2A
  3
ACDB_RECOMPOSE_DATA
350
68F
  3
AcDbVariableDictionary
350
657
  0
SUN
  5
6D
330
29
100
AcDbSun
 90
        1
290
     0
 63
     7
421
 16777215
 40
1.0
291
     1
 91
  2455826
 92
 54000000
292
     0
 70
     2
 71
   256
280
     1
  0
DICTIONARY
  5
692
102
{ACAD_REACTORS
330
C
102
}
330
C
100
AcDbDictionary
281
     1
  0
DICTIONARY
  5
D
102
{ACAD_REACTORS
330
C
102
}
330
C
100
AcDbDictionary
281
     1
  0
DICTIONARY
  5
1A
102
{ACAD_REACTORS
330
C
102
}
330
C
100
AcDbDictionary
281
     1
  3
Layout1
350
1E
  3
Layout2
350
26
  3
Model
350
22
  0
DICTIONARY
  5
43
102
{ACAD_REACTORS
330
C
102
}
330
C
100
AcDbDictionary
281
     1
  3
ByBlock
350
45
  3
ByLayer
350
44
  3
Global
350
46
  0
DICTIONARY
  5
6B
102
{ACAD_REACTORS
330
C
102
}
330
C
100
AcDbDictionary
281
     1
  3
Standard
350
6C
  0
DICTIONARY
  5
17
102
{ACAD_REACTORS
330
C
102
}
330
C
100
AcDbDictionary
281
     1
  3
Standard
350
18
  0
DICTIONARY
  5
19
102
{ACAD_REACTORS
330
C
102
}
330
C
100
AcDbDictionary
281
     1
  0
ACDBDICTIONARYWDFLT
  5
E
102
{ACAD_REACTORS
330
C
102
}
330
C
100
AcDbDictionary
281
     1
  3
Normal
350
F
100
AcDbDictionaryWithDefault
340
F
  0
DICTIONARY
  5
47
102
{ACAD_REACTORS
330
C
102
}
330
C
100
AcDbDictionary
281
     1
  3
A0
350
48
  3
A1
350
49
  3
A2
350
4A
  3
A3
350
4B
  3
A4
350
4C
  3
A5
350
4D
  3
A6
350
4E
  3
A7
350
4F
  3
A8
350
50
  3
A9
350
51
  3
B0
350
52
  3
B1
350
53
  3
B2
350
54
  3
B3
350
55
  3
B4
350
56
  3
B5
350
57
  3
B6
350
58
  3
B7
350
59
  3
B8
350
5A
  3
B9
350
5B
  3
C0
350
5C
  3
C1
350
5D
  3
C2
350
5E
  3
C3
350
5F
  3
C4
350
60
  3
C5
350
61
  3
C6
350
62
  3
C7
350
63
  3
C8
350
64
  3
C9
350
65
  3
D0
350
66
  3
D1
350
67
  3
D2
350
68
  0
DICTIONARY
  5
693
102
{ACAD_REACTORS
330
C
102
}
330
C
100
AcDbDictionary
281
     1
  0
DICTIONARY
  5
69
102
{ACAD_REACTORS
330
C
102
}
330
C
100
AcDbDictionary
281
     1
  3
Standard
350
6A
  0
DICTIONARY
  5
2A
102
{ACAD_REACTORS
330
C
102
}
330
C
100
AcDbDictionary
281
     1
  3
2dWireframe
350
2F
  3
Basic
350
32
  3
Brighten
350
36
  3
ColorChange
350
3A
  3
Conceptual
350
34
  3
Dim
350
35
  3
EdgeColorOff
350
3D
  3
Facepattern
350
39
  3
Flat
350
2B
  3
FlatWithEdges
350
2C
  3
Gouraud
350
2D
  3
GouraudWithEdges
350
2E
  3
Hidden
350
31
  3
JitterOff
350
3B
  3
Linepattern
350
38
  3
OverhangOff
350
3C
  3
Realistic
350
33
  3
Shaded
350
42
  3
Shaded with edges
350
41
  3
Shades of Gray
350
3E
  3
Sketchy
350
3F
  3
Thicken
350
37
  3
Wireframe
350
30
  3
X-Ray
350
40
  0
XRECORD
  5
68F
102
{ACAD_REACTORS
330
C
102
}
330
C
100
AcDbXrecord
280
     1
 90
        1
330
6A
  0
DICTIONARY
  5
657
102
{ACAD_REACTORS
330
C
102
}
330
C
100
AcDbDictionary
281
     1
  3
CANNOSCALE
350
658
  3
CMLEADERSTYLE
350
691
  3
CTABLESTYLE
350
690
  3
XCLIPFRAME
350
659
  0
LAYOUT
  5
1E
102
{ACAD_REACTORS
330
1A
102
}
330
1A
100
AcDbPlotSettings
  1

  2
none_device
  4

  6

 40
0.0
 41
0.0
 42
0.0
 43
0.0
 44
0.0
 45
0.0
 46
0.0
 47
0.0
 48
0.0
 49
0.0
140
0.0
141
0.0
142
1.0
143
1.0
 70
   688
 72
     0
 73
     0
 74
     5
  7

 75
    16
 76
     0
 77
     2
 78
   300
147
1.0
148
0.0
149
0.0
100
AcDbLayout
  1
Layout1
 70
     1
 71
     1
 10
0.0
 20
0.0
 11
12.0
 21
9.0
 12
0.0
 22
0.0
 32
0.0
 14
1.000000000000000E+20
 24
1.000000000000000E+20
 34
1.000000000000000E+20
 15
-1.000000000000000E+20
 25
-1.000000000000000E+20
 35
-1.000000000000000E+20
146
0.0
 13
0.0
 23
0.0
 33
0.0
 16
1.0
 26
0.0
 36
0.0
 17
0.0
 27
1.0
 37
0.0
 76
     0
330
1B
  0
LAYOUT
  5
26
102
{ACAD_REACTORS
330
1A
102
}
330
1A
100
AcDbPlotSettings
  1

  2
none_device
  4

  6

 40
0.0
 41
0.0
 42
0.0
 43
0.0
 44
0.0
 45
0.0
 46
0.0
 47
0.0
 48
0.0
 49
0.0
140
0.0
141
0.0
142
1.0
143
1.0
 70
   688
 72
     0
 73
     0
 74
     5
  7

 75
    16
 76
     0
 77
     2
 78
   300
147
1.0
148
0.0
149
0.0
100
AcDbLayout
  1
Layout2
 70
     1
 71
     2
 10
0.0
 20
0.0
 11
0.0
 21
0.0
 12
0.0
 22
0.0
 32
0.0
 14
0.0
 24
0.0
 34
0.0
 15
0.0
 25
0.0
 35
0.0
146
0.0
 13
0.0
 23
0.0
 33
0.0
 16
1.0
 26
0.0
 36
0.0
 17
0.0
 27
1.0
 37
0.0
 76
     0
330
23
  0
LAYOUT
  5
22
102
{ACAD_REACTORS
330
1A
102
}
330
1A
100
AcDbPlotSettings
  1

  2
none_device
  4
Letter_(8.50_x_11.00_Inches)
  6

 40
6.35
 41
6.35
 42
6.35000508
 43
6.35000508
 44
215.9
 45
279.4
 46
0.0
 47
0.0
 48
0.0
 49
0.0
140
0.0
141
0.0
142
1.0
143
1.0
 70
  1712
 72
     0
 73
     0
 74
     0
  7

 75
     0
 76
     0
 77
     2
 78
   300
147
1.0
148
0.0
149
0.0
100
AcDbLayout
  1
Model
 70
     1
 71
     0
 10
0.0
 20
0.0
 11
12.0
 21
9.0
 12
0.0
 22
0.0
 32
0.0
 14
1.000000000000000E+20
 24
1.000000000000000E+20
 34
1.000000000000000E+20
 15
-1.000000000000000E+20
 25
-1.000000000000000E+20
 35
-1.000000000000000E+20
146
0.0
 13
0.0
 23
0.0
 33
0.0
 16
1.0
 26
0.0
 36
0.0
 17
0.0
 27
1.0
 37
0.0
 76
     0
330
1F
331
29
  0
MATERIAL
  5
45
102
{ACAD_REACTORS
330
43
102
}
330
43
100
AcDbMaterial
  1
ByBlock
 72
     1
 94
      127
  0
MATERIAL
  5
44
102
{ACAD_REACTORS
330
43
102
}
330
43
100
AcDbMaterial
  1
ByLayer
 72
     1
 94
      127
  0
MATERIAL
  5
46
102
{ACAD_REACTORS
330
43
102
}
330
43
100
AcDbMaterial
  1
Global
 72
     1
 94
      127
  0
MLEADERSTYLE
  5
6C
102
{ACAD_REACTORS
330
6B
102
}
102
{ACAD_XDICTIONARY
360
68D
102
}
330
6B
100
AcDbMLeaderStyle
170
     2
171
     1
172
     0
 90
        2
 40
0.0
 41
0.0
173
     1
 91
-1056964608
340
14
 92
       -2
290
     1
 42
0.09
291
     1
 43
0.36
  3
Standard
341
0
 44
0.18
300

342
11
174
     1
178
     6
175
     1
176
     0
 93
-1056964608
 45
0.18
292
     0
297
     0
 46
0.18
343
0
 94
-1056964608
 47
1.0
 49
1.0
140
1.0
293
     1
141
0.0
294
     1
177
     0
142
1.0
295
     0
296
     0
143
0.125
1001
ACAD_MLEADERVER
1070
     2
  0
MLINESTYLE
  5
18
102
{ACAD_REACTORS
330
17
102
}
330
17
100
AcDbMlineStyle
  2
Standard
 70
     0
  3

 62
   256
 51
90.0
 52
90.0
 71
     2
 49
0.5
 62
   256
  6
BYLAYER
 49
-0.5
 62
   256
  6
BYLAYER
  0
ACDBPLACEHOLDER
  5
F
102
{ACAD_REACTORS
330
E
102
}
330
E
  0
SCALE
  5
48
102
{ACAD_REACTORS
330
47
102
}
330
47
100
AcDbScale
 70
     0
300
1:1
140
1.0
141
1.0
290
     1
  0
SCALE
  5
49
102
{ACAD_REACTORS
330
47
102
}
330
47
100
AcDbScale
 70
     0
300
1:2
140
1.0
141
2.0
290
     0
  0
SCALE
  5
4A
102
{ACAD_REACTORS
330
47
102
}
330
47
100
AcDbScale
 70
     0
300
1:4
140
1.0
141
4.0
290
     0
  0
SCALE
  5
4B
102
{ACAD_REACTORS
330
47
102
}
330
47
100
AcDbScale
 70
     0
300
1:5
140
1.0
141
5.0
290
     0
  0
SCALE
  5
4C
102
{ACAD_REACTORS
330
47
102
}
330
47
100
AcDbScale
 70
     0
300
1:8
140
1.0
141
8.0
290
     0
  0
SCALE
  5
4D
102
{ACAD_REACTORS
330
47
102
}
330
47
100
AcDbScale
 70
     0
300
1:10
140
1.0
141
10.0
290
     0
  0
SCALE
  5
4E
102
{ACAD_REACTORS
330
47
102
}
330
47
100
AcDbScale
 70
     0
300
1:16
140
1.0
141
16.0
290
     0
  0
SCALE
  5
4F
102
{ACAD_REACTORS
330
47
102
}
330
47
100
AcDbScale
 70
     0
300
1:20
140
1.0
141
20.0
290
     0
  0
SCALE
  5
50
102
{ACAD_REACTORS
330
47
102
}
330
47
100
AcDbScale
 70
     0
300
1:30
140
1.0
141
30.0
290
     0
  0
SCALE
  5
51
102
{ACAD_REACTORS
330
47
102
}
330
47
100
AcDbScale
 70
     0
300
1:40
140
1.0
141
40.0
290
     0
  0
SCALE
  5
52
102
{ACAD_REACTORS
330
47
102
}
330
47
100
AcDbScale
 70
     0
300
1:50
140
1.0
141
50.0
290
     0
  0
SCALE
  5
53
102
{ACAD_REACTORS
330
47
102
}
330
47
100
AcDbScale
 70
     0
300
1:100
140
1.0
141
100.0
290
     0
  0
SCALE
  5
54
102
{ACAD_REACTORS
330
47
102
}
330
47
100
AcDbScale
 70
     0
300
2:1
140
2.0
141
1.0
290
     0
  0
SCALE
  5
55
102
{ACAD_REACTORS
330
47
102
}
330
47
100
AcDbScale
 70
     0
300
4:1
140
4.0
141
1.0
290
     0
  0
SCALE
  5
56
102
{ACAD_REACTORS
330
47
102
}
330
47
100
AcDbScale
 70
     0
300
8:1
140
8.0
141
1.0
290
     0
  0
SCALE
  5
57
102
{ACAD_REACTORS
330
47
102
}
330
47
100
AcDbScale
 70
     0
300
10:1
140
10.0
141
1.0
290
     0
  0
SCALE
  5
58
102
{ACAD_REACTORS
330
47
102
}
330
47
100
AcDbScale
 70
     0
300
100:1
140
100.0
141
1.0
290
     0
  0
SCALE
  5
59
102
{ACAD_REACTORS
330
47
102
}
330
47
100
AcDbScale
 70
     0
300
1/128" = 1'-0"
140
0.0078125
141
12.0
290
     0
  0
SCALE
  5
5A
102
{ACAD_REACTORS
330
47
102
}
330
47
100
AcDbScale
 70
     0
300
1/64" = 1'-0"
140
0.015625
141
12.0
290
     0
  0
SCALE
  5
5B
102
{ACAD_REACTORS
330
47
102
}
330
47
100
AcDbScale
 70
     0
300
1/32" = 1'-0"
140
0.03125
141
12.0
290
     0
  0
SCALE
  5
5C
102
{ACAD_REACTORS
330
47
102
}
330
47
100
AcDbScale
 70
     0
300
1/16" = 1'-0"
140
0.0625
141
12.0
290
     0
  0
SCALE
  5
5D
102
{ACAD_REACTORS
330
47
102
}
330
47
100
AcDbScale
 70
     0
300
3/32" = 1'-0"
140
0.09375
141
12.0
290
     0
  0
SCALE
  5
5E
102
{ACAD_REACTORS
330
47
102
}
330
47
100
AcDbScale
 70
     0
300
1/8" = 1'-0"
140
0.125
141
12.0
290
     0
  0
SCALE
  5
5F
102
{ACAD_REACTORS
330
47
102
}
330
47
100
AcDbScale
 70
     0
300
3/16" = 1'-0"
140
0.1875
141
12.0
290
     0
  0
SCALE
  5
60
102
{ACAD_REACTORS
330
47
102
}
330
47
100
AcDbScale
 70
     0
300
1/4" = 1'-0"
140
0.25
141
12.0
290
     0
  0
SCALE
  5
61
102
{ACAD_REACTORS
330
47
102
}
330
47
100
AcDbScale
 70
     0
300
3/8" = 1'-0"
140
0.375
141
12.0
290
     0
  0
SCALE
  5
62
102
{ACAD_REACTORS
330
47
102
}
330
47
100
AcDbScale
 70
     0
300
1/2" = 1'-0"
140
0.5
141
12.0
290
     0
  0
SCALE
  5
63
102
{ACAD_REACTORS
330
47
102
}
330
47
100
AcDbScale
 70
     0
300
3/4" = 1'-0"
140
0.75
141
12.0
290
     0
  0
SCALE
  5
64
102
{ACAD_REACTORS
330
47
102
}
330
47
100
AcDbScale
 70
     0
300
1" = 1'-0"
140
1.0
141
12.0
290
     0
  0
SCALE
  5
65
102
{ACAD_REACTORS
330
47
102
}
330
47
100
AcDbScale
 70
     0
300
1-1/2" = 1'-0"
140
1.5
141
12.0
290
     0
  0
SCALE
  5
66
102
{ACAD_REACTORS
330
47
102
}
330
47
100
AcDbScale
 70
     0
300
3" = 1'-0"
140
3.0
141
12.0
290
     0
  0
SCALE
  5
67
102
{ACAD_REACTORS
330
47
102
}
330
47
100
AcDbScale
 70
     0
300
6" = 1'-0"
140
6.0
141
12.0
290
     0
  0
SCALE
  5
68
102
{ACAD_REACTORS
330
47
102
}
330
47
100
AcDbScale
 70
     0
300
1'-0" = 1'-0"
140
12.0
141
12.0
290
     0
  0
TABLESTYLE
  5
6A
102
{ACAD_REACTORS
330
69
102
}
102
{ACAD_XDICTIONARY
360
68A
102
}
330
69
100
AcDbTableStyle
  3
Standard
 70
     0
 71
     0
 40
0.06
 41
0.06
280
     0
281
     0
  7
Standard
140
0.18
170
     2
 62
     0
 63
   257
283
     0
 90
        4
 91
        0
  1

274
    -2
284
     1
 64
     0
275
    -2
285
     1
 65
     0
276
    -2
286
     1
 66
     0
277
    -2
287
     1
 67
     0
278
    -2
288
     1
 68
     0
279
    -2
289
     1
 69
     0
  7
Standard
140
0.25
170
     5
 62
     0
 63
   257
283
     0
 90
        4
 91
        0
  1

274
    -2
284
     1
 64
     0
275
    -2
285
     1
 65
     0
276
    -2
286
     1
 66
     0
277
    -2
287
     1
 67
     0
278
    -2
288
     1
 68
     0
279
    -2
289
     1
 69
     0
  7
Standard
140
0.18
170
     5
 62
     0
 63
   257
283
     0
 90
        4
 91
        0
  1

274
    -2
284
     1
 64
     0
275
    -2
285
     1
 65
     0
276
    -2
286
     1
 66
     0
277
    -2
287
     1
 67
     0
278
    -2
288
     1
 68
     0
279
    -2
289
     1
 69
     0
  0
VISUALSTYLE
  5
2F
102
{ACAD_REACTORS
330
2A
102
}
102
{ACAD_XDICTIONARY
360
662
102
}
330
2A
100
AcDbVisualStyle
  2
2dWireframe
 70
     4
 71
     0
 72
     2
 73
     0
 90
        0
 40
0.6
 41
30.0
 62
     5
 63
     7
421
 16777215
 74
     1
 91
        4
 64
     7
 65
   257
 75
     1
175
     1
 42
1.0
 92
        0
 66
   257
 43
1.0
 76
     1
 77
     6
 78
     2
 67
     7
 79
     5
170
     0
171
     0
290
     0
174
     0
 93
        1
 44
0.0
173
     0
291
     0
 45
0.0
  0
VISUALSTYLE
  5
32
102
{ACAD_REACTORS
330
2A
102
}
102
{ACAD_XDICTIONARY
360
668
102
}
330
2A
100
AcDbVisualStyle
  2
Basic
 70
     7
 71
     1
 72
     0
 73
     1
 90
        0
 40
0.6
 41
30.0
 62
     5
 63
     7
421
 16777215
 74
     0
 91
        4
 64
     7
 65
   257
 75
     1
175
     1
 42
1.0
 92
        8
 66
     7
 43
1.0
 76
     1
 77
     6
 78
     2
 67
     7
 79
     5
170
     0
171
     0
290
     0
174
     0
 93
        1
 44
0.0
173
     0
291
     1
 45
0.0
  0
VISUALSTYLE
  5
36
102
{ACAD_REACTORS
330
2A
102
}
102
{ACAD_XDICTIONARY
360
670
102
}
330
2A
100
AcDbVisualStyle
  2
Brighten
 70
    12
 71
     2
 72
     2
 73
     0
 90
        0
 40
0.6
 41
30.0
 62
     5
 63
     7
421
 16777215
 74
     1
 91
        4
 64
     7
 65
   257
 75
     1
175
     1
 42
1.0
 92
        8
 66
     7
 43
1.0
 76
     1
 77
     6
 78
     2
 67
     7
 79
     5
170
     0
171
     0
290
     0
174
     0
 93
        1
 44
50.0
173
     0
291
     1
 45
0.0
  0
VISUALSTYLE
  5
3A
102
{ACAD_REACTORS
330
2A
102
}
102
{ACAD_XDICTIONARY
360
678
102
}
330
2A
100
AcDbVisualStyle
  2
ColorChange
 70
    16
 71
     2
 72
     2
 73
     3
 90
        0
 40
0.6
 41
30.0
 62
     5
 63
     8
421
  8421504
 74
     1
 91
        4
 64
     7
 65
   257
 75
     1
175
     1
 42
1.0
 92
        8
 66
     8
424
  8421504
 43
1.0
 76
     1
 77
     6
 78
     2
 67
     7
 79
     5
170
     0
171
     0
290
     0
174
     0
 93
        1
 44
0.0
173
     0
291
     1
 45
0.0
  0
VISUALSTYLE
  5
34
102
{ACAD_REACTORS
330
2A
102
}
102
{ACAD_XDICTIONARY
360
66C
102
}
330
2A
100
AcDbVisualStyle
  2
Conceptual
 70
     9
 71
     3
 72
     2
 73
     0
 90
        0
 40
0.6
 41
30.0
 62
     5
 63
     7
421
 16777215
 74
     2
 91
        2
 64
     7
 65
   257
 75
     1
175
     1
 42
179.0
 92
        8
 66
     7
 43
1.0
 76
     1
 77
     6
 78
     2
 67
     7
 79
     3
170
     0
171
     0
290
     0
174
     0
 93
        1
 44
0.0
173
     0
291
     0
 45
0.0
  0
VISUALSTYLE
  5
35
102
{ACAD_REACTORS
330
2A
102
}
102
{ACAD_XDICTIONARY
360
66E
102
}
330
2A
100
AcDbVisualStyle
  2
Dim
 70
    11
 71
     2
 72
     2
 73
     0
 90
        0
 40
0.6
 41
30.0
 62
     5
 63
     7
421
 16777215
 74
     1
 91
        4
 64
     7
 65
   257
 75
     1
175
     1
 42
1.0
 92
        8
 66
     7
 43
1.0
 76
     1
 77
     6
 78
     2
 67
     7
 79
     5
170
     0
171
     0
290
     0
174
     0
 93
        1
 44
-50.0
173
     0
291
     1
 45
0.0
  0
VISUALSTYLE
  5
3D
102
{ACAD_REACTORS
330
2A
102
}
102
{ACAD_XDICTIONARY
360
67E
102
}
330
2A
100
AcDbVisualStyle
  2
EdgeColorOff
 70
    22
 71
     2
 72
     2
 73
     0
 90
        0
 40
0.6
 41
30.0
 62
     5
 63
     7
421
 16777215
 74
     1
 91
        4
 64
     7
 65
   257
 75
     1
175
     1
 42
1.0
 92
        8
 66
     7
 43
1.0
 76
     1
 77
     6
 78
     2
 67
     7
 79
     5
170
     0
171
     0
290
     0
174
     0
 93
        1
 44
0.0
173
     0
291
     1
 45
0.0
  0
VISUALSTYLE
  5
39
102
{ACAD_REACTORS
330
2A
102
}
102
{ACAD_XDICTIONARY
360
676
102
}
330
2A
100
AcDbVisualStyle
  2
Facepattern
 70
    15
 71
     2
 72
     2
 73
     0
 90
        0
 40
0.6
 41
30.0
 62
     5
 63
     7
421
 16777215
 74
     1
 91
        4
 64
     7
 65
   257
 75
     1
175
     1
 42
1.0
 92
        8
 66
     7
 43
1.0
 76
     1
 77
     6
 78
     2
 67
     7
 79
     5
170
     0
171
     0
290
     0
174
     0
 93
        1
 44
0.0
173
     0
291
     1
 45
0.0
  0
VISUALSTYLE
  5
2B
102
{ACAD_REACTORS
330
2A
102
}
102
{ACAD_XDICTIONARY
360
65A
102
}
330
2A
100
AcDbVisualStyle
  2
Flat
 70
     0
 71
     2
 72
     1
 73
     1
 90
        2
 40
0.6
 41
30.0
 62
     5
 63
     7
421
 16777215
 74
     0
 91
        0
 64
     7
 65
   257
 75
     1
175
     1
 42
1.0
 92
        8
 66
     7
 43
1.0
 76
     1
 77
     6
 78
     2
 67
     7
 79
     5
170
     0
171
     0
290
     0
174
     0
 93
       13
 44
0.0
173
     0
291
     1
 45
0.0
  0
VISUALSTYLE
  5
2C
102
{ACAD_REACTORS
330
2A
102
}
102
{ACAD_XDICTIONARY
360
65C
102
}
330
2A
100
AcDbVisualStyle
  2
FlatWithEdges
 70
     1
 71
     2
 72
     1
 73
     1
 90
        2
 40
0.6
 41
30.0
 62
     5
 63
     7
421
 16777215
 74
     1
 91
        0
 64
     7
 65
   257
 75
     1
175
     1
 42
1.0
 92
        0
 66
   257
 43
1.0
 76
     1
 77
     6
 78
     2
 67
     7
 79
     5
170
     0
171
     0
290
     0
174
     0
 93
       13
 44
0.0
173
     0
291
     1
 45
0.0
  0
VISUALSTYLE
  5
2D
102
{ACAD_REACTORS
330
2A
102
}
102
{ACAD_XDICTIONARY
360
65E
102
}
330
2A
100
AcDbVisualStyle
  2
Gouraud
 70
     2
 71
     2
 72
     2
 73
     1
 90
        2
 40
0.6
 41
30.0
 62
     5
 63
     7
421
 16777215
 74
     0
 91
        0
 64
     7
 65
   257
 75
     1
175
     1
 42
1.0
 92
        0
 66
     7
 43
1.0
 76
     1
 77
     6
 78
     2
 67
     7
 79
     5
170
     0
171
     0
290
     0
174
     0
 93
       13
 44
0.0
173
     0
291
     1
 45
0.0
  0
VISUALSTYLE
  5
2E
102
{ACAD_REACTORS
330
2A
102
}
102
{ACAD_XDICTIONARY
360
660
102
}
330
2A
100
AcDbVisualStyle
  2
GouraudWithEdges
 70
     3
 71
     2
 72
     2
 73
     1
 90
        2
 40
0.6
 41
30.0
 62
     5
 63
     7
421
 16777215
 74
     1
 91
        0
 64
     7
 65
   257
 75
     1
175
     1
 42
1.0
 92
        0
 66
   257
 43
1.0
 76
     1
 77
     6
 78
     2
 67
     7
 79
     5
170
     0
171
     0
290
     0
174
     0
 93
       13
 44
0.0
173
     0
291
     1
 45
0.0
  0
VISUALSTYLE
  5
31
102
{ACAD_REACTORS
330
2A
102
}
102
{ACAD_XDICTIONARY
360
666
102
}
330
2A
100
AcDbVisualStyle
  2
Hidden
 70
     6
 71
     1
 72
     2
 73
     2
 90
        0
 40
0.6
 41
30.0
 62
     5
 63
     7
421
 16777215
 74
     2
 91
        2
 64
     7
 65
   257
 75
     2
175
     1
 42
40.0
 92
        0
 66
   257
 43
1.0
 76
     1
 77
     6
 78
     2
 67
     7
 79
     3
170
     0
171
     0
290
     0
174
     0
 93
        1
 44
0.0
173
     0
291
     0
 45
0.0
  0
VISUALSTYLE
  5
3B
102
{ACAD_REACTORS
330
2A
102
}
102
{ACAD_XDICTIONARY
360
67A
102
}
330
2A
100
AcDbVisualStyle
  2
JitterOff
 70
    20
 71
     2
 72
     2
 73
     0
 90
        0
 40
0.6
 41
30.0
 62
     5
 63
     7
421
 16777215
 74
     1
 91
        4
 64
     7
 65
   257
 75
     1
175
     1
 42
1.0
 92
       10
 66
     7
 43
1.0
 76
     1
 77
     6
 78
     2
 67
     7
 79
     5
170
     0
171
     0
290
     0
174
     0
 93
        1
 44
0.0
173
     0
291
     1
 45
0.0
  0
VISUALSTYLE
  5
38
102
{ACAD_REACTORS
330
2A
102
}
102
{ACAD_XDICTIONARY
360
674
102
}
330
2A
100
AcDbVisualStyle
  2
Linepattern
 70
    14
 71
     2
 72
     2
 73
     0
 90
        0
 40
0.6
 41
30.0
 62
     5
 63
     7
421
 16777215
 74
     1
 91
        4
 64
     7
 65
   257
 75
     7
175
     7
 42
1.0
 92
        8
 66
     7
 43
1.0
 76
     1
 77
     6
 78
     2
 67
     7
 79
     5
170
     0
171
     0
290
     0
174
     0
 93
        1
 44
0.0
173
     0
291
     1
 45
0.0
  0
VISUALSTYLE
  5
3C
102
{ACAD_REACTORS
330
2A
102
}
102
{ACAD_XDICTIONARY
360
67C
102
}
330
2A
100
AcDbVisualStyle
  2
OverhangOff
 70
    21
 71
     2
 72
     2
 73
     0
 90
        0
 40
0.6
 41
30.0
 62
     5
 63
     7
421
 16777215
 74
     1
 91
        4
 64
     7
 65
   257
 75
     1
175
     1
 42
1.0
 92
        9
 66
     7
 43
1.0
 76
     1
 77
     6
 78
     2
 67
     7
 79
     5
170
     0
171
     0
290
     0
174
     0
 93
        1
 44
0.0
173
     0
291
     1
 45
0.0
  0
VISUALSTYLE
  5
33
102
{ACAD_REACTORS
330
2A
102
}
102
{ACAD_XDICTIONARY
360
66A
102
}
330
2A
100
AcDbVisualStyle
  2
Realistic
 70
     8
 71
     2
 72
     3
 73
     0
 90
        2
 40
0.6
 41
30.0
 62
     5
 63
     7
421
 16777215
 74
     0
 91
        0
 64
     7
 65
   257
 75
     1
175
     1
 42
1.0
 92
        8
 66
   257
 43
1.0
 76
     1
 77
     6
 78
     2
 67
     7
 79
     3
170
     0
171
     0
290
     0
174
     0
 93
       13
 44
0.0
173
     0
291
     0
 45
0.0
  0
VISUALSTYLE
  5
42
102
{ACAD_REACTORS
330
2A
102
}
102
{ACAD_XDICTIONARY
360
688
102
}
330
2A
100
AcDbVisualStyle
  2
Shaded
 70
    27
 71
     2
 72
     2
 73
     1
 90
        2
 40
0.6
 41
30.0
 62
     5
 63
     7
421
 16777215
 74
     0
 91
        4
 64
     7
 65
   257
 75
     1
175
     1
 42
1.0
 92
        8
 66
   257
 43
1.0
 76
     1
 77
     6
 78
     2
 67
     8
425
  7895160
 79
     3
170
     0
171
     0
290
     0
174
     0
 93
        5
 44
0.0
173
     0
291
     0
 45
0.0
  0
VISUALSTYLE
  5
41
102
{ACAD_REACTORS
330
2A
102
}
102
{ACAD_XDICTIONARY
360
686
102
}
330
2A
100
AcDbVisualStyle
  2
Shaded with edges
 70
    26
 71
     2
 72
     2
 73
     1
 90
        2
 40
0.6
 41
30.0
 62
     5
 63
     7
421
 16777215
 74
     1
 91
       10
 64
     7
 65
   257
 75
     2
175
     1
 42
1.0
 92
        8
 66
   257
 43
1.0
 76
     1
 77
     6
 78
     2
 67
     7
 79
     3
170
     0
171
     0
290
     0
174
     0
 93
        5
 44
0.0
173
     0
291
     0
 45
0.0
  0
VISUALSTYLE
  5
3E
102
{ACAD_REACTORS
330
2A
102
}
102
{ACAD_XDICTIONARY
360
680
102
}
330
2A
100
AcDbVisualStyle
  2
Shades of Gray
 70
    23
 71
     2
 72
     2
 73
     3
 90
        0
 40
0.6
 41
30.0
 62
     5
 63
     7
421
 16777215
 74
     2
 91
        2
 64
     7
 65
     7
 75
     1
175
     1
 42
40.0
 92
        8
 66
     7
 43
1.0
 76
     1
 77
     6
 78
     2
 67
     7
 79
     3
170
     0
171
     0
290
     0
174
     0
 93
        1
 44
0.0
173
     0
291
     0
 45
0.0
  0
VISUALSTYLE
  5
3F
102
{ACAD_REACTORS
330
2A
102
}
102
{ACAD_XDICTIONARY
360
682
102
}
330
2A
100
AcDbVisualStyle
  2
Sketchy
 70
    24
 71
     1
 72
     2
 73
     2
 90
        0
 40
0.6
 41
30.0
 62
     5
 63
     7
421
 16777215
 74
     2
 91
        2
 64
     7
 65
     7
 75
     1
175
     1
 42
40.0
 92
       11
 66
     7
 43
1.0
 76
     1
 77
     6
 78
     2
 67
     7
 79
     6
170
     0
171
     0
290
     0
174
     0
 93
        1
 44
0.0
173
     0
291
     0
 45
0.0
  0
VISUALSTYLE
  5
37
102
{ACAD_REACTORS
330
2A
102
}
102
{ACAD_XDICTIONARY
360
672
102
}
330
2A
100
AcDbVisualStyle
  2
Thicken
 70
    13
 71
     2
 72
     2
 73
     0
 90
        0
 40
0.6
 41
30.0
 62
     5
 63
     7
421
 16777215
 74
     1
 91
        4
 64
     7
 65
   257
 75
     1
175
     1
 42
1.0
 92
       12
 66
     7
 43
1.0
 76
     1
 77
     6
 78
     2
 67
     7
 79
     5
170
     0
171
     0
290
     0
174
     0
 93
        1
 44
0.0
173
     0
291
     1
 45
0.0
  0
VISUALSTYLE
  5
30
102
{ACAD_REACTORS
330
2A
102
}
102
{ACAD_XDICTIONARY
360
664
102
}
330
2A
100
AcDbVisualStyle
  2
Wireframe
 70
     5
 71
     0
 72
     2
 73
     0
 90
        0
 40
0.6
 41
30.0
 62
     5
 63
     7
421
 16777215
 74
     1
 91
        4
 64
     7
 65
   257
 75
     1
175
     1
 42
1.0
 92
        0
 66
   257
 43
1.0
 76
     1
 77
     6
 78
     2
 67
     7
 79
     3
170
     0
171
     0
290
     0
174
     0
 93
        1
 44
0.0
173
     0
291
     0
 45
0.0
  0
VISUALSTYLE
  5
40
102
{ACAD_REACTORS
330
2A
102
}
102
{ACAD_XDICTIONARY
360
684
102
}
330
2A
100
AcDbVisualStyle
  2
X-Ray
 70
    25
 71
     2
 72
     2
 73
     1
 90
        1
 40
0.5
 41
30.0
 62
     5
 63
     7
421
 16777215
 74
     1
 91
        0
 64
     7
 65
   257
 75
     1
175
     1
 42
1.0
 92
        8
 66
     7
 43
1.0
 76
     1
 77
     6
 78
     2
 67
     7
 79
     3
170
     0
171
     0
290
     0
174
     0
 93
       13
 44
0.0
173
     0
291
     0
 45
0.0
  0
DICTIONARYVAR
  5
658
102
{ACAD_REACTORS
330
657
102
}
330
657
100
DictionaryVariables
280
     0
  1
1:1
  0
DICTIONARYVAR
  5
691
102
{ACAD_REACTORS
330
657
102
}
330
657
100
DictionaryVariables
280
     0
  1
Standard
  0
DICTIONARYVAR
  5
690
102
{ACAD_REACTORS
330
657
102
}
330
657
100
DictionaryVariables
280
     0
  1
Standard
  0
DICTIONARYVAR
  5
659
102
{ACAD_REACTORS
330
657
102
}
330
657
100
DictionaryVariables
280
     0
  1
2
  0
DICTIONARY
  5
68D
330
6C
100
AcDbDictionary
280
     1
281
     1
  3
ACAD_XREC_ROUNDTRIP
360
68E
  0
DICTIONARY
  5
68A
330
6A
100
AcDbDictionary
280
     1
281
     1
  3
ACAD_ROUNDTRIP_2008_TABLESTYLE_CELLSTYLEMAP
360
68B
  0
DICTIONARY
  5
662
330
2F
100
AcDbDictionary
280
     1
281
     1
  3
ACAD_XREC_ROUNDTRIP
360
663
  0
DICTIONARY
  5
668
330
32
100
AcDbDictionary
280
     1
281
     1
  3
ACAD_XREC_ROUNDTRIP
360
669
  0
DICTIONARY
  5
670
330
36
100
AcDbDictionary
280
     1
281
     1
  3
ACAD_XREC_ROUNDTRIP
360
671
  0
DICTIONARY
  5
678
330
3A
100
AcDbDictionary
280
     1
281
     1
  3
ACAD_XREC_ROUNDTRIP
360
679
  0
DICTIONARY
  5
66C
330
34
100
AcDbDictionary
280
     1
281
     1
  3
ACAD_XREC_ROUNDTRIP
360
66D
  0
DICTIONARY
  5
66E
330
35
100
AcDbDictionary
280
     1
281
     1
  3
ACAD_XREC_ROUNDTRIP
360
66F
  0
DICTIONARY
  5
67E
330
3D
100
AcDbDictionary
280
     1
281
     1
  3
ACAD_XREC_ROUNDTRIP
360
67F
  0
DICTIONARY
  5
676
330
39
100
AcDbDictionary
280
     1
281
     1
  3
ACAD_XREC_ROUNDTRIP
360
677
  0
DICTIONARY
  5
65A
330
2B
100
AcDbDictionary
280
     1
281
     1
  3
ACAD_XREC_ROUNDTRIP
360
65B
  0
DICTIONARY
  5
65C
330
2C
100
AcDbDictionary
280
     1
281
     1
  3
ACAD_XREC_ROUNDTRIP
360
65D
  0
DICTIONARY
  5
65E
330
2D
100
AcDbDictionary
280
     1
281
     1
  3
ACAD_XREC_ROUNDTRIP
360
65F
  0
DICTIONARY
  5
660
330
2E
100
AcDbDictionary
280
     1
281
     1
  3
ACAD_XREC_ROUNDTRIP
360
661
  0
DICTIONARY
  5
666
330
31
100
AcDbDictionary
280
     1
281
     1
  3
ACAD_XREC_ROUNDTRIP
360
667
  0
DICTIONARY
  5
67A
330
3B
100
AcDbDictionary
280
     1
281
     1
  3
ACAD_XREC_ROUNDTRIP
360
67B
  0
DICTIONARY
  5
674
330
38
100
AcDbDictionary
280
     1
281
     1
  3
ACAD_XREC_ROUNDTRIP
360
675
  0
DICTIONARY
  5
67C
330
3C
100
AcDbDictionary
280
     1
281
     1
  3
ACAD_XREC_ROUNDTRIP
360
67D
  0
DICTIONARY
  5
66A
330
33
100
AcDbDictionary
280
     1
281
     1
  3
ACAD_XREC_ROUNDTRIP
360
66B
  0
DICTIONARY
  5
688
330
42
100
AcDbDictionary
280
     1
281
     1
  3
ACAD_XREC_ROUNDTRIP
360
689
  0
DICTIONARY
  5
686
330
41
100
AcDbDictionary
280
     1
281
     1
  3
ACAD_XREC_ROUNDTRIP
360
687
  0
DICTIONARY
  5
680
330
3E
100
AcDbDictionary
280
     1
281
     1
  3
ACAD_XREC_ROUNDTRIP
360
681
  0
DICTIONARY
  5
682
330
3F
100
AcDbDictionary
280
     1
281
     1
  3
ACAD_XREC_ROUNDTRIP
360
683
  0
DICTIONARY
  5
672
330
37
100
AcDbDictionary
280
     1
281
     1
  3
ACAD_XREC_ROUNDTRIP
360
673
  0
DICTIONARY
  5
664
330
30
100
AcDbDictionary
280
     1
281
     1
  3
ACAD_XREC_ROUNDTRIP
360
665
  0
DICTIONARY
  5
684
330
40
100
AcDbDictionary
280
     1
281
     1
  3
ACAD_XREC_ROUNDTRIP
360
685
  0
XRECORD
  5
68E
102
{ACAD_REACTORS
330
68D
102
}
330
68D
100
AcDbXrecord
280
     1
102
ACAD_ROUNDTRIP_2010_MLEADER_STYLE
  0
CELLSTYLEMAP
  5
68B
102
{ACAD_REACTORS
330
68A
102
}
330
68A
100
AcDbCellStyleMap
 90
        3
300
CELLSTYLE
  1
TABLEFORMAT_BEGIN
 90
        5
170
     1
 91
        0
 92
    32768
 62
   257
 93
        1
300
CONTENTFORMAT
  1
CONTENTFORMAT_BEGIN
 90
        0
 91
        0
 92
        4
 93
        0
300

 40
0.0
140
1.0
 94
        5
 62
     0
340
11
144
0.25
309
CONTENTFORMAT_END
171
     1
301
MARGIN
  1
CELLMARGIN_BEGIN
 40
0.06
 40
0.06
 40
0.06
 40
0.06
 40
0.06
 40
0.06
309
CELLMARGIN_END
 94
        6
 95
        1
302
GRIDFORMAT
  1
GRIDFORMAT_BEGIN
 90
        0
 91
        1
 62
     0
 92
       -2
340
14
 93
        0
 40
0.045
309
GRIDFORMAT_END
 95
        2
302
GRIDFORMAT
  1
GRIDFORMAT_BEGIN
 90
        0
 91
        1
 62
     0
 92
       -2
340
14
 93
        0
 40
0.045
309
GRIDFORMAT_END
 95
        4
302
GRIDFORMAT
  1
GRIDFORMAT_BEGIN
 90
        0
 91
        1
 62
     0
 92
       -2
340
14
 93
        0
 40
0.045
309
GRIDFORMAT_END
 95
        8
302
GRIDFORMAT
  1
GRIDFORMAT_BEGIN
 90
        0
 91
        1
 62
     0
 92
       -2
340
14
 93
        0
 40
0.045
309
GRIDFORMAT_END
 95
       16
302
GRIDFORMAT
  1
GRIDFORMAT_BEGIN
 90
        0
 91
        1
 62
     0
 92
       -2
340
14
 93
        0
 40
0.045
309
GRIDFORMAT_END
 95
       32
302
GRIDFORMAT
  1
GRIDFORMAT_BEGIN
 90
        0
 91
        1
 62
     0
 92
       -2
340
14
 93
        0
 40
0.045
309
GRIDFORMAT_END
309
TABLEFORMAT_END
  1
CELLSTYLE_BEGIN
 90
        1
 91
        1
300
_TITLE
309
CELLSTYLE_END
300
CELLSTYLE
  1
TABLEFORMAT_BEGIN
 90
        5
170
     1
 91
        0
 92
        0
 62
   257
 93
        1
300
CONTENTFORMAT
  1
CONTENTFORMAT_BEGIN
 90
        0
 91
        0
 92
        4
 93
        0
300

 40
0.0
140
1.0
 94
        5
 62
     0
340
11
144
0.18
309
CONTENTFORMAT_END
171
     1
301
MARGIN
  1
CELLMARGIN_BEGIN
 40
0.06
 40
0.06
 40
0.06
 40
0.06
 40
0.06
 40
0.06
309
CELLMARGIN_END
 94
        6
 95
        1
302
GRIDFORMAT
  1
GRIDFORMAT_BEGIN
 90
        0
 91
        1
 62
     0
 92
       -2
340
14
 93
        0
 40
0.045
309
GRIDFORMAT_END
 95
        2
302
GRIDFORMAT
  1
GRIDFORMAT_BEGIN
 90
        0
 91
        1
 62
     0
 92
       -2
340
14
 93
        0
 40
0.045
309
GRIDFORMAT_END
 95
        4
302
GRIDFORMAT
  1
GRIDFORMAT_BEGIN
 90
        0
 91
        1
 62
     0
 92
       -2
340
14
 93
        0
 40
0.045
309
GRIDFORMAT_END
 95
        8
302
GRIDFORMAT
  1
GRIDFORMAT_BEGIN
 90
        0
 91
        1
 62
     0
 92
       -2
340
14
 93
        0
 40
0.045
309
GRIDFORMAT_END
 95
       16
302
GRIDFORMAT
  1
GRIDFORMAT_BEGIN
 90
        0
 91
        1
 62
     0
 92
       -2
340
14
 93
        0
 40
0.045
309
GRIDFORMAT_END
 95
       32
302
GRIDFORMAT
  1
GRIDFORMAT_BEGIN
 90
        0
 91
        1
 62
     0
 92
       -2
340
14
 93
        0
 40
0.045
309
GRIDFORMAT_END
309
TABLEFORMAT_END
  1
CELLSTYLE_BEGIN
 90
        2
 91
        1
300
_HEADER
309
CELLSTYLE_END
300
CELLSTYLE
  1
TABLEFORMAT_BEGIN
 90
        5
170
     1
 91
        0
 92
        0
 62
   257
 93
        1
300
CONTENTFORMAT
  1
CONTENTFORMAT_BEGIN
 90
        0
 91
        0
 92
        4
 93
        0
300

 40
0.0
140
1.0
 94
        2
 62
     0
340
11
144
0.18
309
CONTENTFORMAT_END
171
     1
301
MARGIN
  1
CELLMARGIN_BEGIN
 40
0.06
 40
0.06
 40
0.06
 40
0.06
 40
0.06
 40
0.06
309
CELLMARGIN_END
 94
        6
 95
        1
302
GRIDFORMAT
  1
GRIDFORMAT_BEGIN
 90
        0
 91
        1
 62
     0
 92
       -2
340
14
 93
        0
 40
0.045
309
GRIDFORMAT_END
 95
        2
302
GRIDFORMAT
  1
GRIDFORMAT_BEGIN
 90
        0
 91
        1
 62
     0
 92
       -2
340
14
 93
        0
 40
0.045
309
GRIDFORMAT_END
 95
        4
302
GRIDFORMAT
  1
GRIDFORMAT_BEGIN
 90
        0
 91
        1
 62
     0
 92
       -2
340
14
 93
        0
 40
0.045
309
GRIDFORMAT_END
 95
        8
302
GRIDFORMAT
  1
GRIDFORMAT_BEGIN
 90
        0
 91
        1
 62
     0
 92
       -2
340
14
 93
        0
 40
0.045
309
GRIDFORMAT_END
 95
       16
302
GRIDFORMAT
  1
GRIDFORMAT_BEGIN
 90
        0
 91
        1
 62
     0
 92
       -2
340
14
 93
        0
 40
0.045
309
GRIDFORMAT_END
 95
       32
302
GRIDFORMAT
  1
GRIDFORMAT_BEGIN
 90
        0
 91
        1
 62
     0
 92
       -2
340
14
 93
        0
 40
0.045
309
GRIDFORMAT_END
309
TABLEFORMAT_END
  1
CELLSTYLE_BEGIN
 90
        3
 91
        2
300
_DATA
309
CELLSTYLE_END
  0
XRECORD
  5
663
102
{ACAD_REACTORS
330
662
102
}
330
662
100
AcDbXrecord
280
     1
102
RTVSPropertyOp0
 70
     1
102
RTVSPropertyOp1
 70
     1
102
RTVSPropertyOp2
 70
     1
102
RTVSPropertyOp3
 70
     1
102
RTVSPropertyOp4
 70
     1
102
RTVSPropertyOp5
 70
     1
102
RTVSPropertyOp6
 70
     1
102
RTVSPropertyOp7
 70
     1
102
RTVSPropertyOp8
 70
     1
102
RTVSPropertyOp9
 70
     1
102
RTVSPropertyOp10
 70
     1
102
RTVSPropertyOp11
 70
     1
102
RTVSPropertyOp12
 70
     1
102
RTVSPropertyOp13
 70
     1
102
RTVSPropertyOp14
 70
     1
102
RTVSPropertyOp15
 70
     1
102
RTVSPropertyOp16
 70
     1
102
RTVSPropertyOp17
 70
     1
102
RTVSPropertyOp18
 70
     1
102
RTVSPropertyOp19
 70
     1
102
RTVSPropertyOp20
 70
     1
102
RTVSPropertyOp21
 70
     1
102
RTVSPropertyOp22
 70
     1
102
RTVSPropertyOp23
 70
     1
102
RTVSPropertyOp24
 70
     1
102
RTVSPropertyOp25
 70
     1
102
RTVSPropertyOp26
 70
     1
102
RTVSPropertyOp27
 70
     1
102
RTVSPropertyOp28
 70
     1
102
RTVSPropertyOp29
 70
     1
102
RTVSPropertyOp30
 70
     1
102
RTVSPropertyOp31
 70
     1
102
RTVSPropertyOp32
 70
     1
102
RTVSPropertyOp33
 70
     1
102
RTVSPropertyOp34
 70
     1
102
RTVSPropertyOp35
 70
     1
102
RTVSPropertyOp36
 70
     1
102
RTVSPropertyOp37
 70
     1
102
RTVSPropertyOp38
 70
     1
102
RTVSPropertyOp39
 70
     1
102
RTVSPropertyOp40
 70
     1
102
RTVSPropertyOp41
 70
     1
102
RTVSPropertyOp42
 70
     1
102
RTVSPropertyOp43
 70
     1
102
RTVSPropertyOp44
 70
     1
102
RTVSPropertyOp45
 70
     1
102
RTVSPropertyOp46
 70
     1
102
RTVSPropertyOp47
 70
     1
102
RTVSPropertyOp48
 70
     1
102
RTVSPropertyOp49
 70
     1
102
RTVSPropertyOp50
 70
     1
102
RTVSPropertyOp51
 70
     0
102
RTVSPropertyOp52
 70
     0
102
RTVSPropertyOp53
 70
     1
102
RTVSPropertyOp54
 70
     1
102
RTVSPropertyOp55
 70
     1
102
RTVSPropertyOp56
 70
     1
102
RTVSPropertyOp57
 70
     1
102
RTVSPost2010Prop28
280
     1
102
RTVSPost2010PropOp28
 70
     1
102
RTVSPost2010Prop29
280
     1
102
RTVSPost2010PropOp29
 70
     1
102
RTVSPost2010Prop30
280
     0
102
RTVSPost2010PropOp30
 70
     1
102
RTVSPost2010Prop31
280
     0
102
RTVSPost2010PropOp31
 70
     1
102
RTVSPost2010Prop32
280
     0
102
RTVSPost2010PropOp32
 70
     1
102
RTVSPost2010Prop33
280
     0
102
RTVSPost2010PropOp33
 70
     1
102
RTVSPost2010Prop34
280
     0
102
RTVSPost2010PropOp34
 70
     1
102
RTVSPost2010Prop35
280
     0
102
RTVSPost2010PropOp35
 70
     1
102
RTVSPost2010Prop36
280
     0
102
RTVSPost2010PropOp36
 70
     1
102
RTVSPost2010Prop37
 90
       50
102
RTVSPost2010PropOp37
 70
     1
102
RTVSPost2010Prop38
140
0.0
102
RTVSPost2010PropOp38
 70
     1
102
RTVSPost2010Prop39
140
1.0
102
RTVSPost2010PropOp39
 70
     1
102
RTVSPost2010Prop40
 90
        0
102
RTVSPost2010PropOp40
 70
     1
102
RTVSPost2010Prop41ColorIndex
 90
       18
102
RTVSPost2010Prop41ColorRGB
 90
        0
102
RTVSPost2010PropOp41
 70
     1
102
RTVSPost2010Prop42
 90
       50
102
RTVSPost2010PropOp42
 70
     1
102
RTVSPost2010Prop43
 90
        3
102
RTVSPost2010PropOp43
 70
     1
102
RTVSPost2010Prop44ColorIndex
 90
        5
102
RTVSPost2010Prop44ColorRGB
 90
      255
102
RTVSPost2010PropOp44
 70
     1
102
RTVSPost2010Prop45
280
     0
102
RTVSPost2010PropOp45
 70
     1
102
RTVSPost2010Prop46
 90
       50
102
RTVSPost2010PropOp46
 70
     1
102
RTVSPost2010Prop47
 90
       50
102
RTVSPost2010PropOp47
 70
     1
102
RTVSPost2010Prop48
 90
       50
102
RTVSPost2010PropOp48
 70
     1
102
RTVSPost2010Prop49
280
     0
102
RTVSPost2010PropOp49
 70
     1
102
RTVSPost2010Prop50
 90
       50
102
RTVSPost2010PropOp50
 70
     1
102
RTVSPost2010Prop51ColorIndex
 90
      256
102
RTVSPost2010Prop51ColorRGB
 90
-16777216
102
RTVSPost2010PropOp51
 70
     0
102
RTVSPost2010Prop52
140
1.0
102
RTVSPost2010PropOp52
 70
     0
102
RTVSPost2010Prop53
 90
        2
102
RTVSPost2010PropOp53
 70
     1
102
RTVSPost2010Prop54
  1
strokes_ogs.tif
102
RTVSPost2010PropOp54
 70
     1
102
RTVSPost2010Prop55
280
     0
102
RTVSPost2010PropOp55
 70
     1
102
RTVSPost2010Prop56
140
1.0
102
RTVSPost2010PropOp56
 70
     1
102
RTVSPost2010Prop57
140
1.0
102
RTVSPost2010PropOp57
 70
     1
  0
XRECORD
  5
669
102
{ACAD_REACTORS
330
668
102
}
330
668
100
AcDbXrecord
280
     1
102
RTVSPropertyOp0
 70
     1
102
RTVSPropertyOp1
 70
     1
102
RTVSPropertyOp2
 70
     1
102
RTVSPropertyOp3
 70
     1
102
RTVSPropertyOp4
 70
     1
102
RTVSPropertyOp5
 70
     1
102
RTVSPropertyOp6
 70
     1
102
RTVSPropertyOp7
 70
     1
102
RTVSPropertyOp8
 70
     1
102
RTVSPropertyOp9
 70
     1
102
RTVSPropertyOp10
 70
     1
102
RTVSPropertyOp11
 70
     1
102
RTVSPropertyOp12
 70
     1
102
RTVSPropertyOp13
 70
     1
102
RTVSPropertyOp14
 70
     1
102
RTVSPropertyOp15
 70
     1
102
RTVSPropertyOp16
 70
     1
102
RTVSPropertyOp17
 70
     1
102
RTVSPropertyOp18
 70
     1
102
RTVSPropertyOp19
 70
     1
102
RTVSPropertyOp20
 70
     1
102
RTVSPropertyOp21
 70
     1
102
RTVSPropertyOp22
 70
     1
102
RTVSPropertyOp23
 70
     1
102
RTVSPropertyOp24
 70
     1
102
RTVSPropertyOp25
 70
     1
102
RTVSPropertyOp26
 70
     1
102
RTVSPropertyOp27
 70
     1
102
RTVSPropertyOp28
 70
     1
102
RTVSPropertyOp29
 70
     1
102
RTVSPropertyOp30
 70
     1
102
RTVSPropertyOp31
 70
     1
102
RTVSPropertyOp32
 70
     1
102
RTVSPropertyOp33
 70
     1
102
RTVSPropertyOp34
 70
     1
102
RTVSPropertyOp35
 70
     1
102
RTVSPropertyOp36
 70
     1
102
RTVSPropertyOp37
 70
     1
102
RTVSPropertyOp38
 70
     1
102
RTVSPropertyOp39
 70
     1
102
RTVSPropertyOp40
 70
     1
102
RTVSPropertyOp41
 70
     1
102
RTVSPropertyOp42
 70
     1
102
RTVSPropertyOp43
 70
     1
102
RTVSPropertyOp44
 70
     1
102
RTVSPropertyOp45
 70
     1
102
RTVSPropertyOp46
 70
     1
102
RTVSPropertyOp47
 70
     1
102
RTVSPropertyOp48
 70
     1
102
RTVSPropertyOp49
 70
     1
102
RTVSPropertyOp50
 70
     1
102
RTVSPropertyOp51
 70
     0
102
RTVSPropertyOp52
 70
     0
102
RTVSPropertyOp53
 70
     1
102
RTVSPropertyOp54
 70
     1
102
RTVSPropertyOp55
 70
     1
102
RTVSPropertyOp56
 70
     1
102
RTVSPropertyOp57
 70
     1
102
RTVSPost2010Prop28
280
     0
102
RTVSPost2010PropOp28
 70
     1
102
RTVSPost2010Prop29
280
     1
102
RTVSPost2010PropOp29
 70
     1
102
RTVSPost2010Prop30
280
     1
102
RTVSPost2010PropOp30
 70
     1
102
RTVSPost2010Prop31
280
     0
102
RTVSPost2010PropOp31
 70
     1
102
RTVSPost2010Prop32
280
     0
102
RTVSPost2010PropOp32
 70
     1
102
RTVSPost2010Prop33
280
     0
102
RTVSPost2010PropOp33
 70
     1
102
RTVSPost2010Prop34
280
     0
102
RTVSPost2010PropOp34
 70
     1
102
RTVSPost2010Prop35
280
     0
102
RTVSPost2010PropOp35
 70
     1
102
RTVSPost2010Prop36
280
     0
102
RTVSPost2010PropOp36
 70
     1
102
RTVSPost2010Prop37
 90
       50
102
RTVSPost2010PropOp37
 70
     1
102
RTVSPost2010Prop38
140
0.0
102
RTVSPost2010PropOp38
 70
     1
102
RTVSPost2010Prop39
140
1.0
102
RTVSPost2010PropOp39
 70
     1
102
RTVSPost2010Prop40
 90
        0
102
RTVSPost2010PropOp40
 70
     1
102
RTVSPost2010Prop41ColorIndex
 90
       18
102
RTVSPost2010Prop41ColorRGB
 90
        0
102
RTVSPost2010PropOp41
 70
     1
102
RTVSPost2010Prop42
 90
       50
102
RTVSPost2010PropOp42
 70
     1
102
RTVSPost2010Prop43
 90
        3
102
RTVSPost2010PropOp43
 70
     1
102
RTVSPost2010Prop44ColorIndex
 90
        5
102
RTVSPost2010Prop44ColorRGB
 90
      255
102
RTVSPost2010PropOp44
 70
     1
102
RTVSPost2010Prop45
280
     0
102
RTVSPost2010PropOp45
 70
     1
102
RTVSPost2010Prop46
 90
       50
102
RTVSPost2010PropOp46
 70
     1
102
RTVSPost2010Prop47
 90
       50
102
RTVSPost2010PropOp47
 70
     1
102
RTVSPost2010Prop48
 90
       50
102
RTVSPost2010PropOp48
 70
     1
102
RTVSPost2010Prop49
280
     0
102
RTVSPost2010PropOp49
 70
     1
102
RTVSPost2010Prop50
 90
       50
102
RTVSPost2010PropOp50
 70
     1
102
RTVSPost2010Prop51ColorIndex
 90
      256
102
RTVSPost2010Prop51ColorRGB
 90
-16777216
102
RTVSPost2010PropOp51
 70
     0
102
RTVSPost2010Prop52
140
1.0
102
RTVSPost2010PropOp52
 70
     0
102
RTVSPost2010Prop53
 90
        2
102
RTVSPost2010PropOp53
 70
     1
102
RTVSPost2010Prop54
  1
strokes_ogs.tif
102
RTVSPost2010PropOp54
 70
     1
102
RTVSPost2010Prop55
280
     0
102
RTVSPost2010PropOp55
 70
     1
102
RTVSPost2010Prop56
140
1.0
102
RTVSPost2010PropOp56
 70
     1
102
RTVSPost2010Prop57
140
1.0
102
RTVSPost2010PropOp57
 70
     1
  0
XRECORD
  5
671
102
{ACAD_REACTORS
330
670
102
}
330
670
100
AcDbXrecord
280
     1
102
RTVSPropertyOp0
 70
     1
102
RTVSPropertyOp1
 70
     1
102
RTVSPropertyOp2
 70
     1
102
RTVSPropertyOp3
 70
     1
102
RTVSPropertyOp4
 70
     1
102
RTVSPropertyOp5
 70
     1
102
RTVSPropertyOp6
 70
     1
102
RTVSPropertyOp7
 70
     1
102
RTVSPropertyOp8
 70
     1
102
RTVSPropertyOp9
 70
     1
102
RTVSPropertyOp10
 70
     1
102
RTVSPropertyOp11
 70
     1
102
RTVSPropertyOp12
 70
     1
102
RTVSPropertyOp13
 70
     1
102
RTVSPropertyOp14
 70
     1
102
RTVSPropertyOp15
 70
     1
102
RTVSPropertyOp16
 70
     1
102
RTVSPropertyOp17
 70
     1
102
RTVSPropertyOp18
 70
     1
102
RTVSPropertyOp19
 70
     1
102
RTVSPropertyOp20
 70
     1
102
RTVSPropertyOp21
 70
     1
102
RTVSPropertyOp22
 70
     1
102
RTVSPropertyOp23
 70
     1
102
RTVSPropertyOp24
 70
     1
102
RTVSPropertyOp25
 70
     1
102
RTVSPropertyOp26
 70
     1
102
RTVSPropertyOp27
 70
     1
102
RTVSPropertyOp28
 70
     1
102
RTVSPropertyOp29
 70
     1
102
RTVSPropertyOp30
 70
     1
102
RTVSPropertyOp31
 70
     1
102
RTVSPropertyOp32
 70
     1
102
RTVSPropertyOp33
 70
     1
102
RTVSPropertyOp34
 70
     1
102
RTVSPropertyOp35
 70
     1
102
RTVSPropertyOp36
 70
     1
102
RTVSPropertyOp37
 70
     1
102
RTVSPropertyOp38
 70
     1
102
RTVSPropertyOp39
 70
     1
102
RTVSPropertyOp40
 70
     1
102
RTVSPropertyOp41
 70
     1
102
RTVSPropertyOp42
 70
     1
102
RTVSPropertyOp43
 70
     1
102
RTVSPropertyOp44
 70
     1
102
RTVSPropertyOp45
 70
     1
102
RTVSPropertyOp46
 70
     1
102
RTVSPropertyOp47
 70
     1
102
RTVSPropertyOp48
 70
     1
102
RTVSPropertyOp49
 70
     1
102
RTVSPropertyOp50
 70
     1
102
RTVSPropertyOp51
 70
     0
102
RTVSPropertyOp52
 70
     0
102
RTVSPropertyOp53
 70
     1
102
RTVSPropertyOp54
 70
     1
102
RTVSPropertyOp55
 70
     1
102
RTVSPropertyOp56
 70
     1
102
RTVSPropertyOp57
 70
     1
102
RTVSPost2010Prop28
280
     0
102
RTVSPost2010PropOp28
 70
     1
102
RTVSPost2010Prop29
280
     1
102
RTVSPost2010PropOp29
 70
     1
102
RTVSPost2010Prop30
280
     1
102
RTVSPost2010PropOp30
 70
     1
102
RTVSPost2010Prop31
280
     0
102
RTVSPost2010PropOp31
 70
     1
102
RTVSPost2010Prop32
280
     0
102
RTVSPost2010PropOp32
 70
     1
102
RTVSPost2010Prop33
280
     0
102
RTVSPost2010PropOp33
 70
     1
102
RTVSPost2010Prop34
280
     0
102
RTVSPost2010PropOp34
 70
     1
102
RTVSPost2010Prop35
280
     0
102
RTVSPost2010PropOp35
 70
     1
102
RTVSPost2010Prop36
280
     0
102
RTVSPost2010PropOp36
 70
     1
102
RTVSPost2010Prop37
 90
       50
102
RTVSPost2010PropOp37
 70
     1
102
RTVSPost2010Prop38
140
0.0
102
RTVSPost2010PropOp38
 70
     1
102
RTVSPost2010Prop39
140
1.0
102
RTVSPost2010PropOp39
 70
     1
102
RTVSPost2010Prop40
 90
        0
102
RTVSPost2010PropOp40
 70
     1
102
RTVSPost2010Prop41ColorIndex
 90
       18
102
RTVSPost2010Prop41ColorRGB
 90
        0
102
RTVSPost2010PropOp41
 70
     1
102
RTVSPost2010Prop42
 90
       50
102
RTVSPost2010PropOp42
 70
     1
102
RTVSPost2010Prop43
 90
        3
102
RTVSPost2010PropOp43
 70
     1
102
RTVSPost2010Prop44ColorIndex
 90
        5
102
RTVSPost2010Prop44ColorRGB
 90
      255
102
RTVSPost2010PropOp44
 70
     1
102
RTVSPost2010Prop45
280
     0
102
RTVSPost2010PropOp45
 70
     1
102
RTVSPost2010Prop46
 90
       50
102
RTVSPost2010PropOp46
 70
     1
102
RTVSPost2010Prop47
 90
       50
102
RTVSPost2010PropOp47
 70
     1
102
RTVSPost2010Prop48
 90
       50
102
RTVSPost2010PropOp48
 70
     1
102
RTVSPost2010Prop49
280
     0
102
RTVSPost2010PropOp49
 70
     1
102
RTVSPost2010Prop50
 90
       50
102
RTVSPost2010PropOp50
 70
     1
102
RTVSPost2010Prop51ColorIndex
 90
      256
102
RTVSPost2010Prop51ColorRGB
 90
-16777216
102
RTVSPost2010PropOp51
 70
     0
102
RTVSPost2010Prop52
140
1.0
102
RTVSPost2010PropOp52
 70
     0
102
RTVSPost2010Prop53
 90
        2
102
RTVSPost2010PropOp53
 70
     1
102
RTVSPost2010Prop54
  1
strokes_ogs.tif
102
RTVSPost2010PropOp54
 70
     1
102
RTVSPost2010Prop55
280
     0
102
RTVSPost2010PropOp55
 70
     1
102
RTVSPost2010Prop56
140
1.0
102
RTVSPost2010PropOp56
 70
     1
102
RTVSPost2010Prop57
140
1.0
102
RTVSPost2010PropOp57
 70
     1
  0
XRECORD
  5
679
102
{ACAD_REACTORS
330
678
102
}
330
678
100
AcDbXrecord
280
     1
102
RTVSPropertyOp0
 70
     1
102
RTVSPropertyOp1
 70
     1
102
RTVSPropertyOp2
 70
     1
102
RTVSPropertyOp3
 70
     1
102
RTVSPropertyOp4
 70
     1
102
RTVSPropertyOp5
 70
     1
102
RTVSPropertyOp6
 70
     1
102
RTVSPropertyOp7
 70
     1
102
RTVSPropertyOp8
 70
     1
102
RTVSPropertyOp9
 70
     1
102
RTVSPropertyOp10
 70
     1
102
RTVSPropertyOp11
 70
     1
102
RTVSPropertyOp12
 70
     1
102
RTVSPropertyOp13
 70
     1
102
RTVSPropertyOp14
 70
     1
102
RTVSPropertyOp15
 70
     1
102
RTVSPropertyOp16
 70
     1
102
RTVSPropertyOp17
 70
     1
102
RTVSPropertyOp18
 70
     1
102
RTVSPropertyOp19
 70
     1
102
RTVSPropertyOp20
 70
     1
102
RTVSPropertyOp21
 70
     1
102
RTVSPropertyOp22
 70
     1
102
RTVSPropertyOp23
 70
     1
102
RTVSPropertyOp24
 70
     1
102
RTVSPropertyOp25
 70
     1
102
RTVSPropertyOp26
 70
     1
102
RTVSPropertyOp27
 70
     1
102
RTVSPropertyOp28
 70
     1
102
RTVSPropertyOp29
 70
     1
102
RTVSPropertyOp30
 70
     1
102
RTVSPropertyOp31
 70
     1
102
RTVSPropertyOp32
 70
     1
102
RTVSPropertyOp33
 70
     1
102
RTVSPropertyOp34
 70
     1
102
RTVSPropertyOp35
 70
     1
102
RTVSPropertyOp36
 70
     1
102
RTVSPropertyOp37
 70
     1
102
RTVSPropertyOp38
 70
     1
102
RTVSPropertyOp39
 70
     1
102
RTVSPropertyOp40
 70
     1
102
RTVSPropertyOp41
 70
     1
102
RTVSPropertyOp42
 70
     1
102
RTVSPropertyOp43
 70
     1
102
RTVSPropertyOp44
 70
     1
102
RTVSPropertyOp45
 70
     1
102
RTVSPropertyOp46
 70
     1
102
RTVSPropertyOp47
 70
     1
102
RTVSPropertyOp48
 70
     1
102
RTVSPropertyOp49
 70
     1
102
RTVSPropertyOp50
 70
     1
102
RTVSPropertyOp51
 70
     0
102
RTVSPropertyOp52
 70
     0
102
RTVSPropertyOp53
 70
     1
102
RTVSPropertyOp54
 70
     1
102
RTVSPropertyOp55
 70
     1
102
RTVSPropertyOp56
 70
     1
102
RTVSPropertyOp57
 70
     1
102
RTVSPost2010Prop28
280
     0
102
RTVSPost2010PropOp28
 70
     1
102
RTVSPost2010Prop29
280
     1
102
RTVSPost2010PropOp29
 70
     1
102
RTVSPost2010Prop30
280
     1
102
RTVSPost2010PropOp30
 70
     1
102
RTVSPost2010Prop31
280
     0
102
RTVSPost2010PropOp31
 70
     1
102
RTVSPost2010Prop32
280
     0
102
RTVSPost2010PropOp32
 70
     1
102
RTVSPost2010Prop33
280
     0
102
RTVSPost2010PropOp33
 70
     1
102
RTVSPost2010Prop34
280
     0
102
RTVSPost2010PropOp34
 70
     1
102
RTVSPost2010Prop35
280
     0
102
RTVSPost2010PropOp35
 70
     1
102
RTVSPost2010Prop36
280
     0
102
RTVSPost2010PropOp36
 70
     1
102
RTVSPost2010Prop37
 90
       50
102
RTVSPost2010PropOp37
 70
     1
102
RTVSPost2010Prop38
140
0.0
102
RTVSPost2010PropOp38
 70
     1
102
RTVSPost2010Prop39
140
1.0
102
RTVSPost2010PropOp39
 70
     1
102
RTVSPost2010Prop40
 90
        0
102
RTVSPost2010PropOp40
 70
     1
102
RTVSPost2010Prop41ColorIndex
 90
       18
102
RTVSPost2010Prop41ColorRGB
 90
        0
102
RTVSPost2010PropOp41
 70
     1
102
RTVSPost2010Prop42
 90
       50
102
RTVSPost2010PropOp42
 70
     1
102
RTVSPost2010Prop43
 90
        3
102
RTVSPost2010PropOp43
 70
     1
102
RTVSPost2010Prop44ColorIndex
 90
        5
102
RTVSPost2010Prop44ColorRGB
 90
      255
102
RTVSPost2010PropOp44
 70
     1
102
RTVSPost2010Prop45
280
     0
102
RTVSPost2010PropOp45
 70
     1
102
RTVSPost2010Prop46
 90
       50
102
RTVSPost2010PropOp46
 70
     1
102
RTVSPost2010Prop47
 90
       50
102
RTVSPost2010PropOp47
 70
     1
102
RTVSPost2010Prop48
 90
       50
102
RTVSPost2010PropOp48
 70
     1
102
RTVSPost2010Prop49
280
     0
102
RTVSPost2010PropOp49
 70
     1
102
RTVSPost2010Prop50
 90
       50
102
RTVSPost2010PropOp50
 70
     1
102
RTVSPost2010Prop51ColorIndex
 90
      256
102
RTVSPost2010Prop51ColorRGB
 90
-16777216
102
RTVSPost2010PropOp51
 70
     0
102
RTVSPost2010Prop52
140
1.0
102
RTVSPost2010PropOp52
 70
     0
102
RTVSPost2010Prop53
 90
        2
102
RTVSPost2010PropOp53
 70
     1
102
RTVSPost2010Prop54
  1
strokes_ogs.tif
102
RTVSPost2010PropOp54
 70
     1
102
RTVSPost2010Prop55
280
     0
102
RTVSPost2010PropOp55
 70
     1
102
RTVSPost2010Prop56
140
1.0
102
RTVSPost2010PropOp56
 70
     1
102
RTVSPost2010Prop57
140
1.0
102
RTVSPost2010PropOp57
 70
     1
  0
XRECORD
  5
66D
102
{ACAD_REACTORS
330
66C
102
}
330
66C
100
AcDbXrecord
280
     1
102
RTVSPropertyOp0
 70
     1
102
RTVSPropertyOp1
 70
     1
102
RTVSPropertyOp2
 70
     1
102
RTVSPropertyOp3
 70
     1
102
RTVSPropertyOp4
 70
     1
102
RTVSPropertyOp5
 70
     1
102
RTVSPropertyOp6
 70
     1
102
RTVSPropertyOp7
 70
     1
102
RTVSPropertyOp8
 70
     1
102
RTVSPropertyOp9
 70
     1
102
RTVSPropertyOp10
 70
     1
102
RTVSPropertyOp11
 70
     1
102
RTVSPropertyOp12
 70
     1
102
RTVSPropertyOp13
 70
     1
102
RTVSPropertyOp14
 70
     1
102
RTVSPropertyOp15
 70
     1
102
RTVSPropertyOp16
 70
     1
102
RTVSPropertyOp17
 70
     1
102
RTVSPropertyOp18
 70
     1
102
RTVSPropertyOp19
 70
     1
102
RTVSPropertyOp20
 70
     1
102
RTVSPropertyOp21
 70
     1
102
RTVSPropertyOp22
 70
     1
102
RTVSPropertyOp23
 70
     1
102
RTVSPropertyOp24
 70
     1
102
RTVSPropertyOp25
 70
     1
102
RTVSPropertyOp26
 70
     1
102
RTVSPropertyOp27
 70
     1
102
RTVSPropertyOp28
 70
     1
102
RTVSPropertyOp29
 70
     1
102
RTVSPropertyOp30
 70
     1
102
RTVSPropertyOp31
 70
     1
102
RTVSPropertyOp32
 70
     1
102
RTVSPropertyOp33
 70
     1
102
RTVSPropertyOp34
 70
     1
102
RTVSPropertyOp35
 70
     1
102
RTVSPropertyOp36
 70
     1
102
RTVSPropertyOp37
 70
     1
102
RTVSPropertyOp38
 70
     1
102
RTVSPropertyOp39
 70
     1
102
RTVSPropertyOp40
 70
     1
102
RTVSPropertyOp41
 70
     1
102
RTVSPropertyOp42
 70
     1
102
RTVSPropertyOp43
 70
     1
102
RTVSPropertyOp44
 70
     1
102
RTVSPropertyOp45
 70
     1
102
RTVSPropertyOp46
 70
     1
102
RTVSPropertyOp47
 70
     1
102
RTVSPropertyOp48
 70
     1
102
RTVSPropertyOp49
 70
     1
102
RTVSPropertyOp50
 70
     1
102
RTVSPropertyOp51
 70
     0
102
RTVSPropertyOp52
 70
     0
102
RTVSPropertyOp53
 70
     1
102
RTVSPropertyOp54
 70
     1
102
RTVSPropertyOp55
 70
     1
102
RTVSPropertyOp56
 70
     1
102
RTVSPropertyOp57
 70
     1
102
RTVSPost2010Prop28
280
     0
102
RTVSPost2010PropOp28
 70
     1
102
RTVSPost2010Prop29
280
     1
102
RTVSPost2010PropOp29
 70
     1
102
RTVSPost2010Prop30
280
     1
102
RTVSPost2010PropOp30
 70
     1
102
RTVSPost2010Prop31
280
     0
102
RTVSPost2010PropOp31
 70
     1
102
RTVSPost2010Prop32
280
     0
102
RTVSPost2010PropOp32
 70
     1
102
RTVSPost2010Prop33
280
     0
102
RTVSPost2010PropOp33
 70
     1
102
RTVSPost2010Prop34
280
     0
102
RTVSPost2010PropOp34
 70
     1
102
RTVSPost2010Prop35
280
     0
102
RTVSPost2010PropOp35
 70
     1
102
RTVSPost2010Prop36
280
     0
102
RTVSPost2010PropOp36
 70
     1
102
RTVSPost2010Prop37
 90
       50
102
RTVSPost2010PropOp37
 70
     1
102
RTVSPost2010Prop38
140
0.0
102
RTVSPost2010PropOp38
 70
     1
102
RTVSPost2010Prop39
140
1.0
102
RTVSPost2010PropOp39
 70
     1
102
RTVSPost2010Prop40
 90
        0
102
RTVSPost2010PropOp40
 70
     1
102
RTVSPost2010Prop41ColorIndex
 90
       18
102
RTVSPost2010Prop41ColorRGB
 90
        0
102
RTVSPost2010PropOp41
 70
     1
102
RTVSPost2010Prop42
 90
       50
102
RTVSPost2010PropOp42
 70
     1
102
RTVSPost2010Prop43
 90
        3
102
RTVSPost2010PropOp43
 70
     1
102
RTVSPost2010Prop44ColorIndex
 90
        5
102
RTVSPost2010Prop44ColorRGB
 90
      255
102
RTVSPost2010PropOp44
 70
     1
102
RTVSPost2010Prop45
280
     0
102
RTVSPost2010PropOp45
 70
     1
102
RTVSPost2010Prop46
 90
       50
102
RTVSPost2010PropOp46
 70
     1
102
RTVSPost2010Prop47
 90
       50
102
RTVSPost2010PropOp47
 70
     1
102
RTVSPost2010Prop48
 90
       50
102
RTVSPost2010PropOp48
 70
     1
102
RTVSPost2010Prop49
280
     0
102
RTVSPost2010PropOp49
 70
     1
102
RTVSPost2010Prop50
 90
       50
102
RTVSPost2010PropOp50
 70
     1
102
RTVSPost2010Prop51ColorIndex
 90
      256
102
RTVSPost2010Prop51ColorRGB
 90
-16777216
102
RTVSPost2010PropOp51
 70
     0
102
RTVSPost2010Prop52
140
1.0
102
RTVSPost2010PropOp52
 70
     0
102
RTVSPost2010Prop53
 90
        2
102
RTVSPost2010PropOp53
 70
     1
102
RTVSPost2010Prop54
  1
strokes_ogs.tif
102
RTVSPost2010PropOp54
 70
     1
102
RTVSPost2010Prop55
280
     0
102
RTVSPost2010PropOp55
 70
     1
102
RTVSPost2010Prop56
140
1.0
102
RTVSPost2010PropOp56
 70
     1
102
RTVSPost2010Prop57
140
1.0
102
RTVSPost2010PropOp57
 70
     1
  0
XRECORD
  5
66F
102
{ACAD_REACTORS
330
66E
102
}
330
66E
100
AcDbXrecord
280
     1
102
RTVSPropertyOp0
 70
     1
102
RTVSPropertyOp1
 70
     1
102
RTVSPropertyOp2
 70
     1
102
RTVSPropertyOp3
 70
     1
102
RTVSPropertyOp4
 70
     1
102
RTVSPropertyOp5
 70
     1
102
RTVSPropertyOp6
 70
     1
102
RTVSPropertyOp7
 70
     1
102
RTVSPropertyOp8
 70
     1
102
RTVSPropertyOp9
 70
     1
102
RTVSPropertyOp10
 70
     1
102
RTVSPropertyOp11
 70
     1
102
RTVSPropertyOp12
 70
     1
102
RTVSPropertyOp13
 70
     1
102
RTVSPropertyOp14
 70
     1
102
RTVSPropertyOp15
 70
     1
102
RTVSPropertyOp16
 70
     1
102
RTVSPropertyOp17
 70
     1
102
RTVSPropertyOp18
 70
     1
102
RTVSPropertyOp19
 70
     1
102
RTVSPropertyOp20
 70
     1
102
RTVSPropertyOp21
 70
     1
102
RTVSPropertyOp22
 70
     1
102
RTVSPropertyOp23
 70
     1
102
RTVSPropertyOp24
 70
     1
102
RTVSPropertyOp25
 70
     1
102
RTVSPropertyOp26
 70
     1
102
RTVSPropertyOp27
 70
     1
102
RTVSPropertyOp28
 70
     1
102
RTVSPropertyOp29
 70
     1
102
RTVSPropertyOp30
 70
     1
102
RTVSPropertyOp31
 70
     1
102
RTVSPropertyOp32
 70
     1
102
RTVSPropertyOp33
 70
     1
102
RTVSPropertyOp34
 70
     1
102
RTVSPropertyOp35
 70
     1
102
RTVSPropertyOp36
 70
     1
102
RTVSPropertyOp37
 70
     1
102
RTVSPropertyOp38
 70
     1
102
RTVSPropertyOp39
 70
     1
102
RTVSPropertyOp40
 70
     1
102
RTVSPropertyOp41
 70
     1
102
RTVSPropertyOp42
 70
     1
102
RTVSPropertyOp43
 70
     1
102
RTVSPropertyOp44
 70
     1
102
RTVSPropertyOp45
 70
     1
102
RTVSPropertyOp46
 70
     1
102
RTVSPropertyOp47
 70
     1
102
RTVSPropertyOp48
 70
     1
102
RTVSPropertyOp49
 70
     1
102
RTVSPropertyOp50
 70
     1
102
RTVSPropertyOp51
 70
     0
102
RTVSPropertyOp52
 70
     0
102
RTVSPropertyOp53
 70
     1
102
RTVSPropertyOp54
 70
     1
102
RTVSPropertyOp55
 70
     1
102
RTVSPropertyOp56
 70
     1
102
RTVSPropertyOp57
 70
     1
102
RTVSPost2010Prop28
280
     0
102
RTVSPost2010PropOp28
 70
     1
102
RTVSPost2010Prop29
280
     1
102
RTVSPost2010PropOp29
 70
     1
102
RTVSPost2010Prop30
280
     1
102
RTVSPost2010PropOp30
 70
     1
102
RTVSPost2010Prop31
280
     0
102
RTVSPost2010PropOp31
 70
     1
102
RTVSPost2010Prop32
280
     0
102
RTVSPost2010PropOp32
 70
     1
102
RTVSPost2010Prop33
280
     0
102
RTVSPost2010PropOp33
 70
     1
102
RTVSPost2010Prop34
280
     0
102
RTVSPost2010PropOp34
 70
     1
102
RTVSPost2010Prop35
280
     0
102
RTVSPost2010PropOp35
 70
     1
102
RTVSPost2010Prop36
280
     0
102
RTVSPost2010PropOp36
 70
     1
102
RTVSPost2010Prop37
 90
       50
102
RTVSPost2010PropOp37
 70
     1
102
RTVSPost2010Prop38
140
0.0
102
RTVSPost2010PropOp38
 70
     1
102
RTVSPost2010Prop39
140
1.0
102
RTVSPost2010PropOp39
 70
     1
102
RTVSPost2010Prop40
 90
        0
102
RTVSPost2010PropOp40
 70
     1
102
RTVSPost2010Prop41ColorIndex
 90
       18
102
RTVSPost2010Prop41ColorRGB
 90
        0
102
RTVSPost2010PropOp41
 70
     1
102
RTVSPost2010Prop42
 90
       50
102
RTVSPost2010PropOp42
 70
     1
102
RTVSPost2010Prop43
 90
        3
102
RTVSPost2010PropOp43
 70
     1
102
RTVSPost2010Prop44ColorIndex
 90
        5
102
RTVSPost2010Prop44ColorRGB
 90
      255
102
RTVSPost2010PropOp44
 70
     1
102
RTVSPost2010Prop45
280
     0
102
RTVSPost2010PropOp45
 70
     1
102
RTVSPost2010Prop46
 90
       50
102
RTVSPost2010PropOp46
 70
     1
102
RTVSPost2010Prop47
 90
       50
102
RTVSPost2010PropOp47
 70
     1
102
RTVSPost2010Prop48
 90
       50
102
RTVSPost2010PropOp48
 70
     1
102
RTVSPost2010Prop49
280
     0
102
RTVSPost2010PropOp49
 70
     1
102
RTVSPost2010Prop50
 90
       50
102
RTVSPost2010PropOp50
 70
     1
102
RTVSPost2010Prop51ColorIndex
 90
      256
102
RTVSPost2010Prop51ColorRGB
 90
-16777216
102
RTVSPost2010PropOp51
 70
     0
102
RTVSPost2010Prop52
140
1.0
102
RTVSPost2010PropOp52
 70
     0
102
RTVSPost2010Prop53
 90
        2
102
RTVSPost2010PropOp53
 70
     1
102
RTVSPost2010Prop54
  1
strokes_ogs.tif
102
RTVSPost2010PropOp54
 70
     1
102
RTVSPost2010Prop55
280
     0
102
RTVSPost2010PropOp55
 70
     1
102
RTVSPost2010Prop56
140
1.0
102
RTVSPost2010PropOp56
 70
     1
102
RTVSPost2010Prop57
140
1.0
102
RTVSPost2010PropOp57
 70
     1
  0
XRECORD
  5
67F
102
{ACAD_REACTORS
330
67E
102
}
330
67E
100
AcDbXrecord
280
     1
102
RTVSPropertyOp0
 70
     0
102
RTVSPropertyOp1
 70
     0
102
RTVSPropertyOp2
 70
     0
102
RTVSPropertyOp3
 70
     0
102
RTVSPropertyOp4
 70
     0
102
RTVSPropertyOp5
 70
     0
102
RTVSPropertyOp6
 70
     0
102
RTVSPropertyOp7
 70
     0
102
RTVSPropertyOp8
 70
     0
102
RTVSPropertyOp9
 70
     0
102
RTVSPropertyOp10
 70
     0
102
RTVSPropertyOp11
 70
     0
102
RTVSPropertyOp12
 70
     0
102
RTVSPropertyOp13
 70
     0
102
RTVSPropertyOp14
 70
     2
102
RTVSPropertyOp15
 70
     0
102
RTVSPropertyOp16
 70
     0
102
RTVSPropertyOp17
 70
     0
102
RTVSPropertyOp18
 70
     0
102
RTVSPropertyOp19
 70
     0
102
RTVSPropertyOp20
 70
     0
102
RTVSPropertyOp21
 70
     0
102
RTVSPropertyOp22
 70
     0
102
RTVSPropertyOp23
 70
     0
102
RTVSPropertyOp24
 70
     0
102
RTVSPropertyOp25
 70
     0
102
RTVSPropertyOp26
 70
     0
102
RTVSPropertyOp27
 70
     0
102
RTVSPropertyOp28
 70
     0
102
RTVSPropertyOp29
 70
     0
102
RTVSPropertyOp30
 70
     0
102
RTVSPropertyOp31
 70
     0
102
RTVSPropertyOp32
 70
     0
102
RTVSPropertyOp33
 70
     0
102
RTVSPropertyOp34
 70
     0
102
RTVSPropertyOp35
 70
     0
102
RTVSPropertyOp36
 70
     0
102
RTVSPropertyOp37
 70
     0
102
RTVSPropertyOp38
 70
     0
102
RTVSPropertyOp39
 70
     0
102
RTVSPropertyOp40
 70
     0
102
RTVSPropertyOp41
 70
     0
102
RTVSPropertyOp42
 70
     0
102
RTVSPropertyOp43
 70
     0
102
RTVSPropertyOp44
 70
     0
102
RTVSPropertyOp45
 70
     0
102
RTVSPropertyOp46
 70
     0
102
RTVSPropertyOp47
 70
     0
102
RTVSPropertyOp48
 70
     0
102
RTVSPropertyOp49
 70
     0
102
RTVSPropertyOp50
 70
     0
102
RTVSPropertyOp51
 70
     0
102
RTVSPropertyOp52
 70
     0
102
RTVSPropertyOp53
 70
     0
102
RTVSPropertyOp54
 70
     0
102
RTVSPropertyOp55
 70
     0
102
RTVSPropertyOp56
 70
     0
102
RTVSPropertyOp57
 70
     0
102
RTVSPost2010Prop28
280
     0
102
RTVSPost2010PropOp28
 70
     0
102
RTVSPost2010Prop29
280
     1
102
RTVSPost2010PropOp29
 70
     0
102
RTVSPost2010Prop30
280
     1
102
RTVSPost2010PropOp30
 70
     0
102
RTVSPost2010Prop31
280
     0
102
RTVSPost2010PropOp31
 70
     0
102
RTVSPost2010Prop32
280
     0
102
RTVSPost2010PropOp32
 70
     0
102
RTVSPost2010Prop33
280
     0
102
RTVSPost2010PropOp33
 70
     0
102
RTVSPost2010Prop34
280
     0
102
RTVSPost2010PropOp34
 70
     0
102
RTVSPost2010Prop35
280
     0
102
RTVSPost2010PropOp35
 70
     0
102
RTVSPost2010Prop36
280
     0
102
RTVSPost2010PropOp36
 70
     0
102
RTVSPost2010Prop37
 90
       50
102
RTVSPost2010PropOp37
 70
     0
102
RTVSPost2010Prop38
140
0.0
102
RTVSPost2010PropOp38
 70
     0
102
RTVSPost2010Prop39
140
1.0
102
RTVSPost2010PropOp39
 70
     0
102
RTVSPost2010Prop40
 90
        0
102
RTVSPost2010PropOp40
 70
     0
102
RTVSPost2010Prop41ColorIndex
 90
       18
102
RTVSPost2010Prop41ColorRGB
 90
        0
102
RTVSPost2010PropOp41
 70
     0
102
RTVSPost2010Prop42
 90
       50
102
RTVSPost2010PropOp42
 70
     0
102
RTVSPost2010Prop43
 90
        3
102
RTVSPost2010PropOp43
 70
     0
102
RTVSPost2010Prop44ColorIndex
 90
        5
102
RTVSPost2010Prop44ColorRGB
 90
      255
102
RTVSPost2010PropOp44
 70
     0
102
RTVSPost2010Prop45
280
     0
102
RTVSPost2010PropOp45
 70
     0
102
RTVSPost2010Prop46
 90
       50
102
RTVSPost2010PropOp46
 70
     0
102
RTVSPost2010Prop47
 90
       50
102
RTVSPost2010PropOp47
 70
     0
102
RTVSPost2010Prop48
 90
       50
102
RTVSPost2010PropOp48
 70
     0
102
RTVSPost2010Prop49
280
     0
102
RTVSPost2010PropOp49
 70
     0
102
RTVSPost2010Prop50
 90
       50
102
RTVSPost2010PropOp50
 70
     0
102
RTVSPost2010Prop51ColorIndex
 90
      256
102
RTVSPost2010Prop51ColorRGB
 90
-16777216
102
RTVSPost2010PropOp51
 70
     0
102
RTVSPost2010Prop52
140
1.0
102
RTVSPost2010PropOp52
 70
     0
102
RTVSPost2010Prop53
 90
        2
102
RTVSPost2010PropOp53
 70
     0
102
RTVSPost2010Prop54
  1
strokes_ogs.tif
102
RTVSPost2010PropOp54
 70
     0
102
RTVSPost2010Prop55
280
     0
102
RTVSPost2010PropOp55
 70
     0
102
RTVSPost2010Prop56
140
1.0
102
RTVSPost2010PropOp56
 70
     0
102
RTVSPost2010Prop57
140
1.0
102
RTVSPost2010PropOp57
 70
     0
  0
XRECORD
  5
677
102
{ACAD_REACTORS
330
676
102
}
330
676
100
AcDbXrecord
280
     1
102
RTVSPropertyOp0
 70
     1
102
RTVSPropertyOp1
 70
     1
102
RTVSPropertyOp2
 70
     1
102
RTVSPropertyOp3
 70
     1
102
RTVSPropertyOp4
 70
     1
102
RTVSPropertyOp5
 70
     1
102
RTVSPropertyOp6
 70
     1
102
RTVSPropertyOp7
 70
     1
102
RTVSPropertyOp8
 70
     1
102
RTVSPropertyOp9
 70
     1
102
RTVSPropertyOp10
 70
     1
102
RTVSPropertyOp11
 70
     1
102
RTVSPropertyOp12
 70
     1
102
RTVSPropertyOp13
 70
     1
102
RTVSPropertyOp14
 70
     1
102
RTVSPropertyOp15
 70
     1
102
RTVSPropertyOp16
 70
     1
102
RTVSPropertyOp17
 70
     1
102
RTVSPropertyOp18
 70
     1
102
RTVSPropertyOp19
 70
     1
102
RTVSPropertyOp20
 70
     1
102
RTVSPropertyOp21
 70
     1
102
RTVSPropertyOp22
 70
     1
102
RTVSPropertyOp23
 70
     1
102
RTVSPropertyOp24
 70
     1
102
RTVSPropertyOp25
 70
     1
102
RTVSPropertyOp26
 70
     1
102
RTVSPropertyOp27
 70
     1
102
RTVSPropertyOp28
 70
     1
102
RTVSPropertyOp29
 70
     1
102
RTVSPropertyOp30
 70
     1
102
RTVSPropertyOp31
 70
     1
102
RTVSPropertyOp32
 70
     1
102
RTVSPropertyOp33
 70
     1
102
RTVSPropertyOp34
 70
     1
102
RTVSPropertyOp35
 70
     1
102
RTVSPropertyOp36
 70
     1
102
RTVSPropertyOp37
 70
     1
102
RTVSPropertyOp38
 70
     1
102
RTVSPropertyOp39
 70
     1
102
RTVSPropertyOp40
 70
     1
102
RTVSPropertyOp41
 70
     1
102
RTVSPropertyOp42
 70
     1
102
RTVSPropertyOp43
 70
     1
102
RTVSPropertyOp44
 70
     1
102
RTVSPropertyOp45
 70
     1
102
RTVSPropertyOp46
 70
     1
102
RTVSPropertyOp47
 70
     1
102
RTVSPropertyOp48
 70
     1
102
RTVSPropertyOp49
 70
     1
102
RTVSPropertyOp50
 70
     1
102
RTVSPropertyOp51
 70
     0
102
RTVSPropertyOp52
 70
     0
102
RTVSPropertyOp53
 70
     1
102
RTVSPropertyOp54
 70
     1
102
RTVSPropertyOp55
 70
     1
102
RTVSPropertyOp56
 70
     1
102
RTVSPropertyOp57
 70
     1
102
RTVSPost2010Prop28
280
     0
102
RTVSPost2010PropOp28
 70
     1
102
RTVSPost2010Prop29
280
     1
102
RTVSPost2010PropOp29
 70
     1
102
RTVSPost2010Prop30
280
     1
102
RTVSPost2010PropOp30
 70
     1
102
RTVSPost2010Prop31
280
     0
102
RTVSPost2010PropOp31
 70
     1
102
RTVSPost2010Prop32
280
     0
102
RTVSPost2010PropOp32
 70
     1
102
RTVSPost2010Prop33
280
     0
102
RTVSPost2010PropOp33
 70
     1
102
RTVSPost2010Prop34
280
     0
102
RTVSPost2010PropOp34
 70
     1
102
RTVSPost2010Prop35
280
     0
102
RTVSPost2010PropOp35
 70
     1
102
RTVSPost2010Prop36
280
     0
102
RTVSPost2010PropOp36
 70
     1
102
RTVSPost2010Prop37
 90
       50
102
RTVSPost2010PropOp37
 70
     1
102
RTVSPost2010Prop38
140
0.0
102
RTVSPost2010PropOp38
 70
     1
102
RTVSPost2010Prop39
140
1.0
102
RTVSPost2010PropOp39
 70
     1
102
RTVSPost2010Prop40
 90
        0
102
RTVSPost2010PropOp40
 70
     1
102
RTVSPost2010Prop41ColorIndex
 90
       18
102
RTVSPost2010Prop41ColorRGB
 90
        0
102
RTVSPost2010PropOp41
 70
     1
102
RTVSPost2010Prop42
 90
       50
102
RTVSPost2010PropOp42
 70
     1
102
RTVSPost2010Prop43
 90
        3
102
RTVSPost2010PropOp43
 70
     1
102
RTVSPost2010Prop44ColorIndex
 90
        5
102
RTVSPost2010Prop44ColorRGB
 90
      255
102
RTVSPost2010PropOp44
 70
     1
102
RTVSPost2010Prop45
280
     0
102
RTVSPost2010PropOp45
 70
     1
102
RTVSPost2010Prop46
 90
       50
102
RTVSPost2010PropOp46
 70
     1
102
RTVSPost2010Prop47
 90
       50
102
RTVSPost2010PropOp47
 70
     1
102
RTVSPost2010Prop48
 90
       50
102
RTVSPost2010PropOp48
 70
     1
102
RTVSPost2010Prop49
280
     0
102
RTVSPost2010PropOp49
 70
     1
102
RTVSPost2010Prop50
 90
       50
102
RTVSPost2010PropOp50
 70
     1
102
RTVSPost2010Prop51ColorIndex
 90
      256
102
RTVSPost2010Prop51ColorRGB
 90
-16777216
102
RTVSPost2010PropOp51
 70
     0
102
RTVSPost2010Prop52
140
1.0
102
RTVSPost2010PropOp52
 70
     0
102
RTVSPost2010Prop53
 90
        2
102
RTVSPost2010PropOp53
 70
     1
102
RTVSPost2010Prop54
  1
strokes_ogs.tif
102
RTVSPost2010PropOp54
 70
     1
102
RTVSPost2010Prop55
280
     0
102
RTVSPost2010PropOp55
 70
     1
102
RTVSPost2010Prop56
140
1.0
102
RTVSPost2010PropOp56
 70
     1
102
RTVSPost2010Prop57
140
1.0
102
RTVSPost2010PropOp57
 70
     1
  0
XRECORD
  5
65B
102
{ACAD_REACTORS
330
65A
102
}
330
65A
100
AcDbXrecord
280
     1
102
RTVSPropertyOp0
 70
     1
102
RTVSPropertyOp1
 70
     1
102
RTVSPropertyOp2
 70
     1
102
RTVSPropertyOp3
 70
     1
102
RTVSPropertyOp4
 70
     1
102
RTVSPropertyOp5
 70
     1
102
RTVSPropertyOp6
 70
     1
102
RTVSPropertyOp7
 70
     1
102
RTVSPropertyOp8
 70
     1
102
RTVSPropertyOp9
 70
     1
102
RTVSPropertyOp10
 70
     1
102
RTVSPropertyOp11
 70
     1
102
RTVSPropertyOp12
 70
     1
102
RTVSPropertyOp13
 70
     1
102
RTVSPropertyOp14
 70
     1
102
RTVSPropertyOp15
 70
     1
102
RTVSPropertyOp16
 70
     1
102
RTVSPropertyOp17
 70
     1
102
RTVSPropertyOp18
 70
     1
102
RTVSPropertyOp19
 70
     1
102
RTVSPropertyOp20
 70
     1
102
RTVSPropertyOp21
 70
     1
102
RTVSPropertyOp22
 70
     1
102
RTVSPropertyOp23
 70
     1
102
RTVSPropertyOp24
 70
     1
102
RTVSPropertyOp25
 70
     1
102
RTVSPropertyOp26
 70
     1
102
RTVSPropertyOp27
 70
     1
102
RTVSPropertyOp28
 70
     1
102
RTVSPropertyOp29
 70
     1
102
RTVSPropertyOp30
 70
     1
102
RTVSPropertyOp31
 70
     1
102
RTVSPropertyOp32
 70
     1
102
RTVSPropertyOp33
 70
     1
102
RTVSPropertyOp34
 70
     1
102
RTVSPropertyOp35
 70
     1
102
RTVSPropertyOp36
 70
     1
102
RTVSPropertyOp37
 70
     1
102
RTVSPropertyOp38
 70
     1
102
RTVSPropertyOp39
 70
     1
102
RTVSPropertyOp40
 70
     1
102
RTVSPropertyOp41
 70
     1
102
RTVSPropertyOp42
 70
     1
102
RTVSPropertyOp43
 70
     1
102
RTVSPropertyOp44
 70
     1
102
RTVSPropertyOp45
 70
     1
102
RTVSPropertyOp46
 70
     1
102
RTVSPropertyOp47
 70
     1
102
RTVSPropertyOp48
 70
     1
102
RTVSPropertyOp49
 70
     1
102
RTVSPropertyOp50
 70
     1
102
RTVSPropertyOp51
 70
     0
102
RTVSPropertyOp52
 70
     0
102
RTVSPropertyOp53
 70
     1
102
RTVSPropertyOp54
 70
     1
102
RTVSPropertyOp55
 70
     1
102
RTVSPropertyOp56
 70
     1
102
RTVSPropertyOp57
 70
     1
102
RTVSPost2010Prop28
280
     0
102
RTVSPost2010PropOp28
 70
     1
102
RTVSPost2010Prop29
280
     1
102
RTVSPost2010PropOp29
 70
     1
102
RTVSPost2010Prop30
280
     1
102
RTVSPost2010PropOp30
 70
     1
102
RTVSPost2010Prop31
280
     0
102
RTVSPost2010PropOp31
 70
     1
102
RTVSPost2010Prop32
280
     0
102
RTVSPost2010PropOp32
 70
     1
102
RTVSPost2010Prop33
280
     0
102
RTVSPost2010PropOp33
 70
     1
102
RTVSPost2010Prop34
280
     0
102
RTVSPost2010PropOp34
 70
     1
102
RTVSPost2010Prop35
280
     0
102
RTVSPost2010PropOp35
 70
     1
102
RTVSPost2010Prop36
280
     0
102
RTVSPost2010PropOp36
 70
     1
102
RTVSPost2010Prop37
 90
       50
102
RTVSPost2010PropOp37
 70
     1
102
RTVSPost2010Prop38
140
0.0
102
RTVSPost2010PropOp38
 70
     1
102
RTVSPost2010Prop39
140
1.0
102
RTVSPost2010PropOp39
 70
     1
102
RTVSPost2010Prop40
 90
        0
102
RTVSPost2010PropOp40
 70
     1
102
RTVSPost2010Prop41ColorIndex
 90
       18
102
RTVSPost2010Prop41ColorRGB
 90
        0
102
RTVSPost2010PropOp41
 70
     1
102
RTVSPost2010Prop42
 90
       50
102
RTVSPost2010PropOp42
 70
     1
102
RTVSPost2010Prop43
 90
        3
102
RTVSPost2010PropOp43
 70
     1
102
RTVSPost2010Prop44ColorIndex
 90
        5
102
RTVSPost2010Prop44ColorRGB
 90
      255
102
RTVSPost2010PropOp44
 70
     1
102
RTVSPost2010Prop45
280
     0
102
RTVSPost2010PropOp45
 70
     1
102
RTVSPost2010Prop46
 90
       50
102
RTVSPost2010PropOp46
 70
     1
102
RTVSPost2010Prop47
 90
       50
102
RTVSPost2010PropOp47
 70
     1
102
RTVSPost2010Prop48
 90
       50
102
RTVSPost2010PropOp48
 70
     1
102
RTVSPost2010Prop49
280
     0
102
RTVSPost2010PropOp49
 70
     1
102
RTVSPost2010Prop50
 90
       50
102
RTVSPost2010PropOp50
 70
     1
102
RTVSPost2010Prop51ColorIndex
 90
      256
102
RTVSPost2010Prop51ColorRGB
 90
-16777216
102
RTVSPost2010PropOp51
 70
     0
102
RTVSPost2010Prop52
140
1.0
102
RTVSPost2010PropOp52
 70
     0
102
RTVSPost2010Prop53
 90
        2
102
RTVSPost2010PropOp53
 70
     1
102
RTVSPost2010Prop54
  1
strokes_ogs.tif
102
RTVSPost2010PropOp54
 70
     1
102
RTVSPost2010Prop55
280
     0
102
RTVSPost2010PropOp55
 70
     1
102
RTVSPost2010Prop56
140
1.0
102
RTVSPost2010PropOp56
 70
     1
102
RTVSPost2010Prop57
140
1.0
102
RTVSPost2010PropOp57
 70
     1
  0
XRECORD
  5
65D
102
{ACAD_REACTORS
330
65C
102
}
330
65C
100
AcDbXrecord
280
     1
102
RTVSPropertyOp0
 70
     1
102
RTVSPropertyOp1
 70
     1
102
RTVSPropertyOp2
 70
     1
102
RTVSPropertyOp3
 70
     1
102
RTVSPropertyOp4
 70
     1
102
RTVSPropertyOp5
 70
     1
102
RTVSPropertyOp6
 70
     1
102
RTVSPropertyOp7
 70
     1
102
RTVSPropertyOp8
 70
     1
102
RTVSPropertyOp9
 70
     1
102
RTVSPropertyOp10
 70
     1
102
RTVSPropertyOp11
 70
     1
102
RTVSPropertyOp12
 70
     1
102
RTVSPropertyOp13
 70
     1
102
RTVSPropertyOp14
 70
     1
102
RTVSPropertyOp15
 70
     1
102
RTVSPropertyOp16
 70
     1
102
RTVSPropertyOp17
 70
     1
102
RTVSPropertyOp18
 70
     1
102
RTVSPropertyOp19
 70
     1
102
RTVSPropertyOp20
 70
     1
102
RTVSPropertyOp21
 70
     1
102
RTVSPropertyOp22
 70
     1
102
RTVSPropertyOp23
 70
     1
102
RTVSPropertyOp24
 70
     1
102
RTVSPropertyOp25
 70
     1
102
RTVSPropertyOp26
 70
     1
102
RTVSPropertyOp27
 70
     1
102
RTVSPropertyOp28
 70
     1
102
RTVSPropertyOp29
 70
     1
102
RTVSPropertyOp30
 70
     1
102
RTVSPropertyOp31
 70
     1
102
RTVSPropertyOp32
 70
     1
102
RTVSPropertyOp33
 70
     1
102
RTVSPropertyOp34
 70
     1
102
RTVSPropertyOp35
 70
     1
102
RTVSPropertyOp36
 70
     1
102
RTVSPropertyOp37
 70
     1
102
RTVSPropertyOp38
 70
     1
102
RTVSPropertyOp39
 70
     1
102
RTVSPropertyOp40
 70
     1
102
RTVSPropertyOp41
 70
     1
102
RTVSPropertyOp42
 70
     1
102
RTVSPropertyOp43
 70
     1
102
RTVSPropertyOp44
 70
     1
102
RTVSPropertyOp45
 70
     1
102
RTVSPropertyOp46
 70
     1
102
RTVSPropertyOp47
 70
     1
102
RTVSPropertyOp48
 70
     1
102
RTVSPropertyOp49
 70
     1
102
RTVSPropertyOp50
 70
     1
102
RTVSPropertyOp51
 70
     0
102
RTVSPropertyOp52
 70
     0
102
RTVSPropertyOp53
 70
     1
102
RTVSPropertyOp54
 70
     1
102
RTVSPropertyOp55
 70
     1
102
RTVSPropertyOp56
 70
     1
102
RTVSPropertyOp57
 70
     1
102
RTVSPost2010Prop28
280
     0
102
RTVSPost2010PropOp28
 70
     1
102
RTVSPost2010Prop29
280
     1
102
RTVSPost2010PropOp29
 70
     1
102
RTVSPost2010Prop30
280
     1
102
RTVSPost2010PropOp30
 70
     1
102
RTVSPost2010Prop31
280
     0
102
RTVSPost2010PropOp31
 70
     1
102
RTVSPost2010Prop32
280
     0
102
RTVSPost2010PropOp32
 70
     1
102
RTVSPost2010Prop33
280
     0
102
RTVSPost2010PropOp33
 70
     1
102
RTVSPost2010Prop34
280
     0
102
RTVSPost2010PropOp34
 70
     1
102
RTVSPost2010Prop35
280
     0
102
RTVSPost2010PropOp35
 70
     1
102
RTVSPost2010Prop36
280
     0
102
RTVSPost2010PropOp36
 70
     1
102
RTVSPost2010Prop37
 90
       50
102
RTVSPost2010PropOp37
 70
     1
102
RTVSPost2010Prop38
140
0.0
102
RTVSPost2010PropOp38
 70
     1
102
RTVSPost2010Prop39
140
1.0
102
RTVSPost2010PropOp39
 70
     1
102
RTVSPost2010Prop40
 90
        0
102
RTVSPost2010PropOp40
 70
     1
102
RTVSPost2010Prop41ColorIndex
 90
       18
102
RTVSPost2010Prop41ColorRGB
 90
        0
102
RTVSPost2010PropOp41
 70
     1
102
RTVSPost2010Prop42
 90
       50
102
RTVSPost2010PropOp42
 70
     1
102
RTVSPost2010Prop43
 90
        3
102
RTVSPost2010PropOp43
 70
     1
102
RTVSPost2010Prop44ColorIndex
 90
        5
102
RTVSPost2010Prop44ColorRGB
 90
      255
102
RTVSPost2010PropOp44
 70
     1
102
RTVSPost2010Prop45
280
     0
102
RTVSPost2010PropOp45
 70
     1
102
RTVSPost2010Prop46
 90
       50
102
RTVSPost2010PropOp46
 70
     1
102
RTVSPost2010Prop47
 90
       50
102
RTVSPost2010PropOp47
 70
     1
102
RTVSPost2010Prop48
 90
       50
102
RTVSPost2010PropOp48
 70
     1
102
RTVSPost2010Prop49
280
     0
102
RTVSPost2010PropOp49
 70
     1
102
RTVSPost2010Prop50
 90
       50
102
RTVSPost2010PropOp50
 70
     1
102
RTVSPost2010Prop51ColorIndex
 90
      256
102
RTVSPost2010Prop51ColorRGB
 90
-16777216
102
RTVSPost2010PropOp51
 70
     0
102
RTVSPost2010Prop52
140
1.0
102
RTVSPost2010PropOp52
 70
     0
102
RTVSPost2010Prop53
 90
        2
102
RTVSPost2010PropOp53
 70
     1
102
RTVSPost2010Prop54
  1
strokes_ogs.tif
102
RTVSPost2010PropOp54
 70
     1
102
RTVSPost2010Prop55
280
     0
102
RTVSPost2010PropOp55
 70
     1
102
RTVSPost2010Prop56
140
1.0
102
RTVSPost2010PropOp56
 70
     1
102
RTVSPost2010Prop57
140
1.0
102
RTVSPost2010PropOp57
 70
     1
  0
XRECORD
  5
65F
102
{ACAD_REACTORS
330
65E
102
}
330
65E
100
AcDbXrecord
280
     1
102
RTVSPropertyOp0
 70
     1
102
RTVSPropertyOp1
 70
     1
102
RTVSPropertyOp2
 70
     1
102
RTVSPropertyOp3
 70
     1
102
RTVSPropertyOp4
 70
     1
102
RTVSPropertyOp5
 70
     1
102
RTVSPropertyOp6
 70
     1
102
RTVSPropertyOp7
 70
     1
102
RTVSPropertyOp8
 70
     1
102
RTVSPropertyOp9
 70
     1
102
RTVSPropertyOp10
 70
     1
102
RTVSPropertyOp11
 70
     1
102
RTVSPropertyOp12
 70
     1
102
RTVSPropertyOp13
 70
     1
102
RTVSPropertyOp14
 70
     1
102
RTVSPropertyOp15
 70
     1
102
RTVSPropertyOp16
 70
     1
102
RTVSPropertyOp17
 70
     1
102
RTVSPropertyOp18
 70
     1
102
RTVSPropertyOp19
 70
     1
102
RTVSPropertyOp20
 70
     1
102
RTVSPropertyOp21
 70
     1
102
RTVSPropertyOp22
 70
     1
102
RTVSPropertyOp23
 70
     1
102
RTVSPropertyOp24
 70
     1
102
RTVSPropertyOp25
 70
     1
102
RTVSPropertyOp26
 70
     1
102
RTVSPropertyOp27
 70
     1
102
RTVSPropertyOp28
 70
     1
102
RTVSPropertyOp29
 70
     1
102
RTVSPropertyOp30
 70
     1
102
RTVSPropertyOp31
 70
     1
102
RTVSPropertyOp32
 70
     1
102
RTVSPropertyOp33
 70
     1
102
RTVSPropertyOp34
 70
     1
102
RTVSPropertyOp35
 70
     1
102
RTVSPropertyOp36
 70
     1
102
RTVSPropertyOp37
 70
     1
102
RTVSPropertyOp38
 70
     1
102
RTVSPropertyOp39
 70
     1
102
RTVSPropertyOp40
 70
     1
102
RTVSPropertyOp41
 70
     1
102
RTVSPropertyOp42
 70
     1
102
RTVSPropertyOp43
 70
     1
102
RTVSPropertyOp44
 70
     1
102
RTVSPropertyOp45
 70
     1
102
RTVSPropertyOp46
 70
     1
102
RTVSPropertyOp47
 70
     1
102
RTVSPropertyOp48
 70
     1
102
RTVSPropertyOp49
 70
     1
102
RTVSPropertyOp50
 70
     1
102
RTVSPropertyOp51
 70
     0
102
RTVSPropertyOp52
 70
     0
102
RTVSPropertyOp53
 70
     1
102
RTVSPropertyOp54
 70
     1
102
RTVSPropertyOp55
 70
     1
102
RTVSPropertyOp56
 70
     1
102
RTVSPropertyOp57
 70
     1
102
RTVSPost2010Prop28
280
     0
102
RTVSPost2010PropOp28
 70
     1
102
RTVSPost2010Prop29
280
     1
102
RTVSPost2010PropOp29
 70
     1
102
RTVSPost2010Prop30
280
     1
102
RTVSPost2010PropOp30
 70
     1
102
RTVSPost2010Prop31
280
     0
102
RTVSPost2010PropOp31
 70
     1
102
RTVSPost2010Prop32
280
     0
102
RTVSPost2010PropOp32
 70
     1
102
RTVSPost2010Prop33
280
     0
102
RTVSPost2010PropOp33
 70
     1
102
RTVSPost2010Prop34
280
     0
102
RTVSPost2010PropOp34
 70
     1
102
RTVSPost2010Prop35
280
     0
102
RTVSPost2010PropOp35
 70
     1
102
RTVSPost2010Prop36
280
     0
102
RTVSPost2010PropOp36
 70
     1
102
RTVSPost2010Prop37
 90
       50
102
RTVSPost2010PropOp37
 70
     1
102
RTVSPost2010Prop38
140
0.0
102
RTVSPost2010PropOp38
 70
     1
102
RTVSPost2010Prop39
140
1.0
102
RTVSPost2010PropOp39
 70
     1
102
RTVSPost2010Prop40
 90
        0
102
RTVSPost2010PropOp40
 70
     1
102
RTVSPost2010Prop41ColorIndex
 90
       18
102
RTVSPost2010Prop41ColorRGB
 90
        0
102
RTVSPost2010PropOp41
 70
     1
102
RTVSPost2010Prop42
 90
       50
102
RTVSPost2010PropOp42
 70
     1
102
RTVSPost2010Prop43
 90
        3
102
RTVSPost2010PropOp43
 70
     1
102
RTVSPost2010Prop44ColorIndex
 90
        5
102
RTVSPost2010Prop44ColorRGB
 90
      255
102
RTVSPost2010PropOp44
 70
     1
102
RTVSPost2010Prop45
280
     0
102
RTVSPost2010PropOp45
 70
     1
102
RTVSPost2010Prop46
 90
       50
102
RTVSPost2010PropOp46
 70
     1
102
RTVSPost2010Prop47
 90
       50
102
RTVSPost2010PropOp47
 70
     1
102
RTVSPost2010Prop48
 90
       50
102
RTVSPost2010PropOp48
 70
     1
102
RTVSPost2010Prop49
280
     0
102
RTVSPost2010PropOp49
 70
     1
102
RTVSPost2010Prop50
 90
       50
102
RTVSPost2010PropOp50
 70
     1
102
RTVSPost2010Prop51ColorIndex
 90
      256
102
RTVSPost2010Prop51ColorRGB
 90
-16777216
102
RTVSPost2010PropOp51
 70
     0
102
RTVSPost2010Prop52
140
1.0
102
RTVSPost2010PropOp52
 70
     0
102
RTVSPost2010Prop53
 90
        2
102
RTVSPost2010PropOp53
 70
     1
102
RTVSPost2010Prop54
  1
strokes_ogs.tif
102
RTVSPost2010PropOp54
 70
     1
102
RTVSPost2010Prop55
280
     0
102
RTVSPost2010PropOp55
 70
     1
102
RTVSPost2010Prop56
140
1.0
102
RTVSPost2010PropOp56
 70
     1
102
RTVSPost2010Prop57
140
1.0
102
RTVSPost2010PropOp57
 70
     1
  0
XRECORD
  5
661
102
{ACAD_REACTORS
330
660
102
}
330
660
100
AcDbXrecord
280
     1
102
RTVSPropertyOp0
 70
     1
102
RTVSPropertyOp1
 70
     1
102
RTVSPropertyOp2
 70
     1
102
RTVSPropertyOp3
 70
     1
102
RTVSPropertyOp4
 70
     1
102
RTVSPropertyOp5
 70
     1
102
RTVSPropertyOp6
 70
     1
102
RTVSPropertyOp7
 70
     1
102
RTVSPropertyOp8
 70
     1
102
RTVSPropertyOp9
 70
     1
102
RTVSPropertyOp10
 70
     1
102
RTVSPropertyOp11
 70
     1
102
RTVSPropertyOp12
 70
     1
102
RTVSPropertyOp13
 70
     1
102
RTVSPropertyOp14
 70
     1
102
RTVSPropertyOp15
 70
     1
102
RTVSPropertyOp16
 70
     1
102
RTVSPropertyOp17
 70
     1
102
RTVSPropertyOp18
 70
     1
102
RTVSPropertyOp19
 70
     1
102
RTVSPropertyOp20
 70
     1
102
RTVSPropertyOp21
 70
     1
102
RTVSPropertyOp22
 70
     1
102
RTVSPropertyOp23
 70
     1
102
RTVSPropertyOp24
 70
     1
102
RTVSPropertyOp25
 70
     1
102
RTVSPropertyOp26
 70
     1
102
RTVSPropertyOp27
 70
     1
102
RTVSPropertyOp28
 70
     1
102
RTVSPropertyOp29
 70
     1
102
RTVSPropertyOp30
 70
     1
102
RTVSPropertyOp31
 70
     1
102
RTVSPropertyOp32
 70
     1
102
RTVSPropertyOp33
 70
     1
102
RTVSPropertyOp34
 70
     1
102
RTVSPropertyOp35
 70
     1
102
RTVSPropertyOp36
 70
     1
102
RTVSPropertyOp37
 70
     1
102
RTVSPropertyOp38
 70
     1
102
RTVSPropertyOp39
 70
     1
102
RTVSPropertyOp40
 70
     1
102
RTVSPropertyOp41
 70
     1
102
RTVSPropertyOp42
 70
     1
102
RTVSPropertyOp43
 70
     1
102
RTVSPropertyOp44
 70
     1
102
RTVSPropertyOp45
 70
     1
102
RTVSPropertyOp46
 70
     1
102
RTVSPropertyOp47
 70
     1
102
RTVSPropertyOp48
 70
     1
102
RTVSPropertyOp49
 70
     1
102
RTVSPropertyOp50
 70
     1
102
RTVSPropertyOp51
 70
     0
102
RTVSPropertyOp52
 70
     0
102
RTVSPropertyOp53
 70
     1
102
RTVSPropertyOp54
 70
     1
102
RTVSPropertyOp55
 70
     1
102
RTVSPropertyOp56
 70
     1
102
RTVSPropertyOp57
 70
     1
102
RTVSPost2010Prop28
280
     0
102
RTVSPost2010PropOp28
 70
     1
102
RTVSPost2010Prop29
280
     1
102
RTVSPost2010PropOp29
 70
     1
102
RTVSPost2010Prop30
280
     1
102
RTVSPost2010PropOp30
 70
     1
102
RTVSPost2010Prop31
280
     0
102
RTVSPost2010PropOp31
 70
     1
102
RTVSPost2010Prop32
280
     0
102
RTVSPost2010PropOp32
 70
     1
102
RTVSPost2010Prop33
280
     0
102
RTVSPost2010PropOp33
 70
     1
102
RTVSPost2010Prop34
280
     0
102
RTVSPost2010PropOp34
 70
     1
102
RTVSPost2010Prop35
280
     0
102
RTVSPost2010PropOp35
 70
     1
102
RTVSPost2010Prop36
280
     0
102
RTVSPost2010PropOp36
 70
     1
102
RTVSPost2010Prop37
 90
       50
102
RTVSPost2010PropOp37
 70
     1
102
RTVSPost2010Prop38
140
0.0
102
RTVSPost2010PropOp38
 70
     1
102
RTVSPost2010Prop39
140
1.0
102
RTVSPost2010PropOp39
 70
     1
102
RTVSPost2010Prop40
 90
        0
102
RTVSPost2010PropOp40
 70
     1
102
RTVSPost2010Prop41ColorIndex
 90
       18
102
RTVSPost2010Prop41ColorRGB
 90
        0
102
RTVSPost2010PropOp41
 70
     1
102
RTVSPost2010Prop42
 90
       50
102
RTVSPost2010PropOp42
 70
     1
102
RTVSPost2010Prop43
 90
        3
102
RTVSPost2010PropOp43
 70
     1
102
RTVSPost2010Prop44ColorIndex
 90
        5
102
RTVSPost2010Prop44ColorRGB
 90
      255
102
RTVSPost2010PropOp44
 70
     1
102
RTVSPost2010Prop45
280
     0
102
RTVSPost2010PropOp45
 70
     1
102
RTVSPost2010Prop46
 90
       50
102
RTVSPost2010PropOp46
 70
     1
102
RTVSPost2010Prop47
 90
       50
102
RTVSPost2010PropOp47
 70
     1
102
RTVSPost2010Prop48
 90
       50
102
RTVSPost2010PropOp48
 70
     1
102
RTVSPost2010Prop49
280
     0
102
RTVSPost2010PropOp49
 70
     1
102
RTVSPost2010Prop50
 90
       50
102
RTVSPost2010PropOp50
 70
     1
102
RTVSPost2010Prop51ColorIndex
 90
      256
102
RTVSPost2010Prop51ColorRGB
 90
-16777216
102
RTVSPost2010PropOp51
 70
     0
102
RTVSPost2010Prop52
140
1.0
102
RTVSPost2010PropOp52
 70
     0
102
RTVSPost2010Prop53
 90
        2
102
RTVSPost2010PropOp53
 70
     1
102
RTVSPost2010Prop54
  1
strokes_ogs.tif
102
RTVSPost2010PropOp54
 70
     1
102
RTVSPost2010Prop55
280
     0
102
RTVSPost2010PropOp55
 70
     1
102
RTVSPost2010Prop56
140
1.0
102
RTVSPost2010PropOp56
 70
     1
102
RTVSPost2010Prop57
140
1.0
102
RTVSPost2010PropOp57
 70
     1
  0
XRECORD
  5
667
102
{ACAD_REACTORS
330
666
102
}
330
666
100
AcDbXrecord
280
     1
102
RTVSPropertyOp0
 70
     1
102
RTVSPropertyOp1
 70
     1
102
RTVSPropertyOp2
 70
     1
102
RTVSPropertyOp3
 70
     1
102
RTVSPropertyOp4
 70
     1
102
RTVSPropertyOp5
 70
     1
102
RTVSPropertyOp6
 70
     1
102
RTVSPropertyOp7
 70
     1
102
RTVSPropertyOp8
 70
     1
102
RTVSPropertyOp9
 70
     1
102
RTVSPropertyOp10
 70
     1
102
RTVSPropertyOp11
 70
     1
102
RTVSPropertyOp12
 70
     1
102
RTVSPropertyOp13
 70
     1
102
RTVSPropertyOp14
 70
     1
102
RTVSPropertyOp15
 70
     1
102
RTVSPropertyOp16
 70
     1
102
RTVSPropertyOp17
 70
     1
102
RTVSPropertyOp18
 70
     1
102
RTVSPropertyOp19
 70
     1
102
RTVSPropertyOp20
 70
     1
102
RTVSPropertyOp21
 70
     1
102
RTVSPropertyOp22
 70
     1
102
RTVSPropertyOp23
 70
     1
102
RTVSPropertyOp24
 70
     1
102
RTVSPropertyOp25
 70
     1
102
RTVSPropertyOp26
 70
     1
102
RTVSPropertyOp27
 70
     1
102
RTVSPropertyOp28
 70
     1
102
RTVSPropertyOp29
 70
     1
102
RTVSPropertyOp30
 70
     1
102
RTVSPropertyOp31
 70
     1
102
RTVSPropertyOp32
 70
     1
102
RTVSPropertyOp33
 70
     1
102
RTVSPropertyOp34
 70
     1
102
RTVSPropertyOp35
 70
     1
102
RTVSPropertyOp36
 70
     1
102
RTVSPropertyOp37
 70
     1
102
RTVSPropertyOp38
 70
     1
102
RTVSPropertyOp39
 70
     1
102
RTVSPropertyOp40
 70
     1
102
RTVSPropertyOp41
 70
     1
102
RTVSPropertyOp42
 70
     1
102
RTVSPropertyOp43
 70
     1
102
RTVSPropertyOp44
 70
     1
102
RTVSPropertyOp45
 70
     1
102
RTVSPropertyOp46
 70
     1
102
RTVSPropertyOp47
 70
     1
102
RTVSPropertyOp48
 70
     1
102
RTVSPropertyOp49
 70
     1
102
RTVSPropertyOp50
 70
     1
102
RTVSPropertyOp51
 70
     0
102
RTVSPropertyOp52
 70
     0
102
RTVSPropertyOp53
 70
     1
102
RTVSPropertyOp54
 70
     1
102
RTVSPropertyOp55
 70
     1
102
RTVSPropertyOp56
 70
     1
102
RTVSPropertyOp57
 70
     1
102
RTVSPost2010Prop28
280
     0
102
RTVSPost2010PropOp28
 70
     1
102
RTVSPost2010Prop29
280
     1
102
RTVSPost2010PropOp29
 70
     1
102
RTVSPost2010Prop30
280
     1
102
RTVSPost2010PropOp30
 70
     1
102
RTVSPost2010Prop31
280
     0
102
RTVSPost2010PropOp31
 70
     1
102
RTVSPost2010Prop32
280
     0
102
RTVSPost2010PropOp32
 70
     1
102
RTVSPost2010Prop33
280
     0
102
RTVSPost2010PropOp33
 70
     1
102
RTVSPost2010Prop34
280
     0
102
RTVSPost2010PropOp34
 70
     1
102
RTVSPost2010Prop35
280
     0
102
RTVSPost2010PropOp35
 70
     1
102
RTVSPost2010Prop36
280
     0
102
RTVSPost2010PropOp36
 70
     1
102
RTVSPost2010Prop37
 90
       50
102
RTVSPost2010PropOp37
 70
     1
102
RTVSPost2010Prop38
140
0.0
102
RTVSPost2010PropOp38
 70
     1
102
RTVSPost2010Prop39
140
1.0
102
RTVSPost2010PropOp39
 70
     1
102
RTVSPost2010Prop40
 90
        0
102
RTVSPost2010PropOp40
 70
     1
102
RTVSPost2010Prop41ColorIndex
 90
       18
102
RTVSPost2010Prop41ColorRGB
 90
        0
102
RTVSPost2010PropOp41
 70
     1
102
RTVSPost2010Prop42
 90
       50
102
RTVSPost2010PropOp42
 70
     1
102
RTVSPost2010Prop43
 90
        3
102
RTVSPost2010PropOp43
 70
     1
102
RTVSPost2010Prop44ColorIndex
 90
        5
102
RTVSPost2010Prop44ColorRGB
 90
      255
102
RTVSPost2010PropOp44
 70
     1
102
RTVSPost2010Prop45
280
     0
102
RTVSPost2010PropOp45
 70
     1
102
RTVSPost2010Prop46
 90
       50
102
RTVSPost2010PropOp46
 70
     1
102
RTVSPost2010Prop47
 90
       50
102
RTVSPost2010PropOp47
 70
     1
102
RTVSPost2010Prop48
 90
       50
102
RTVSPost2010PropOp48
 70
     1
102
RTVSPost2010Prop49
280
     0
102
RTVSPost2010PropOp49
 70
     1
102
RTVSPost2010Prop50
 90
       50
102
RTVSPost2010PropOp50
 70
     1
102
RTVSPost2010Prop51ColorIndex
 90
      256
102
RTVSPost2010Prop51ColorRGB
 90
-16777216
102
RTVSPost2010PropOp51
 70
     0
102
RTVSPost2010Prop52
140
1.0
102
RTVSPost2010PropOp52
 70
     0
102
RTVSPost2010Prop53
 90
        2
102
RTVSPost2010PropOp53
 70
     1
102
RTVSPost2010Prop54
  1
strokes_ogs.tif
102
RTVSPost2010PropOp54
 70
     1
102
RTVSPost2010Prop55
280
     0
102
RTVSPost2010PropOp55
 70
     1
102
RTVSPost2010Prop56
140
1.0
102
RTVSPost2010PropOp56
 70
     1
102
RTVSPost2010Prop57
140
1.0
102
RTVSPost2010PropOp57
 70
     1
  0
XRECORD
  5
67B
102
{ACAD_REACTORS
330
67A
102
}
330
67A
100
AcDbXrecord
280
     1
102
RTVSPropertyOp0
 70
     0
102
RTVSPropertyOp1
 70
     0
102
RTVSPropertyOp2
 70
     0
102
RTVSPropertyOp3
 70
     0
102
RTVSPropertyOp4
 70
     0
102
RTVSPropertyOp5
 70
     0
102
RTVSPropertyOp6
 70
     0
102
RTVSPropertyOp7
 70
     0
102
RTVSPropertyOp8
 70
     0
102
RTVSPropertyOp9
 70
     0
102
RTVSPropertyOp10
 70
     0
102
RTVSPropertyOp11
 70
     0
102
RTVSPropertyOp12
 70
     0
102
RTVSPropertyOp13
 70
     0
102
RTVSPropertyOp14
 70
     2
102
RTVSPropertyOp15
 70
     0
102
RTVSPropertyOp16
 70
     0
102
RTVSPropertyOp17
 70
     0
102
RTVSPropertyOp18
 70
     0
102
RTVSPropertyOp19
 70
     0
102
RTVSPropertyOp20
 70
     0
102
RTVSPropertyOp21
 70
     0
102
RTVSPropertyOp22
 70
     0
102
RTVSPropertyOp23
 70
     0
102
RTVSPropertyOp24
 70
     0
102
RTVSPropertyOp25
 70
     0
102
RTVSPropertyOp26
 70
     0
102
RTVSPropertyOp27
 70
     0
102
RTVSPropertyOp28
 70
     0
102
RTVSPropertyOp29
 70
     0
102
RTVSPropertyOp30
 70
     0
102
RTVSPropertyOp31
 70
     0
102
RTVSPropertyOp32
 70
     0
102
RTVSPropertyOp33
 70
     0
102
RTVSPropertyOp34
 70
     0
102
RTVSPropertyOp35
 70
     0
102
RTVSPropertyOp36
 70
     0
102
RTVSPropertyOp37
 70
     0
102
RTVSPropertyOp38
 70
     0
102
RTVSPropertyOp39
 70
     0
102
RTVSPropertyOp40
 70
     0
102
RTVSPropertyOp41
 70
     0
102
RTVSPropertyOp42
 70
     0
102
RTVSPropertyOp43
 70
     0
102
RTVSPropertyOp44
 70
     0
102
RTVSPropertyOp45
 70
     0
102
RTVSPropertyOp46
 70
     0
102
RTVSPropertyOp47
 70
     0
102
RTVSPropertyOp48
 70
     0
102
RTVSPropertyOp49
 70
     0
102
RTVSPropertyOp50
 70
     0
102
RTVSPropertyOp51
 70
     0
102
RTVSPropertyOp52
 70
     0
102
RTVSPropertyOp53
 70
     0
102
RTVSPropertyOp54
 70
     0
102
RTVSPropertyOp55
 70
     0
102
RTVSPropertyOp56
 70
     0
102
RTVSPropertyOp57
 70
     0
102
RTVSPost2010Prop28
280
     0
102
RTVSPost2010PropOp28
 70
     0
102
RTVSPost2010Prop29
280
     1
102
RTVSPost2010PropOp29
 70
     0
102
RTVSPost2010Prop30
280
     1
102
RTVSPost2010PropOp30
 70
     0
102
RTVSPost2010Prop31
280
     0
102
RTVSPost2010PropOp31
 70
     0
102
RTVSPost2010Prop32
280
     0
102
RTVSPost2010PropOp32
 70
     0
102
RTVSPost2010Prop33
280
     0
102
RTVSPost2010PropOp33
 70
     0
102
RTVSPost2010Prop34
280
     0
102
RTVSPost2010PropOp34
 70
     0
102
RTVSPost2010Prop35
280
     0
102
RTVSPost2010PropOp35
 70
     0
102
RTVSPost2010Prop36
280
     0
102
RTVSPost2010PropOp36
 70
     0
102
RTVSPost2010Prop37
 90
       50
102
RTVSPost2010PropOp37
 70
     0
102
RTVSPost2010Prop38
140
0.0
102
RTVSPost2010PropOp38
 70
     0
102
RTVSPost2010Prop39
140
1.0
102
RTVSPost2010PropOp39
 70
     0
102
RTVSPost2010Prop40
 90
        0
102
RTVSPost2010PropOp40
 70
     0
102
RTVSPost2010Prop41ColorIndex
 90
       18
102
RTVSPost2010Prop41ColorRGB
 90
        0
102
RTVSPost2010PropOp41
 70
     0
102
RTVSPost2010Prop42
 90
       50
102
RTVSPost2010PropOp42
 70
     0
102
RTVSPost2010Prop43
 90
        3
102
RTVSPost2010PropOp43
 70
     0
102
RTVSPost2010Prop44ColorIndex
 90
        5
102
RTVSPost2010Prop44ColorRGB
 90
      255
102
RTVSPost2010PropOp44
 70
     0
102
RTVSPost2010Prop45
280
     0
102
RTVSPost2010PropOp45
 70
     0
102
RTVSPost2010Prop46
 90
       50
102
RTVSPost2010PropOp46
 70
     0
102
RTVSPost2010Prop47
 90
       50
102
RTVSPost2010PropOp47
 70
     0
102
RTVSPost2010Prop48
 90
       50
102
RTVSPost2010PropOp48
 70
     0
102
RTVSPost2010Prop49
280
     0
102
RTVSPost2010PropOp49
 70
     0
102
RTVSPost2010Prop50
 90
       50
102
RTVSPost2010PropOp50
 70
     0
102
RTVSPost2010Prop51ColorIndex
 90
      256
102
RTVSPost2010Prop51ColorRGB
 90
-16777216
102
RTVSPost2010PropOp51
 70
     0
102
RTVSPost2010Prop52
140
1.0
102
RTVSPost2010PropOp52
 70
     0
102
RTVSPost2010Prop53
 90
        2
102
RTVSPost2010PropOp53
 70
     0
102
RTVSPost2010Prop54
  1
strokes_ogs.tif
102
RTVSPost2010PropOp54
 70
     0
102
RTVSPost2010Prop55
280
     0
102
RTVSPost2010PropOp55
 70
     0
102
RTVSPost2010Prop56
140
1.0
102
RTVSPost2010PropOp56
 70
     0
102
RTVSPost2010Prop57
140
1.0
102
RTVSPost2010PropOp57
 70
     0
  0
XRECORD
  5
675
102
{ACAD_REACTORS
330
674
102
}
330
674
100
AcDbXrecord
280
     1
102
RTVSPropertyOp0
 70
     1
102
RTVSPropertyOp1
 70
     1
102
RTVSPropertyOp2
 70
     1
102
RTVSPropertyOp3
 70
     1
102
RTVSPropertyOp4
 70
     1
102
RTVSPropertyOp5
 70
     1
102
RTVSPropertyOp6
 70
     1
102
RTVSPropertyOp7
 70
     1
102
RTVSPropertyOp8
 70
     1
102
RTVSPropertyOp9
 70
     1
102
RTVSPropertyOp10
 70
     1
102
RTVSPropertyOp11
 70
     1
102
RTVSPropertyOp12
 70
     1
102
RTVSPropertyOp13
 70
     1
102
RTVSPropertyOp14
 70
     1
102
RTVSPropertyOp15
 70
     1
102
RTVSPropertyOp16
 70
     1
102
RTVSPropertyOp17
 70
     1
102
RTVSPropertyOp18
 70
     1
102
RTVSPropertyOp19
 70
     1
102
RTVSPropertyOp20
 70
     1
102
RTVSPropertyOp21
 70
     1
102
RTVSPropertyOp22
 70
     1
102
RTVSPropertyOp23
 70
     1
102
RTVSPropertyOp24
 70
     1
102
RTVSPropertyOp25
 70
     1
102
RTVSPropertyOp26
 70
     1
102
RTVSPropertyOp27
 70
     1
102
RTVSPropertyOp28
 70
     1
102
RTVSPropertyOp29
 70
     1
102
RTVSPropertyOp30
 70
     1
102
RTVSPropertyOp31
 70
     1
102
RTVSPropertyOp32
 70
     1
102
RTVSPropertyOp33
 70
     1
102
RTVSPropertyOp34
 70
     1
102
RTVSPropertyOp35
 70
     1
102
RTVSPropertyOp36
 70
     1
102
RTVSPropertyOp37
 70
     1
102
RTVSPropertyOp38
 70
     1
102
RTVSPropertyOp39
 70
     1
102
RTVSPropertyOp40
 70
     1
102
RTVSPropertyOp41
 70
     1
102
RTVSPropertyOp42
 70
     1
102
RTVSPropertyOp43
 70
     1
102
RTVSPropertyOp44
 70
     1
102
RTVSPropertyOp45
 70
     1
102
RTVSPropertyOp46
 70
     1
102
RTVSPropertyOp47
 70
     1
102
RTVSPropertyOp48
 70
     1
102
RTVSPropertyOp49
 70
     1
102
RTVSPropertyOp50
 70
     1
102
RTVSPropertyOp51
 70
     0
102
RTVSPropertyOp52
 70
     0
102
RTVSPropertyOp53
 70
     1
102
RTVSPropertyOp54
 70
     1
102
RTVSPropertyOp55
 70
     1
102
RTVSPropertyOp56
 70
     1
102
RTVSPropertyOp57
 70
     1
102
RTVSPost2010Prop28
280
     0
102
RTVSPost2010PropOp28
 70
     1
102
RTVSPost2010Prop29
280
     1
102
RTVSPost2010PropOp29
 70
     1
102
RTVSPost2010Prop30
280
     1
102
RTVSPost2010PropOp30
 70
     1
102
RTVSPost2010Prop31
280
     0
102
RTVSPost2010PropOp31
 70
     1
102
RTVSPost2010Prop32
280
     0
102
RTVSPost2010PropOp32
 70
     1
102
RTVSPost2010Prop33
280
     0
102
RTVSPost2010PropOp33
 70
     1
102
RTVSPost2010Prop34
280
     0
102
RTVSPost2010PropOp34
 70
     1
102
RTVSPost2010Prop35
280
     0
102
RTVSPost2010PropOp35
 70
     1
102
RTVSPost2010Prop36
280
     0
102
RTVSPost2010PropOp36
 70
     1
102
RTVSPost2010Prop37
 90
       50
102
RTVSPost2010PropOp37
 70
     1
102
RTVSPost2010Prop38
140
0.0
102
RTVSPost2010PropOp38
 70
     1
102
RTVSPost2010Prop39
140
1.0
102
RTVSPost2010PropOp39
 70
     1
102
RTVSPost2010Prop40
 90
        0
102
RTVSPost2010PropOp40
 70
     1
102
RTVSPost2010Prop41ColorIndex
 90
       18
102
RTVSPost2010Prop41ColorRGB
 90
        0
102
RTVSPost2010PropOp41
 70
     1
102
RTVSPost2010Prop42
 90
       50
102
RTVSPost2010PropOp42
 70
     1
102
RTVSPost2010Prop43
 90
        3
102
RTVSPost2010PropOp43
 70
     1
102
RTVSPost2010Prop44ColorIndex
 90
        5
102
RTVSPost2010Prop44ColorRGB
 90
      255
102
RTVSPost2010PropOp44
 70
     1
102
RTVSPost2010Prop45
280
     0
102
RTVSPost2010PropOp45
 70
     1
102
RTVSPost2010Prop46
 90
       50
102
RTVSPost2010PropOp46
 70
     1
102
RTVSPost2010Prop47
 90
       50
102
RTVSPost2010PropOp47
 70
     1
102
RTVSPost2010Prop48
 90
       50
102
RTVSPost2010PropOp48
 70
     1
102
RTVSPost2010Prop49
280
     0
102
RTVSPost2010PropOp49
 70
     1
102
RTVSPost2010Prop50
 90
       50
102
RTVSPost2010PropOp50
 70
     1
102
RTVSPost2010Prop51ColorIndex
 90
      256
102
RTVSPost2010Prop51ColorRGB
 90
-16777216
102
RTVSPost2010PropOp51
 70
     0
102
RTVSPost2010Prop52
140
1.0
102
RTVSPost2010PropOp52
 70
     0
102
RTVSPost2010Prop53
 90
        2
102
RTVSPost2010PropOp53
 70
     1
102
RTVSPost2010Prop54
  1
strokes_ogs.tif
102
RTVSPost2010PropOp54
 70
     1
102
RTVSPost2010Prop55
280
     0
102
RTVSPost2010PropOp55
 70
     1
102
RTVSPost2010Prop56
140
1.0
102
RTVSPost2010PropOp56
 70
     1
102
RTVSPost2010Prop57
140
1.0
102
RTVSPost2010PropOp57
 70
     1
  0
XRECORD
  5
67D
102
{ACAD_REACTORS
330
67C
102
}
330
67C
100
AcDbXrecord
280
     1
102
RTVSPropertyOp0
 70
     0
102
RTVSPropertyOp1
 70
     0
102
RTVSPropertyOp2
 70
     0
102
RTVSPropertyOp3
 70
     0
102
RTVSPropertyOp4
 70
     0
102
RTVSPropertyOp5
 70
     0
102
RTVSPropertyOp6
 70
     0
102
RTVSPropertyOp7
 70
     0
102
RTVSPropertyOp8
 70
     0
102
RTVSPropertyOp9
 70
     0
102
RTVSPropertyOp10
 70
     0
102
RTVSPropertyOp11
 70
     0
102
RTVSPropertyOp12
 70
     0
102
RTVSPropertyOp13
 70
     0
102
RTVSPropertyOp14
 70
     2
102
RTVSPropertyOp15
 70
     0
102
RTVSPropertyOp16
 70
     0
102
RTVSPropertyOp17
 70
     0
102
RTVSPropertyOp18
 70
     0
102
RTVSPropertyOp19
 70
     0
102
RTVSPropertyOp20
 70
     0
102
RTVSPropertyOp21
 70
     0
102
RTVSPropertyOp22
 70
     0
102
RTVSPropertyOp23
 70
     0
102
RTVSPropertyOp24
 70
     0
102
RTVSPropertyOp25
 70
     0
102
RTVSPropertyOp26
 70
     0
102
RTVSPropertyOp27
 70
     0
102
RTVSPropertyOp28
 70
     0
102
RTVSPropertyOp29
 70
     0
102
RTVSPropertyOp30
 70
     0
102
RTVSPropertyOp31
 70
     0
102
RTVSPropertyOp32
 70
     0
102
RTVSPropertyOp33
 70
     0
102
RTVSPropertyOp34
 70
     0
102
RTVSPropertyOp35
 70
     0
102
RTVSPropertyOp36
 70
     0
102
RTVSPropertyOp37
 70
     0
102
RTVSPropertyOp38
 70
     0
102
RTVSPropertyOp39
 70
     0
102
RTVSPropertyOp40
 70
     0
102
RTVSPropertyOp41
 70
     0
102
RTVSPropertyOp42
 70
     0
102
RTVSPropertyOp43
 70
     0
102
RTVSPropertyOp44
 70
     0
102
RTVSPropertyOp45
 70
     0
102
RTVSPropertyOp46
 70
     0
102
RTVSPropertyOp47
 70
     0
102
RTVSPropertyOp48
 70
     0
102
RTVSPropertyOp49
 70
     0
102
RTVSPropertyOp50
 70
     0
102
RTVSPropertyOp51
 70
     0
102
RTVSPropertyOp52
 70
     0
102
RTVSPropertyOp53
 70
     0
102
RTVSPropertyOp54
 70
     0
102
RTVSPropertyOp55
 70
     0
102
RTVSPropertyOp56
 70
     0
102
RTVSPropertyOp57
 70
     0
102
RTVSPost2010Prop28
280
     0
102
RTVSPost2010PropOp28
 70
     0
102
RTVSPost2010Prop29
280
     1
102
RTVSPost2010PropOp29
 70
     0
102
RTVSPost2010Prop30
280
     1
102
RTVSPost2010PropOp30
 70
     0
102
RTVSPost2010Prop31
280
     0
102
RTVSPost2010PropOp31
 70
     0
102
RTVSPost2010Prop32
280
     0
102
RTVSPost2010PropOp32
 70
     0
102
RTVSPost2010Prop33
280
     0
102
RTVSPost2010PropOp33
 70
     0
102
RTVSPost2010Prop34
280
     0
102
RTVSPost2010PropOp34
 70
     0
102
RTVSPost2010Prop35
280
     0
102
RTVSPost2010PropOp35
 70
     0
102
RTVSPost2010Prop36
280
     0
102
RTVSPost2010PropOp36
 70
     0
102
RTVSPost2010Prop37
 90
       50
102
RTVSPost2010PropOp37
 70
     0
102
RTVSPost2010Prop38
140
0.0
102
RTVSPost2010PropOp38
 70
     0
102
RTVSPost2010Prop39
140
1.0
102
RTVSPost2010PropOp39
 70
     0
102
RTVSPost2010Prop40
 90
        0
102
RTVSPost2010PropOp40
 70
     0
102
RTVSPost2010Prop41ColorIndex
 90
       18
102
RTVSPost2010Prop41ColorRGB
 90
        0
102
RTVSPost2010PropOp41
 70
     0
102
RTVSPost2010Prop42
 90
       50
102
RTVSPost2010PropOp42
 70
     0
102
RTVSPost2010Prop43
 90
        3
102
RTVSPost2010PropOp43
 70
     0
102
RTVSPost2010Prop44ColorIndex
 90
        5
102
RTVSPost2010Prop44ColorRGB
 90
      255
102
RTVSPost2010PropOp44
 70
     0
102
RTVSPost2010Prop45
280
     0
102
RTVSPost2010PropOp45
 70
     0
102
RTVSPost2010Prop46
 90
       50
102
RTVSPost2010PropOp46
 70
     0
102
RTVSPost2010Prop47
 90
       50
102
RTVSPost2010PropOp47
 70
     0
102
RTVSPost2010Prop48
 90
       50
102
RTVSPost2010PropOp48
 70
     0
102
RTVSPost2010Prop49
280
     0
102
RTVSPost2010PropOp49
 70
     0
102
RTVSPost2010Prop50
 90
       50
102
RTVSPost2010PropOp50
 70
     0
102
RTVSPost2010Prop51ColorIndex
 90
      256
102
RTVSPost2010Prop51ColorRGB
 90
-16777216
102
RTVSPost2010PropOp51
 70
     0
102
RTVSPost2010Prop52
140
1.0
102
RTVSPost2010PropOp52
 70
     0
102
RTVSPost2010Prop53
 90
        2
102
RTVSPost2010PropOp53
 70
     0
102
RTVSPost2010Prop54
  1
strokes_ogs.tif
102
RTVSPost2010PropOp54
 70
     0
102
RTVSPost2010Prop55
280
     0
102
RTVSPost2010PropOp55
 70
     0
102
RTVSPost2010Prop56
140
1.0
102
RTVSPost2010PropOp56
 70
     0
102
RTVSPost2010Prop57
140
1.0
102
RTVSPost2010PropOp57
 70
     0
  0
XRECORD
  5
66B
102
{ACAD_REACTORS
330
66A
102
}
330
66A
100
AcDbXrecord
280
     1
102
RTVSPropertyOp0
 70
     1
102
RTVSPropertyOp1
 70
     1
102
RTVSPropertyOp2
 70
     1
102
RTVSPropertyOp3
 70
     1
102
RTVSPropertyOp4
 70
     1
102
RTVSPropertyOp5
 70
     1
102
RTVSPropertyOp6
 70
     1
102
RTVSPropertyOp7
 70
     1
102
RTVSPropertyOp8
 70
     1
102
RTVSPropertyOp9
 70
     1
102
RTVSPropertyOp10
 70
     1
102
RTVSPropertyOp11
 70
     1
102
RTVSPropertyOp12
 70
     1
102
RTVSPropertyOp13
 70
     1
102
RTVSPropertyOp14
 70
     1
102
RTVSPropertyOp15
 70
     1
102
RTVSPropertyOp16
 70
     1
102
RTVSPropertyOp17
 70
     1
102
RTVSPropertyOp18
 70
     1
102
RTVSPropertyOp19
 70
     1
102
RTVSPropertyOp20
 70
     1
102
RTVSPropertyOp21
 70
     1
102
RTVSPropertyOp22
 70
     1
102
RTVSPropertyOp23
 70
     1
102
RTVSPropertyOp24
 70
     1
102
RTVSPropertyOp25
 70
     1
102
RTVSPropertyOp26
 70
     1
102
RTVSPropertyOp27
 70
     1
102
RTVSPropertyOp28
 70
     1
102
RTVSPropertyOp29
 70
     1
102
RTVSPropertyOp30
 70
     1
102
RTVSPropertyOp31
 70
     1
102
RTVSPropertyOp32
 70
     1
102
RTVSPropertyOp33
 70
     1
102
RTVSPropertyOp34
 70
     1
102
RTVSPropertyOp35
 70
     1
102
RTVSPropertyOp36
 70
     1
102
RTVSPropertyOp37
 70
     1
102
RTVSPropertyOp38
 70
     1
102
RTVSPropertyOp39
 70
     1
102
RTVSPropertyOp40
 70
     1
102
RTVSPropertyOp41
 70
     1
102
RTVSPropertyOp42
 70
     1
102
RTVSPropertyOp43
 70
     1
102
RTVSPropertyOp44
 70
     1
102
RTVSPropertyOp45
 70
     1
102
RTVSPropertyOp46
 70
     1
102
RTVSPropertyOp47
 70
     1
102
RTVSPropertyOp48
 70
     1
102
RTVSPropertyOp49
 70
     1
102
RTVSPropertyOp50
 70
     1
102
RTVSPropertyOp51
 70
     0
102
RTVSPropertyOp52
 70
     0
102
RTVSPropertyOp53
 70
     1
102
RTVSPropertyOp54
 70
     1
102
RTVSPropertyOp55
 70
     1
102
RTVSPropertyOp56
 70
     1
102
RTVSPropertyOp57
 70
     1
102
RTVSPost2010Prop28
280
     0
102
RTVSPost2010PropOp28
 70
     1
102
RTVSPost2010Prop29
280
     1
102
RTVSPost2010PropOp29
 70
     1
102
RTVSPost2010Prop30
280
     1
102
RTVSPost2010PropOp30
 70
     1
102
RTVSPost2010Prop31
280
     0
102
RTVSPost2010PropOp31
 70
     1
102
RTVSPost2010Prop32
280
     0
102
RTVSPost2010PropOp32
 70
     1
102
RTVSPost2010Prop33
280
     0
102
RTVSPost2010PropOp33
 70
     1
102
RTVSPost2010Prop34
280
     0
102
RTVSPost2010PropOp34
 70
     1
102
RTVSPost2010Prop35
280
     0
102
RTVSPost2010PropOp35
 70
     1
102
RTVSPost2010Prop36
280
     0
102
RTVSPost2010PropOp36
 70
     1
102
RTVSPost2010Prop37
 90
       50
102
RTVSPost2010PropOp37
 70
     1
102
RTVSPost2010Prop38
140
0.0
102
RTVSPost2010PropOp38
 70
     1
102
RTVSPost2010Prop39
140
1.0
102
RTVSPost2010PropOp39
 70
     1
102
RTVSPost2010Prop40
 90
        0
102
RTVSPost2010PropOp40
 70
     1
102
RTVSPost2010Prop41ColorIndex
 90
       18
102
RTVSPost2010Prop41ColorRGB
 90
        0
102
RTVSPost2010PropOp41
 70
     1
102
RTVSPost2010Prop42
 90
       50
102
RTVSPost2010PropOp42
 70
     1
102
RTVSPost2010Prop43
 90
        3
102
RTVSPost2010PropOp43
 70
     1
102
RTVSPost2010Prop44ColorIndex
 90
        5
102
RTVSPost2010Prop44ColorRGB
 90
      255
102
RTVSPost2010PropOp44
 70
     1
102
RTVSPost2010Prop45
280
     0
102
RTVSPost2010PropOp45
 70
     1
102
RTVSPost2010Prop46
 90
       50
102
RTVSPost2010PropOp46
 70
     1
102
RTVSPost2010Prop47
 90
       50
102
RTVSPost2010PropOp47
 70
     1
102
RTVSPost2010Prop48
 90
       50
102
RTVSPost2010PropOp48
 70
     1
102
RTVSPost2010Prop49
280
     0
102
RTVSPost2010PropOp49
 70
     1
102
RTVSPost2010Prop50
 90
       50
102
RTVSPost2010PropOp50
 70
     1
102
RTVSPost2010Prop51ColorIndex
 90
      256
102
RTVSPost2010Prop51ColorRGB
 90
-16777216
102
RTVSPost2010PropOp51
 70
     0
102
RTVSPost2010Prop52
140
1.0
102
RTVSPost2010PropOp52
 70
     0
102
RTVSPost2010Prop53
 90
        2
102
RTVSPost2010PropOp53
 70
     1
102
RTVSPost2010Prop54
  1
strokes_ogs.tif
102
RTVSPost2010PropOp54
 70
     1
102
RTVSPost2010Prop55
280
     0
102
RTVSPost2010PropOp55
 70
     1
102
RTVSPost2010Prop56
140
1.0
102
RTVSPost2010PropOp56
 70
     1
102
RTVSPost2010Prop57
140
1.0
102
RTVSPost2010PropOp57
 70
     1
  0
XRECORD
  5
689
102
{ACAD_REACTORS
330
688
102
}
330
688
100
AcDbXrecord
280
     1
102
RTVSPropertyOp0
 70
     1
102
RTVSPropertyOp1
 70
     1
102
RTVSPropertyOp2
 70
     1
102
RTVSPropertyOp3
 70
     1
102
RTVSPropertyOp4
 70
     1
102
RTVSPropertyOp5
 70
     1
102
RTVSPropertyOp6
 70
     1
102
RTVSPropertyOp7
 70
     1
102
RTVSPropertyOp8
 70
     1
102
RTVSPropertyOp9
 70
     1
102
RTVSPropertyOp10
 70
     1
102
RTVSPropertyOp11
 70
     1
102
RTVSPropertyOp12
 70
     1
102
RTVSPropertyOp13
 70
     1
102
RTVSPropertyOp14
 70
     1
102
RTVSPropertyOp15
 70
     1
102
RTVSPropertyOp16
 70
     1
102
RTVSPropertyOp17
 70
     1
102
RTVSPropertyOp18
 70
     1
102
RTVSPropertyOp19
 70
     1
102
RTVSPropertyOp20
 70
     1
102
RTVSPropertyOp21
 70
     1
102
RTVSPropertyOp22
 70
     1
102
RTVSPropertyOp23
 70
     1
102
RTVSPropertyOp24
 70
     1
102
RTVSPropertyOp25
 70
     1
102
RTVSPropertyOp26
 70
     1
102
RTVSPropertyOp27
 70
     1
102
RTVSPropertyOp28
 70
     1
102
RTVSPropertyOp29
 70
     1
102
RTVSPropertyOp30
 70
     1
102
RTVSPropertyOp31
 70
     1
102
RTVSPropertyOp32
 70
     1
102
RTVSPropertyOp33
 70
     1
102
RTVSPropertyOp34
 70
     1
102
RTVSPropertyOp35
 70
     1
102
RTVSPropertyOp36
 70
     1
102
RTVSPropertyOp37
 70
     1
102
RTVSPropertyOp38
 70
     1
102
RTVSPropertyOp39
 70
     1
102
RTVSPropertyOp40
 70
     1
102
RTVSPropertyOp41
 70
     1
102
RTVSPropertyOp42
 70
     1
102
RTVSPropertyOp43
 70
     1
102
RTVSPropertyOp44
 70
     1
102
RTVSPropertyOp45
 70
     1
102
RTVSPropertyOp46
 70
     1
102
RTVSPropertyOp47
 70
     1
102
RTVSPropertyOp48
 70
     1
102
RTVSPropertyOp49
 70
     1
102
RTVSPropertyOp50
 70
     1
102
RTVSPropertyOp51
 70
     0
102
RTVSPropertyOp52
 70
     0
102
RTVSPropertyOp53
 70
     1
102
RTVSPropertyOp54
 70
     1
102
RTVSPropertyOp55
 70
     1
102
RTVSPropertyOp56
 70
     1
102
RTVSPropertyOp57
 70
     1
102
RTVSPost2010Prop28
280
     0
102
RTVSPost2010PropOp28
 70
     1
102
RTVSPost2010Prop29
280
     1
102
RTVSPost2010PropOp29
 70
     1
102
RTVSPost2010Prop30
280
     1
102
RTVSPost2010PropOp30
 70
     1
102
RTVSPost2010Prop31
280
     0
102
RTVSPost2010PropOp31
 70
     1
102
RTVSPost2010Prop32
280
     0
102
RTVSPost2010PropOp32
 70
     1
102
RTVSPost2010Prop33
280
     0
102
RTVSPost2010PropOp33
 70
     1
102
RTVSPost2010Prop34
280
     0
102
RTVSPost2010PropOp34
 70
     1
102
RTVSPost2010Prop35
280
     0
102
RTVSPost2010PropOp35
 70
     1
102
RTVSPost2010Prop36
280
     0
102
RTVSPost2010PropOp36
 70
     1
102
RTVSPost2010Prop37
 90
       50
102
RTVSPost2010PropOp37
 70
     1
102
RTVSPost2010Prop38
140
0.0
102
RTVSPost2010PropOp38
 70
     1
102
RTVSPost2010Prop39
140
1.0
102
RTVSPost2010PropOp39
 70
     1
102
RTVSPost2010Prop40
 90
        0
102
RTVSPost2010PropOp40
 70
     1
102
RTVSPost2010Prop41ColorIndex
 90
       18
102
RTVSPost2010Prop41ColorRGB
 90
        0
102
RTVSPost2010PropOp41
 70
     1
102
RTVSPost2010Prop42
 90
       50
102
RTVSPost2010PropOp42
 70
     1
102
RTVSPost2010Prop43
 90
        3
102
RTVSPost2010PropOp43
 70
     1
102
RTVSPost2010Prop44ColorIndex
 90
        5
102
RTVSPost2010Prop44ColorRGB
 90
      255
102
RTVSPost2010PropOp44
 70
     1
102
RTVSPost2010Prop45
280
     0
102
RTVSPost2010PropOp45
 70
     1
102
RTVSPost2010Prop46
 90
       50
102
RTVSPost2010PropOp46
 70
     1
102
RTVSPost2010Prop47
 90
       50
102
RTVSPost2010PropOp47
 70
     1
102
RTVSPost2010Prop48
 90
       50
102
RTVSPost2010PropOp48
 70
     1
102
RTVSPost2010Prop49
280
     0
102
RTVSPost2010PropOp49
 70
     1
102
RTVSPost2010Prop50
 90
       50
102
RTVSPost2010PropOp50
 70
     1
102
RTVSPost2010Prop51ColorIndex
 90
      256
102
RTVSPost2010Prop51ColorRGB
 90
-16777216
102
RTVSPost2010PropOp51
 70
     0
102
RTVSPost2010Prop52
140
1.0
102
RTVSPost2010PropOp52
 70
     0
102
RTVSPost2010Prop53
 90
        2
102
RTVSPost2010PropOp53
 70
     1
102
RTVSPost2010Prop54
  1
strokes_ogs.tif
102
RTVSPost2010PropOp54
 70
     1
102
RTVSPost2010Prop55
280
     0
102
RTVSPost2010PropOp55
 70
     1
102
RTVSPost2010Prop56
140
1.0
102
RTVSPost2010PropOp56
 70
     1
102
RTVSPost2010Prop57
140
1.0
102
RTVSPost2010PropOp57
 70
     1
  0
XRECORD
  5
687
102
{ACAD_REACTORS
330
686
102
}
330
686
100
AcDbXrecord
280
     1
102
RTVSPropertyOp0
 70
     1
102
RTVSPropertyOp1
 70
     1
102
RTVSPropertyOp2
 70
     1
102
RTVSPropertyOp3
 70
     1
102
RTVSPropertyOp4
 70
     1
102
RTVSPropertyOp5
 70
     1
102
RTVSPropertyOp6
 70
     1
102
RTVSPropertyOp7
 70
     1
102
RTVSPropertyOp8
 70
     1
102
RTVSPropertyOp9
 70
     1
102
RTVSPropertyOp10
 70
     1
102
RTVSPropertyOp11
 70
     1
102
RTVSPropertyOp12
 70
     1
102
RTVSPropertyOp13
 70
     1
102
RTVSPropertyOp14
 70
     1
102
RTVSPropertyOp15
 70
     1
102
RTVSPropertyOp16
 70
     1
102
RTVSPropertyOp17
 70
     1
102
RTVSPropertyOp18
 70
     1
102
RTVSPropertyOp19
 70
     1
102
RTVSPropertyOp20
 70
     1
102
RTVSPropertyOp21
 70
     1
102
RTVSPropertyOp22
 70
     1
102
RTVSPropertyOp23
 70
     1
102
RTVSPropertyOp24
 70
     1
102
RTVSPropertyOp25
 70
     1
102
RTVSPropertyOp26
 70
     1
102
RTVSPropertyOp27
 70
     1
102
RTVSPropertyOp28
 70
     1
102
RTVSPropertyOp29
 70
     1
102
RTVSPropertyOp30
 70
     1
102
RTVSPropertyOp31
 70
     1
102
RTVSPropertyOp32
 70
     1
102
RTVSPropertyOp33
 70
     1
102
RTVSPropertyOp34
 70
     1
102
RTVSPropertyOp35
 70
     1
102
RTVSPropertyOp36
 70
     1
102
RTVSPropertyOp37
 70
     1
102
RTVSPropertyOp38
 70
     1
102
RTVSPropertyOp39
 70
     1
102
RTVSPropertyOp40
 70
     1
102
RTVSPropertyOp41
 70
     1
102
RTVSPropertyOp42
 70
     1
102
RTVSPropertyOp43
 70
     1
102
RTVSPropertyOp44
 70
     1
102
RTVSPropertyOp45
 70
     1
102
RTVSPropertyOp46
 70
     1
102
RTVSPropertyOp47
 70
     1
102
RTVSPropertyOp48
 70
     1
102
RTVSPropertyOp49
 70
     1
102
RTVSPropertyOp50
 70
     1
102
RTVSPropertyOp51
 70
     0
102
RTVSPropertyOp52
 70
     0
102
RTVSPropertyOp53
 70
     1
102
RTVSPropertyOp54
 70
     1
102
RTVSPropertyOp55
 70
     1
102
RTVSPropertyOp56
 70
     1
102
RTVSPropertyOp57
 70
     1
102
RTVSPost2010Prop28
280
     0
102
RTVSPost2010PropOp28
 70
     1
102
RTVSPost2010Prop29
280
     1
102
RTVSPost2010PropOp29
 70
     1
102
RTVSPost2010Prop30
280
     1
102
RTVSPost2010PropOp30
 70
     1
102
RTVSPost2010Prop31
280
     0
102
RTVSPost2010PropOp31
 70
     1
102
RTVSPost2010Prop32
280
     0
102
RTVSPost2010PropOp32
 70
     1
102
RTVSPost2010Prop33
280
     0
102
RTVSPost2010PropOp33
 70
     1
102
RTVSPost2010Prop34
280
     0
102
RTVSPost2010PropOp34
 70
     1
102
RTVSPost2010Prop35
280
     0
102
RTVSPost2010PropOp35
 70
     1
102
RTVSPost2010Prop36
280
     0
102
RTVSPost2010PropOp36
 70
     1
102
RTVSPost2010Prop37
 90
       50
102
RTVSPost2010PropOp37
 70
     1
102
RTVSPost2010Prop38
140
0.0
102
RTVSPost2010PropOp38
 70
     1
102
RTVSPost2010Prop39
140
1.0
102
RTVSPost2010PropOp39
 70
     1
102
RTVSPost2010Prop40
 90
        0
102
RTVSPost2010PropOp40
 70
     1
102
RTVSPost2010Prop41ColorIndex
 90
       18
102
RTVSPost2010Prop41ColorRGB
 90
        0
102
RTVSPost2010PropOp41
 70
     1
102
RTVSPost2010Prop42
 90
       50
102
RTVSPost2010PropOp42
 70
     1
102
RTVSPost2010Prop43
 90
        3
102
RTVSPost2010PropOp43
 70
     1
102
RTVSPost2010Prop44ColorIndex
 90
        5
102
RTVSPost2010Prop44ColorRGB
 90
      255
102
RTVSPost2010PropOp44
 70
     1
102
RTVSPost2010Prop45
280
     0
102
RTVSPost2010PropOp45
 70
     1
102
RTVSPost2010Prop46
 90
       50
102
RTVSPost2010PropOp46
 70
     1
102
RTVSPost2010Prop47
 90
       50
102
RTVSPost2010PropOp47
 70
     1
102
RTVSPost2010Prop48
 90
       50
102
RTVSPost2010PropOp48
 70
     1
102
RTVSPost2010Prop49
280
     0
102
RTVSPost2010PropOp49
 70
     1
102
RTVSPost2010Prop50
 90
       50
102
RTVSPost2010PropOp50
 70
     1
102
RTVSPost2010Prop51ColorIndex
 90
      256
102
RTVSPost2010Prop51ColorRGB
 90
-16777216
102
RTVSPost2010PropOp51
 70
     0
102
RTVSPost2010Prop52
140
1.0
102
RTVSPost2010PropOp52
 70
     0
102
RTVSPost2010Prop53
 90
        2
102
RTVSPost2010PropOp53
 70
     1
102
RTVSPost2010Prop54
  1
strokes_ogs.tif
102
RTVSPost2010PropOp54
 70
     1
102
RTVSPost2010Prop55
280
     0
102
RTVSPost2010PropOp55
 70
     1
102
RTVSPost2010Prop56
140
1.0
102
RTVSPost2010PropOp56
 70
     1
102
RTVSPost2010Prop57
140
1.0
102
RTVSPost2010PropOp57
 70
     1
  0
XRECORD
  5
681
102
{ACAD_REACTORS
330
680
102
}
330
680
100
AcDbXrecord
280
     1
102
RTVSPropertyOp0
 70
     1
102
RTVSPropertyOp1
 70
     1
102
RTVSPropertyOp2
 70
     1
102
RTVSPropertyOp3
 70
     1
102
RTVSPropertyOp4
 70
     1
102
RTVSPropertyOp5
 70
     1
102
RTVSPropertyOp6
 70
     1
102
RTVSPropertyOp7
 70
     1
102
RTVSPropertyOp8
 70
     1
102
RTVSPropertyOp9
 70
     1
102
RTVSPropertyOp10
 70
     1
102
RTVSPropertyOp11
 70
     1
102
RTVSPropertyOp12
 70
     1
102
RTVSPropertyOp13
 70
     1
102
RTVSPropertyOp14
 70
     1
102
RTVSPropertyOp15
 70
     1
102
RTVSPropertyOp16
 70
     1
102
RTVSPropertyOp17
 70
     1
102
RTVSPropertyOp18
 70
     1
102
RTVSPropertyOp19
 70
     1
102
RTVSPropertyOp20
 70
     1
102
RTVSPropertyOp21
 70
     1
102
RTVSPropertyOp22
 70
     1
102
RTVSPropertyOp23
 70
     1
102
RTVSPropertyOp24
 70
     1
102
RTVSPropertyOp25
 70
     1
102
RTVSPropertyOp26
 70
     1
102
RTVSPropertyOp27
 70
     1
102
RTVSPropertyOp28
 70
     1
102
RTVSPropertyOp29
 70
     1
102
RTVSPropertyOp30
 70
     1
102
RTVSPropertyOp31
 70
     1
102
RTVSPropertyOp32
 70
     1
102
RTVSPropertyOp33
 70
     1
102
RTVSPropertyOp34
 70
     1
102
RTVSPropertyOp35
 70
     1
102
RTVSPropertyOp36
 70
     1
102
RTVSPropertyOp37
 70
     1
102
RTVSPropertyOp38
 70
     1
102
RTVSPropertyOp39
 70
     1
102
RTVSPropertyOp40
 70
     1
102
RTVSPropertyOp41
 70
     1
102
RTVSPropertyOp42
 70
     1
102
RTVSPropertyOp43
 70
     1
102
RTVSPropertyOp44
 70
     1
102
RTVSPropertyOp45
 70
     1
102
RTVSPropertyOp46
 70
     1
102
RTVSPropertyOp47
 70
     1
102
RTVSPropertyOp48
 70
     1
102
RTVSPropertyOp49
 70
     1
102
RTVSPropertyOp50
 70
     1
102
RTVSPropertyOp51
 70
     0
102
RTVSPropertyOp52
 70
     0
102
RTVSPropertyOp53
 70
     1
102
RTVSPropertyOp54
 70
     1
102
RTVSPropertyOp55
 70
     1
102
RTVSPropertyOp56
 70
     1
102
RTVSPropertyOp57
 70
     1
102
RTVSPost2010Prop28
280
     0
102
RTVSPost2010PropOp28
 70
     1
102
RTVSPost2010Prop29
280
     1
102
RTVSPost2010PropOp29
 70
     1
102
RTVSPost2010Prop30
280
     1
102
RTVSPost2010PropOp30
 70
     1
102
RTVSPost2010Prop31
280
     0
102
RTVSPost2010PropOp31
 70
     1
102
RTVSPost2010Prop32
280
     0
102
RTVSPost2010PropOp32
 70
     1
102
RTVSPost2010Prop33
280
     0
102
RTVSPost2010PropOp33
 70
     1
102
RTVSPost2010Prop34
280
     0
102
RTVSPost2010PropOp34
 70
     1
102
RTVSPost2010Prop35
280
     0
102
RTVSPost2010PropOp35
 70
     1
102
RTVSPost2010Prop36
280
     0
102
RTVSPost2010PropOp36
 70
     1
102
RTVSPost2010Prop37
 90
       50
102
RTVSPost2010PropOp37
 70
     1
102
RTVSPost2010Prop38
140
0.0
102
RTVSPost2010PropOp38
 70
     1
102
RTVSPost2010Prop39
140
1.0
102
RTVSPost2010PropOp39
 70
     1
102
RTVSPost2010Prop40
 90
        0
102
RTVSPost2010PropOp40
 70
     1
102
RTVSPost2010Prop41ColorIndex
 90
       18
102
RTVSPost2010Prop41ColorRGB
 90
        0
102
RTVSPost2010PropOp41
 70
     1
102
RTVSPost2010Prop42
 90
       50
102
RTVSPost2010PropOp42
 70
     1
102
RTVSPost2010Prop43
 90
        3
102
RTVSPost2010PropOp43
 70
     1
102
RTVSPost2010Prop44ColorIndex
 90
        5
102
RTVSPost2010Prop44ColorRGB
 90
      255
102
RTVSPost2010PropOp44
 70
     1
102
RTVSPost2010Prop45
280
     0
102
RTVSPost2010PropOp45
 70
     1
102
RTVSPost2010Prop46
 90
       50
102
RTVSPost2010PropOp46
 70
     1
102
RTVSPost2010Prop47
 90
       50
102
RTVSPost2010PropOp47
 70
     1
102
RTVSPost2010Prop48
 90
       50
102
RTVSPost2010PropOp48
 70
     1
102
RTVSPost2010Prop49
280
     0
102
RTVSPost2010PropOp49
 70
     1
102
RTVSPost2010Prop50
 90
       50
102
RTVSPost2010PropOp50
 70
     1
102
RTVSPost2010Prop51ColorIndex
 90
      256
102
RTVSPost2010Prop51ColorRGB
 90
-16777216
102
RTVSPost2010PropOp51
 70
     0
102
RTVSPost2010Prop52
140
1.0
102
RTVSPost2010PropOp52
 70
     0
102
RTVSPost2010Prop53
 90
        2
102
RTVSPost2010PropOp53
 70
     1
102
RTVSPost2010Prop54
  1
strokes_ogs.tif
102
RTVSPost2010PropOp54
 70
     1
102
RTVSPost2010Prop55
280
     0
102
RTVSPost2010PropOp55
 70
     1
102
RTVSPost2010Prop56
140
1.0
102
RTVSPost2010PropOp56
 70
     1
102
RTVSPost2010Prop57
140
1.0
102
RTVSPost2010PropOp57
 70
     1
  0
XRECORD
  5
683
102
{ACAD_REACTORS
330
682
102
}
330
682
100
AcDbXrecord
280
     1
102
RTVSPropertyOp0
 70
     1
102
RTVSPropertyOp1
 70
     1
102
RTVSPropertyOp2
 70
     1
102
RTVSPropertyOp3
 70
     1
102
RTVSPropertyOp4
 70
     1
102
RTVSPropertyOp5
 70
     1
102
RTVSPropertyOp6
 70
     1
102
RTVSPropertyOp7
 70
     1
102
RTVSPropertyOp8
 70
     1
102
RTVSPropertyOp9
 70
     1
102
RTVSPropertyOp10
 70
     1
102
RTVSPropertyOp11
 70
     1
102
RTVSPropertyOp12
 70
     1
102
RTVSPropertyOp13
 70
     1
102
RTVSPropertyOp14
 70
     1
102
RTVSPropertyOp15
 70
     1
102
RTVSPropertyOp16
 70
     1
102
RTVSPropertyOp17
 70
     1
102
RTVSPropertyOp18
 70
     1
102
RTVSPropertyOp19
 70
     1
102
RTVSPropertyOp20
 70
     1
102
RTVSPropertyOp21
 70
     1
102
RTVSPropertyOp22
 70
     1
102
RTVSPropertyOp23
 70
     1
102
RTVSPropertyOp24
 70
     1
102
RTVSPropertyOp25
 70
     1
102
RTVSPropertyOp26
 70
     1
102
RTVSPropertyOp27
 70
     1
102
RTVSPropertyOp28
 70
     1
102
RTVSPropertyOp29
 70
     1
102
RTVSPropertyOp30
 70
     1
102
RTVSPropertyOp31
 70
     1
102
RTVSPropertyOp32
 70
     1
102
RTVSPropertyOp33
 70
     1
102
RTVSPropertyOp34
 70
     1
102
RTVSPropertyOp35
 70
     1
102
RTVSPropertyOp36
 70
     1
102
RTVSPropertyOp37
 70
     1
102
RTVSPropertyOp38
 70
     1
102
RTVSPropertyOp39
 70
     1
102
RTVSPropertyOp40
 70
     1
102
RTVSPropertyOp41
 70
     1
102
RTVSPropertyOp42
 70
     1
102
RTVSPropertyOp43
 70
     1
102
RTVSPropertyOp44
 70
     1
102
RTVSPropertyOp45
 70
     1
102
RTVSPropertyOp46
 70
     1
102
RTVSPropertyOp47
 70
     1
102
RTVSPropertyOp48
 70
     1
102
RTVSPropertyOp49
 70
     1
102
RTVSPropertyOp50
 70
     1
102
RTVSPropertyOp51
 70
     0
102
RTVSPropertyOp52
 70
     0
102
RTVSPropertyOp53
 70
     1
102
RTVSPropertyOp54
 70
     1
102
RTVSPropertyOp55
 70
     1
102
RTVSPropertyOp56
 70
     1
102
RTVSPropertyOp57
 70
     1
102
RTVSPost2010Prop28
280
     0
102
RTVSPost2010PropOp28
 70
     1
102
RTVSPost2010Prop29
280
     1
102
RTVSPost2010PropOp29
 70
     1
102
RTVSPost2010Prop30
280
     1
102
RTVSPost2010PropOp30
 70
     1
102
RTVSPost2010Prop31
280
     0
102
RTVSPost2010PropOp31
 70
     1
102
RTVSPost2010Prop32
280
     0
102
RTVSPost2010PropOp32
 70
     1
102
RTVSPost2010Prop33
280
     0
102
RTVSPost2010PropOp33
 70
     1
102
RTVSPost2010Prop34
280
     0
102
RTVSPost2010PropOp34
 70
     1
102
RTVSPost2010Prop35
280
     0
102
RTVSPost2010PropOp35
 70
     1
102
RTVSPost2010Prop36
280
     0
102
RTVSPost2010PropOp36
 70
     1
102
RTVSPost2010Prop37
 90
       50
102
RTVSPost2010PropOp37
 70
     1
102
RTVSPost2010Prop38
140
0.0
102
RTVSPost2010PropOp38
 70
     1
102
RTVSPost2010Prop39
140
1.0
102
RTVSPost2010PropOp39
 70
     1
102
RTVSPost2010Prop40
 90
        0
102
RTVSPost2010PropOp40
 70
     1
102
RTVSPost2010Prop41ColorIndex
 90
       18
102
RTVSPost2010Prop41ColorRGB
 90
        0
102
RTVSPost2010PropOp41
 70
     1
102
RTVSPost2010Prop42
 90
       50
102
RTVSPost2010PropOp42
 70
     1
102
RTVSPost2010Prop43
 90
        3
102
RTVSPost2010PropOp43
 70
     1
102
RTVSPost2010Prop44ColorIndex
 90
        5
102
RTVSPost2010Prop44ColorRGB
 90
      255
102
RTVSPost2010PropOp44
 70
     1
102
RTVSPost2010Prop45
280
     0
102
RTVSPost2010PropOp45
 70
     1
102
RTVSPost2010Prop46
 90
       50
102
RTVSPost2010PropOp46
 70
     1
102
RTVSPost2010Prop47
 90
       50
102
RTVSPost2010PropOp47
 70
     1
102
RTVSPost2010Prop48
 90
       50
102
RTVSPost2010PropOp48
 70
     1
102
RTVSPost2010Prop49
280
     0
102
RTVSPost2010PropOp49
 70
     1
102
RTVSPost2010Prop50
 90
       50
102
RTVSPost2010PropOp50
 70
     1
102
RTVSPost2010Prop51ColorIndex
 90
      256
102
RTVSPost2010Prop51ColorRGB
 90
-16777216
102
RTVSPost2010PropOp51
 70
     0
102
RTVSPost2010Prop52
140
1.0
102
RTVSPost2010PropOp52
 70
     0
102
RTVSPost2010Prop53
 90
        2
102
RTVSPost2010PropOp53
 70
     1
102
RTVSPost2010Prop54
  1
strokes_ogs.tif
102
RTVSPost2010PropOp54
 70
     1
102
RTVSPost2010Prop55
280
     0
102
RTVSPost2010PropOp55
 70
     1
102
RTVSPost2010Prop56
140
1.0
102
RTVSPost2010PropOp56
 70
     1
102
RTVSPost2010Prop57
140
1.0
102
RTVSPost2010PropOp57
 70
     1
  0
XRECORD
  5
673
102
{ACAD_REACTORS
330
672
102
}
330
672
100
AcDbXrecord
280
     1
102
RTVSPropertyOp0
 70
     1
102
RTVSPropertyOp1
 70
     1
102
RTVSPropertyOp2
 70
     1
102
RTVSPropertyOp3
 70
     1
102
RTVSPropertyOp4
 70
     1
102
RTVSPropertyOp5
 70
     1
102
RTVSPropertyOp6
 70
     1
102
RTVSPropertyOp7
 70
     1
102
RTVSPropertyOp8
 70
     1
102
RTVSPropertyOp9
 70
     1
102
RTVSPropertyOp10
 70
     1
102
RTVSPropertyOp11
 70
     1
102
RTVSPropertyOp12
 70
     1
102
RTVSPropertyOp13
 70
     1
102
RTVSPropertyOp14
 70
     1
102
RTVSPropertyOp15
 70
     1
102
RTVSPropertyOp16
 70
     1
102
RTVSPropertyOp17
 70
     1
102
RTVSPropertyOp18
 70
     1
102
RTVSPropertyOp19
 70
     1
102
RTVSPropertyOp20
 70
     1
102
RTVSPropertyOp21
 70
     1
102
RTVSPropertyOp22
 70
     1
102
RTVSPropertyOp23
 70
     1
102
RTVSPropertyOp24
 70
     1
102
RTVSPropertyOp25
 70
     1
102
RTVSPropertyOp26
 70
     1
102
RTVSPropertyOp27
 70
     1
102
RTVSPropertyOp28
 70
     1
102
RTVSPropertyOp29
 70
     1
102
RTVSPropertyOp30
 70
     1
102
RTVSPropertyOp31
 70
     1
102
RTVSPropertyOp32
 70
     1
102
RTVSPropertyOp33
 70
     1
102
RTVSPropertyOp34
 70
     1
102
RTVSPropertyOp35
 70
     1
102
RTVSPropertyOp36
 70
     1
102
RTVSPropertyOp37
 70
     1
102
RTVSPropertyOp38
 70
     1
102
RTVSPropertyOp39
 70
     1
102
RTVSPropertyOp40
 70
     1
102
RTVSPropertyOp41
 70
     1
102
RTVSPropertyOp42
 70
     1
102
RTVSPropertyOp43
 70
     1
102
RTVSPropertyOp44
 70
     1
102
RTVSPropertyOp45
 70
     1
102
RTVSPropertyOp46
 70
     1
102
RTVSPropertyOp47
 70
     1
102
RTVSPropertyOp48
 70
     1
102
RTVSPropertyOp49
 70
     1
102
RTVSPropertyOp50
 70
     1
102
RTVSPropertyOp51
 70
     0
102
RTVSPropertyOp52
 70
     0
102
RTVSPropertyOp53
 70
     1
102
RTVSPropertyOp54
 70
     1
102
RTVSPropertyOp55
 70
     1
102
RTVSPropertyOp56
 70
     1
102
RTVSPropertyOp57
 70
     1
102
RTVSPost2010Prop28
280
     0
102
RTVSPost2010PropOp28
 70
     1
102
RTVSPost2010Prop29
280
     1
102
RTVSPost2010PropOp29
 70
     1
102
RTVSPost2010Prop30
280
     1
102
RTVSPost2010PropOp30
 70
     1
102
RTVSPost2010Prop31
280
     0
102
RTVSPost2010PropOp31
 70
     1
102
RTVSPost2010Prop32
280
     0
102
RTVSPost2010PropOp32
 70
     1
102
RTVSPost2010Prop33
280
     0
102
RTVSPost2010PropOp33
 70
     1
102
RTVSPost2010Prop34
280
     0
102
RTVSPost2010PropOp34
 70
     1
102
RTVSPost2010Prop35
280
     0
102
RTVSPost2010PropOp35
 70
     1
102
RTVSPost2010Prop36
280
     0
102
RTVSPost2010PropOp36
 70
     1
102
RTVSPost2010Prop37
 90
       50
102
RTVSPost2010PropOp37
 70
     1
102
RTVSPost2010Prop38
140
0.0
102
RTVSPost2010PropOp38
 70
     1
102
RTVSPost2010Prop39
140
1.0
102
RTVSPost2010PropOp39
 70
     1
102
RTVSPost2010Prop40
 90
        0
102
RTVSPost2010PropOp40
 70
     1
102
RTVSPost2010Prop41ColorIndex
 90
       18
102
RTVSPost2010Prop41ColorRGB
 90
        0
102
RTVSPost2010PropOp41
 70
     1
102
RTVSPost2010Prop42
 90
       50
102
RTVSPost2010PropOp42
 70
     1
102
RTVSPost2010Prop43
 90
        3
102
RTVSPost2010PropOp43
 70
     1
102
RTVSPost2010Prop44ColorIndex
 90
        5
102
RTVSPost2010Prop44ColorRGB
 90
      255
102
RTVSPost2010PropOp44
 70
     1
102
RTVSPost2010Prop45
280
     0
102
RTVSPost2010PropOp45
 70
     1
102
RTVSPost2010Prop46
 90
       50
102
RTVSPost2010PropOp46
 70
     1
102
RTVSPost2010Prop47
 90
       50
102
RTVSPost2010PropOp47
 70
     1
102
RTVSPost2010Prop48
 90
       50
102
RTVSPost2010PropOp48
 70
     1
102
RTVSPost2010Prop49
280
     0
102
RTVSPost2010PropOp49
 70
     1
102
RTVSPost2010Prop50
 90
       50
102
RTVSPost2010PropOp50
 70
     1
102
RTVSPost2010Prop51ColorIndex
 90
      256
102
RTVSPost2010Prop51ColorRGB
 90
-16777216
102
RTVSPost2010PropOp51
 70
     0
102
RTVSPost2010Prop52
140
1.0
102
RTVSPost2010PropOp52
 70
     0
102
RTVSPost2010Prop53
 90
        2
102
RTVSPost2010PropOp53
 70
     1
102
RTVSPost2010Prop54
  1
strokes_ogs.tif
102
RTVSPost2010PropOp54
 70
     1
102
RTVSPost2010Prop55
280
     0
102
RTVSPost2010PropOp55
 70
     1
102
RTVSPost2010Prop56
140
1.0
102
RTVSPost2010PropOp56
 70
     1
102
RTVSPost2010Prop57
140
1.0
102
RTVSPost2010PropOp57
 70
     1
  0
XRECORD
  5
665
102
{ACAD_REACTORS
330
664
102
}
330
664
100
AcDbXrecord
280
     1
102
RTVSPropertyOp0
 70
     1
102
RTVSPropertyOp1
 70
     1
102
RTVSPropertyOp2
 70
     1
102
RTVSPropertyOp3
 70
     1
102
RTVSPropertyOp4
 70
     1
102
RTVSPropertyOp5
 70
     1
102
RTVSPropertyOp6
 70
     1
102
RTVSPropertyOp7
 70
     1
102
RTVSPropertyOp8
 70
     1
102
RTVSPropertyOp9
 70
     1
102
RTVSPropertyOp10
 70
     1
102
RTVSPropertyOp11
 70
     1
102
RTVSPropertyOp12
 70
     1
102
RTVSPropertyOp13
 70
     1
102
RTVSPropertyOp14
 70
     1
102
RTVSPropertyOp15
 70
     1
102
RTVSPropertyOp16
 70
     1
102
RTVSPropertyOp17
 70
     1
102
RTVSPropertyOp18
 70
     1
102
RTVSPropertyOp19
 70
     1
102
RTVSPropertyOp20
 70
     1
102
RTVSPropertyOp21
 70
     1
102
RTVSPropertyOp22
 70
     1
102
RTVSPropertyOp23
 70
     1
102
RTVSPropertyOp24
 70
     1
102
RTVSPropertyOp25
 70
     1
102
RTVSPropertyOp26
 70
     1
102
RTVSPropertyOp27
 70
     1
102
RTVSPropertyOp28
 70
     1
102
RTVSPropertyOp29
 70
     1
102
RTVSPropertyOp30
 70
     1
102
RTVSPropertyOp31
 70
     1
102
RTVSPropertyOp32
 70
     1
102
RTVSPropertyOp33
 70
     1
102
RTVSPropertyOp34
 70
     1
102
RTVSPropertyOp35
 70
     1
102
RTVSPropertyOp36
 70
     1
102
RTVSPropertyOp37
 70
     1
102
RTVSPropertyOp38
 70
     1
102
RTVSPropertyOp39
 70
     1
102
RTVSPropertyOp40
 70
     1
102
RTVSPropertyOp41
 70
     1
102
RTVSPropertyOp42
 70
     1
102
RTVSPropertyOp43
 70
     1
102
RTVSPropertyOp44
 70
     1
102
RTVSPropertyOp45
 70
     1
102
RTVSPropertyOp46
 70
     1
102
RTVSPropertyOp47
 70
     1
102
RTVSPropertyOp48
 70
     1
102
RTVSPropertyOp49
 70
     1
102
RTVSPropertyOp50
 70
     1
102
RTVSPropertyOp51
 70
     0
102
RTVSPropertyOp52
 70
     0
102
RTVSPropertyOp53
 70
     1
102
RTVSPropertyOp54
 70
     1
102
RTVSPropertyOp55
 70
     1
102
RTVSPropertyOp56
 70
     1
102
RTVSPropertyOp57
 70
     1
102
RTVSPost2010Prop28
280
     0
102
RTVSPost2010PropOp28
 70
     1
102
RTVSPost2010Prop29
280
     1
102
RTVSPost2010PropOp29
 70
     1
102
RTVSPost2010Prop30
280
     1
102
RTVSPost2010PropOp30
 70
     1
102
RTVSPost2010Prop31
280
     0
102
RTVSPost2010PropOp31
 70
     1
102
RTVSPost2010Prop32
280
     0
102
RTVSPost2010PropOp32
 70
     1
102
RTVSPost2010Prop33
280
     0
102
RTVSPost2010PropOp33
 70
     1
102
RTVSPost2010Prop34
280
     0
102
RTVSPost2010PropOp34
 70
     1
102
RTVSPost2010Prop35
280
     0
102
RTVSPost2010PropOp35
 70
     1
102
RTVSPost2010Prop36
280
     0
102
RTVSPost2010PropOp36
 70
     1
102
RTVSPost2010Prop37
 90
       50
102
RTVSPost2010PropOp37
 70
     1
102
RTVSPost2010Prop38
140
0.0
102
RTVSPost2010PropOp38
 70
     1
102
RTVSPost2010Prop39
140
1.0
102
RTVSPost2010PropOp39
 70
     1
102
RTVSPost2010Prop40
 90
        0
102
RTVSPost2010PropOp40
 70
     1
102
RTVSPost2010Prop41ColorIndex
 90
       18
102
RTVSPost2010Prop41ColorRGB
 90
        0
102
RTVSPost2010PropOp41
 70
     1
102
RTVSPost2010Prop42
 90
       50
102
RTVSPost2010PropOp42
 70
     1
102
RTVSPost2010Prop43
 90
        3
102
RTVSPost2010PropOp43
 70
     1
102
RTVSPost2010Prop44ColorIndex
 90
        5
102
RTVSPost2010Prop44ColorRGB
 90
      255
102
RTVSPost2010PropOp44
 70
     1
102
RTVSPost2010Prop45
280
     0
102
RTVSPost2010PropOp45
 70
     1
102
RTVSPost2010Prop46
 90
       50
102
RTVSPost2010PropOp46
 70
     1
102
RTVSPost2010Prop47
 90
       50
102
RTVSPost2010PropOp47
 70
     1
102
RTVSPost2010Prop48
 90
       50
102
RTVSPost2010PropOp48
 70
     1
102
RTVSPost2010Prop49
280
     0
102
RTVSPost2010PropOp49
 70
     1
102
RTVSPost2010Prop50
 90
       50
102
RTVSPost2010PropOp50
 70
     1
102
RTVSPost2010Prop51ColorIndex
 90
      256
102
RTVSPost2010Prop51ColorRGB
 90
-16777216
102
RTVSPost2010PropOp51
 70
     0
102
RTVSPost2010Prop52
140
1.0
102
RTVSPost2010PropOp52
 70
     0
102
RTVSPost2010Prop53
 90
        2
102
RTVSPost2010PropOp53
 70
     1
102
RTVSPost2010Prop54
  1
strokes_ogs.tif
102
RTVSPost2010PropOp54
 70
     1
102
RTVSPost2010Prop55
280
     0
102
RTVSPost2010PropOp55
 70
     1
102
RTVSPost2010Prop56
140
1.0
102
RTVSPost2010PropOp56
 70
     1
102
RTVSPost2010Prop57
140
1.0
102
RTVSPost2010PropOp57
 70
     1
  0
XRECORD
  5
685
102
{ACAD_REACTORS
330
684
102
}
330
684
100
AcDbXrecord
280
     1
102
RTVSPropertyOp0
 70
     1
102
RTVSPropertyOp1
 70
     1
102
RTVSPropertyOp2
 70
     1
102
RTVSPropertyOp3
 70
     1
102
RTVSPropertyOp4
 70
     1
102
RTVSPropertyOp5
 70
     1
102
RTVSPropertyOp6
 70
     1
102
RTVSPropertyOp7
 70
     1
102
RTVSPropertyOp8
 70
     1
102
RTVSPropertyOp9
 70
     1
102
RTVSPropertyOp10
 70
     1
102
RTVSPropertyOp11
 70
     1
102
RTVSPropertyOp12
 70
     1
102
RTVSPropertyOp13
 70
     1
102
RTVSPropertyOp14
 70
     1
102
RTVSPropertyOp15
 70
     1
102
RTVSPropertyOp16
 70
     1
102
RTVSPropertyOp17
 70
     1
102
RTVSPropertyOp18
 70
     1
102
RTVSPropertyOp19
 70
     1
102
RTVSPropertyOp20
 70
     1
102
RTVSPropertyOp21
 70
     1
102
RTVSPropertyOp22
 70
     1
102
RTVSPropertyOp23
 70
     1
102
RTVSPropertyOp24
 70
     1
102
RTVSPropertyOp25
 70
     1
102
RTVSPropertyOp26
 70
     1
102
RTVSPropertyOp27
 70
     1
102
RTVSPropertyOp28
 70
     1
102
RTVSPropertyOp29
 70
     1
102
RTVSPropertyOp30
 70
     1
102
RTVSPropertyOp31
 70
     1
102
RTVSPropertyOp32
 70
     1
102
RTVSPropertyOp33
 70
     1
102
RTVSPropertyOp34
 70
     1
102
RTVSPropertyOp35
 70
     1
102
RTVSPropertyOp36
 70
     1
102
RTVSPropertyOp37
 70
     1
102
RTVSPropertyOp38
 70
     1
102
RTVSPropertyOp39
 70
     1
102
RTVSPropertyOp40
 70
     1
102
RTVSPropertyOp41
 70
     1
102
RTVSPropertyOp42
 70
     1
102
RTVSPropertyOp43
 70
     1
102
RTVSPropertyOp44
 70
     1
102
RTVSPropertyOp45
 70
     1
102
RTVSPropertyOp46
 70
     1
102
RTVSPropertyOp47
 70
     1
102
RTVSPropertyOp48
 70
     1
102
RTVSPropertyOp49
 70
     1
102
RTVSPropertyOp50
 70
     1
102
RTVSPropertyOp51
 70
     0
102
RTVSPropertyOp52
 70
     0
102
RTVSPropertyOp53
 70
     1
102
RTVSPropertyOp54
 70
     1
102
RTVSPropertyOp55
 70
     1
102
RTVSPropertyOp56
 70
     1
102
RTVSPropertyOp57
 70
     1
102
RTVSPost2010Prop28
280
     0
102
RTVSPost2010PropOp28
 70
     1
102
RTVSPost2010Prop29
280
     1
102
RTVSPost2010PropOp29
 70
     1
102
RTVSPost2010Prop30
280
     1
102
RTVSPost2010PropOp30
 70
     1
102
RTVSPost2010Prop31
280
     0
102
RTVSPost2010PropOp31
 70
     1
102
RTVSPost2010Prop32
280
     0
102
RTVSPost2010PropOp32
 70
     1
102
RTVSPost2010Prop33
280
     0
102
RTVSPost2010PropOp33
 70
     1
102
RTVSPost2010Prop34
280
     0
102
RTVSPost2010PropOp34
 70
     1
102
RTVSPost2010Prop35
280
     0
102
RTVSPost2010PropOp35
 70
     1
102
RTVSPost2010Prop36
280
     0
102
RTVSPost2010PropOp36
 70
     1
102
RTVSPost2010Prop37
 90
       50
102
RTVSPost2010PropOp37
 70
     1
102
RTVSPost2010Prop38
140
0.0
102
RTVSPost2010PropOp38
 70
     1
102
RTVSPost2010Prop39
140
1.0
102
RTVSPost2010PropOp39
 70
     1
102
RTVSPost2010Prop40
 90
        0
102
RTVSPost2010PropOp40
 70
     1
102
RTVSPost2010Prop41ColorIndex
 90
       18
102
RTVSPost2010Prop41ColorRGB
 90
        0
102
RTVSPost2010PropOp41
 70
     1
102
RTVSPost2010Prop42
 90
       50
102
RTVSPost2010PropOp42
 70
     1
102
RTVSPost2010Prop43
 90
        3
102
RTVSPost2010PropOp43
 70
     1
102
RTVSPost2010Prop44ColorIndex
 90
        5
102
RTVSPost2010Prop44ColorRGB
 90
      255
102
RTVSPost2010PropOp44
 70
     1
102
RTVSPost2010Prop45
280
     0
102
RTVSPost2010PropOp45
 70
     1
102
RTVSPost2010Prop46
 90
       50
102
RTVSPost2010PropOp46
 70
     1
102
RTVSPost2010Prop47
 90
       50
102
RTVSPost2010PropOp47
 70
     1
102
RTVSPost2010Prop48
 90
       50
102
RTVSPost2010PropOp48
 70
     1
102
RTVSPost2010Prop49
280
     0
102
RTVSPost2010PropOp49
 70
     1
102
RTVSPost2010Prop50
 90
       50
102
RTVSPost2010PropOp50
 70
     1
102
RTVSPost2010Prop51ColorIndex
 90
      256
102
RTVSPost2010Prop51ColorRGB
 90
-16777216
102
RTVSPost2010PropOp51
 70
     0
102
RTVSPost2010Prop52
140
1.0
102
RTVSPost2010PropOp52
 70
     0
102
RTVSPost2010Prop53
 90
        2
102
RTVSPost2010PropOp53
 70
     1
102
RTVSPost2010Prop54
  1
strokes_ogs.tif
102
RTVSPost2010PropOp54
 70
     1
102
RTVSPost2010Prop55
280
     0
102
RTVSPost2010PropOp55
 70
     1
102
RTVSPost2010Prop56
140
1.0
102
RTVSPost2010PropOp56
 70
     1
102
RTVSPost2010Prop57
140
1.0
102
RTVSPost2010PropOp57
 70
     1
  0
ENDSEC
  0
EOF
