ISO-10303-21;
HEADER;
/* Generated by software containing ST-Developer
 * from STEP Tools, Inc. (www.steptools.com) 
 */
/* OPTION: using custom schema-name function */

FILE_DESCRIPTION(
/* description */ (''),
/* implementation_level */ '2;1');

FILE_NAME(
/* name */ 'firebasket leg.stp',
/* time_stamp */ '2015-11-13T00:44:19+01:00',
/* author */ (''),
/* organization */ (''),
/* preprocessor_version */ 'ST-DEVELOPER v16',
/* originating_system */ 'SIEMENS PLM Software NX 10.0',
/* authorisation */ '');

FILE_SCHEMA (('CONFIG_CONTROL_DESIGN'));
ENDSEC;

DATA;
#10=SHAPE_REPRESENTATION_RELATIONSHIP('None',
'relationship between vuurkorf poot-None and vuurkorf poot-None',#92,#11);
#11=ADVANCED_BREP_SHAPE_REPRESENTATION('vuurkorf poot-None',(#93),#779);
#12=CC_DESIGN_APPROVAL(#24,(#82));
#13=CC_DESIGN_APPROVAL(#25,(#84));
#14=CC_DESIGN_APPROVAL(#26,(#31));
#15=APPROVAL_PERSON_ORGANIZATION(#69,#24,#18);
#16=APPROVAL_PERSON_ORGANIZATION(#70,#25,#19);
#17=APPROVAL_PERSON_ORGANIZATION(#71,#26,#20);
#18=APPROVAL_ROLE('approver');
#19=APPROVAL_ROLE('approver');
#20=APPROVAL_ROLE('approver');
#21=APPROVAL_DATE_TIME(#39,#24);
#22=APPROVAL_DATE_TIME(#40,#25);
#23=APPROVAL_DATE_TIME(#41,#26);
#24=APPROVAL(#27,' ');
#25=APPROVAL(#28,' ');
#26=APPROVAL(#29,' ');
#27=APPROVAL_STATUS('not_yet_approved');
#28=APPROVAL_STATUS('not_yet_approved');
#29=APPROVAL_STATUS('not_yet_approved');
#30=CC_DESIGN_SECURITY_CLASSIFICATION(#31,(#84));
#31=SECURITY_CLASSIFICATION(' ',' ',#32);
#32=SECURITY_CLASSIFICATION_LEVEL('confidential');
#33=CC_DESIGN_DATE_AND_TIME_ASSIGNMENT(#37,#35,(#82));
#34=CC_DESIGN_DATE_AND_TIME_ASSIGNMENT(#38,#36,(#31));
#35=DATE_TIME_ROLE('creation_date');
#36=DATE_TIME_ROLE('classification_date');
#37=DATE_AND_TIME(#52,#42);
#38=DATE_AND_TIME(#53,#43);
#39=DATE_AND_TIME(#54,#44);
#40=DATE_AND_TIME(#55,#45);
#41=DATE_AND_TIME(#56,#46);
#42=LOCAL_TIME(0,0,0.,#47);
#43=LOCAL_TIME(0,0,0.,#48);
#44=LOCAL_TIME(0,0,0.,#49);
#45=LOCAL_TIME(0,0,0.,#50);
#46=LOCAL_TIME(0,0,0.,#51);
#47=COORDINATED_UNIVERSAL_TIME_OFFSET(0,0,.BEHIND.);
#48=COORDINATED_UNIVERSAL_TIME_OFFSET(0,0,.BEHIND.);
#49=COORDINATED_UNIVERSAL_TIME_OFFSET(0,0,.BEHIND.);
#50=COORDINATED_UNIVERSAL_TIME_OFFSET(0,0,.BEHIND.);
#51=COORDINATED_UNIVERSAL_TIME_OFFSET(0,0,.BEHIND.);
#52=CALENDAR_DATE(0,1,1);
#53=CALENDAR_DATE(0,1,1);
#54=CALENDAR_DATE(0,1,1);
#55=CALENDAR_DATE(0,1,1);
#56=CALENDAR_DATE(0,1,1);
#57=CC_DESIGN_PERSON_AND_ORGANIZATION_ASSIGNMENT(#65,#61,(#82,#84));
#58=CC_DESIGN_PERSON_AND_ORGANIZATION_ASSIGNMENT(#66,#62,(#86));
#59=CC_DESIGN_PERSON_AND_ORGANIZATION_ASSIGNMENT(#67,#63,(#84));
#60=CC_DESIGN_PERSON_AND_ORGANIZATION_ASSIGNMENT(#68,#64,(#31));
#61=PERSON_AND_ORGANIZATION_ROLE('creator');
#62=PERSON_AND_ORGANIZATION_ROLE('design_owner');
#63=PERSON_AND_ORGANIZATION_ROLE('design_supplier');
#64=PERSON_AND_ORGANIZATION_ROLE('classification_officer');
#65=PERSON_AND_ORGANIZATION(#79,#72);
#66=PERSON_AND_ORGANIZATION(#79,#73);
#67=PERSON_AND_ORGANIZATION(#79,#74);
#68=PERSON_AND_ORGANIZATION(#79,#75);
#69=PERSON_AND_ORGANIZATION(#79,#76);
#70=PERSON_AND_ORGANIZATION(#79,#77);
#71=PERSON_AND_ORGANIZATION(#79,#78);
#72=ORGANIZATION(' ',' ',' ');
#73=ORGANIZATION(' ',' ',' ');
#74=ORGANIZATION(' ',' ',' ');
#75=ORGANIZATION(' ',' ',' ');
#76=ORGANIZATION(' ',' ',' ');
#77=ORGANIZATION(' ',' ',' ');
#78=ORGANIZATION(' ',' ',' ');
#79=PERSON(' ',' ',' ',(' '),$,$);
#80=SHAPE_DEFINITION_REPRESENTATION(#81,#92);
#81=PRODUCT_DEFINITION_SHAPE('','',#82);
#82=PRODUCT_DEFINITION(' ','',#84,#83);
#83=DESIGN_CONTEXT('',#91,'design');
#84=PRODUCT_DEFINITION_FORMATION_WITH_SPECIFIED_SOURCE(' ',' ',#86,
 .NOT_KNOWN.);
#85=PRODUCT_RELATED_PRODUCT_CATEGORY('detail','',(#86));
#86=PRODUCT('vuurkorf poot','vuurkorf poot',' ',(#89));
#87=PRODUCT_CATEGORY('part',' ');
#88=PRODUCT_CATEGORY(' ','');
#89=MECHANICAL_CONTEXT(' ',#91,'mechanical');
#90=APPLICATION_PROTOCOL_DEFINITION('international standard',
'config_control_design',2010,#91);
#91=APPLICATION_CONTEXT(
'configuration controlled 3D designs of mechanical parts and assemblie
s');
#92=SHAPE_REPRESENTATION('vuurkorf poot-None',(#527),#779);
#93=MANIFOLD_SOLID_BREP('',#94);
#94=CLOSED_SHELL('',(#115,#116,#117,#118,#119,#120,#121,#122,#123,#124,
#125,#126,#127,#128,#129,#130,#131,#132,#133,#134,#135,#136));
#95=FACE_OUTER_BOUND('',#167,.T.);
#96=FACE_OUTER_BOUND('',#168,.T.);
#97=FACE_OUTER_BOUND('',#169,.T.);
#98=FACE_OUTER_BOUND('',#170,.T.);
#99=FACE_OUTER_BOUND('',#171,.T.);
#100=FACE_OUTER_BOUND('',#172,.T.);
#101=FACE_OUTER_BOUND('',#173,.T.);
#102=FACE_OUTER_BOUND('',#174,.T.);
#103=FACE_OUTER_BOUND('',#175,.T.);
#104=FACE_OUTER_BOUND('',#176,.T.);
#105=FACE_OUTER_BOUND('',#177,.T.);
#106=FACE_OUTER_BOUND('',#178,.T.);
#107=FACE_OUTER_BOUND('',#179,.T.);
#108=FACE_OUTER_BOUND('',#180,.T.);
#109=FACE_OUTER_BOUND('',#181,.T.);
#110=FACE_OUTER_BOUND('',#182,.T.);
#111=FACE_OUTER_BOUND('',#183,.T.);
#112=FACE_OUTER_BOUND('',#184,.T.);
#113=FACE_OUTER_BOUND('',#185,.T.);
#114=FACE_OUTER_BOUND('',#186,.T.);
#115=ADVANCED_FACE('',(#159,#160),#137,.T.);
#116=ADVANCED_FACE('',(#161,#162),#138,.F.);
#117=ADVANCED_FACE('',(#95),#139,.F.);
#118=ADVANCED_FACE('',(#96),#140,.F.);
#119=ADVANCED_FACE('',(#97),#141,.F.);
#120=ADVANCED_FACE('',(#98),#142,.F.);
#121=ADVANCED_FACE('',(#99),#143,.F.);
#122=ADVANCED_FACE('',(#100),#144,.F.);
#123=ADVANCED_FACE('',(#101),#145,.F.);
#124=ADVANCED_FACE('',(#102),#146,.F.);
#125=ADVANCED_FACE('',(#103),#147,.F.);
#126=ADVANCED_FACE('',(#104),#148,.F.);
#127=ADVANCED_FACE('',(#105),#149,.F.);
#128=ADVANCED_FACE('',(#106),#150,.F.);
#129=ADVANCED_FACE('',(#107),#151,.F.);
#130=ADVANCED_FACE('',(#108),#152,.F.);
#131=ADVANCED_FACE('',(#109),#153,.F.);
#132=ADVANCED_FACE('',(#110),#154,.F.);
#133=ADVANCED_FACE('',(#111),#155,.T.);
#134=ADVANCED_FACE('',(#112),#156,.T.);
#135=ADVANCED_FACE('',(#113),#157,.T.);
#136=ADVANCED_FACE('',(#114),#158,.T.);
#137=PLANE('',#528);
#138=PLANE('',#529);
#139=PLANE('',#530);
#140=PLANE('',#531);
#141=PLANE('',#532);
#142=PLANE('',#533);
#143=PLANE('',#534);
#144=PLANE('',#535);
#145=PLANE('',#536);
#146=PLANE('',#537);
#147=PLANE('',#538);
#148=PLANE('',#539);
#149=PLANE('',#540);
#150=PLANE('',#541);
#151=PLANE('',#542);
#152=PLANE('',#543);
#153=PLANE('',#544);
#154=PLANE('',#545);
#155=PLANE('',#546);
#156=PLANE('',#547);
#157=PLANE('',#548);
#158=PLANE('',#549);
#159=FACE_BOUND('',#163,.T.);
#160=FACE_BOUND('',#164,.T.);
#161=FACE_BOUND('',#165,.T.);
#162=FACE_BOUND('',#166,.T.);
#163=EDGE_LOOP('',(#187,#188,#189,#190,#191,#192,#193,#194,#195,#196,#197,
#198,#199,#200,#201,#202));
#164=EDGE_LOOP('',(#203,#204,#205,#206));
#165=EDGE_LOOP('',(#207,#208,#209,#210,#211,#212,#213,#214,#215,#216,#217,
#218,#219,#220,#221,#222));
#166=EDGE_LOOP('',(#223,#224,#225,#226));
#167=EDGE_LOOP('',(#227,#228,#229,#230));
#168=EDGE_LOOP('',(#231,#232,#233,#234));
#169=EDGE_LOOP('',(#235,#236,#237,#238));
#170=EDGE_LOOP('',(#239,#240,#241,#242));
#171=EDGE_LOOP('',(#243,#244,#245,#246));
#172=EDGE_LOOP('',(#247,#248,#249,#250));
#173=EDGE_LOOP('',(#251,#252,#253,#254));
#174=EDGE_LOOP('',(#255,#256,#257,#258));
#175=EDGE_LOOP('',(#259,#260,#261,#262));
#176=EDGE_LOOP('',(#263,#264,#265,#266));
#177=EDGE_LOOP('',(#267,#268,#269,#270));
#178=EDGE_LOOP('',(#271,#272,#273,#274));
#179=EDGE_LOOP('',(#275,#276,#277,#278));
#180=EDGE_LOOP('',(#279,#280,#281,#282));
#181=EDGE_LOOP('',(#283,#284,#285,#286));
#182=EDGE_LOOP('',(#287,#288,#289,#290));
#183=EDGE_LOOP('',(#291,#292,#293,#294));
#184=EDGE_LOOP('',(#295,#296,#297,#298));
#185=EDGE_LOOP('',(#299,#300,#301,#302));
#186=EDGE_LOOP('',(#303,#304,#305,#306));
#187=ORIENTED_EDGE('',*,*,#347,.T.);
#188=ORIENTED_EDGE('',*,*,#348,.T.);
#189=ORIENTED_EDGE('',*,*,#349,.T.);
#190=ORIENTED_EDGE('',*,*,#350,.T.);
#191=ORIENTED_EDGE('',*,*,#351,.T.);
#192=ORIENTED_EDGE('',*,*,#352,.T.);
#193=ORIENTED_EDGE('',*,*,#353,.T.);
#194=ORIENTED_EDGE('',*,*,#354,.T.);
#195=ORIENTED_EDGE('',*,*,#355,.T.);
#196=ORIENTED_EDGE('',*,*,#356,.T.);
#197=ORIENTED_EDGE('',*,*,#357,.T.);
#198=ORIENTED_EDGE('',*,*,#358,.T.);
#199=ORIENTED_EDGE('',*,*,#359,.T.);
#200=ORIENTED_EDGE('',*,*,#360,.T.);
#201=ORIENTED_EDGE('',*,*,#361,.T.);
#202=ORIENTED_EDGE('',*,*,#362,.T.);
#203=ORIENTED_EDGE('',*,*,#363,.T.);
#204=ORIENTED_EDGE('',*,*,#364,.T.);
#205=ORIENTED_EDGE('',*,*,#365,.T.);
#206=ORIENTED_EDGE('',*,*,#366,.T.);
#207=ORIENTED_EDGE('',*,*,#367,.F.);
#208=ORIENTED_EDGE('',*,*,#368,.F.);
#209=ORIENTED_EDGE('',*,*,#369,.F.);
#210=ORIENTED_EDGE('',*,*,#370,.F.);
#211=ORIENTED_EDGE('',*,*,#371,.F.);
#212=ORIENTED_EDGE('',*,*,#372,.F.);
#213=ORIENTED_EDGE('',*,*,#373,.F.);
#214=ORIENTED_EDGE('',*,*,#374,.F.);
#215=ORIENTED_EDGE('',*,*,#375,.F.);
#216=ORIENTED_EDGE('',*,*,#376,.F.);
#217=ORIENTED_EDGE('',*,*,#377,.F.);
#218=ORIENTED_EDGE('',*,*,#378,.F.);
#219=ORIENTED_EDGE('',*,*,#379,.F.);
#220=ORIENTED_EDGE('',*,*,#380,.F.);
#221=ORIENTED_EDGE('',*,*,#381,.F.);
#222=ORIENTED_EDGE('',*,*,#382,.F.);
#223=ORIENTED_EDGE('',*,*,#383,.F.);
#224=ORIENTED_EDGE('',*,*,#384,.F.);
#225=ORIENTED_EDGE('',*,*,#385,.F.);
#226=ORIENTED_EDGE('',*,*,#386,.F.);
#227=ORIENTED_EDGE('',*,*,#367,.T.);
#228=ORIENTED_EDGE('',*,*,#387,.F.);
#229=ORIENTED_EDGE('',*,*,#347,.F.);
#230=ORIENTED_EDGE('',*,*,#388,.T.);
#231=ORIENTED_EDGE('',*,*,#382,.T.);
#232=ORIENTED_EDGE('',*,*,#389,.F.);
#233=ORIENTED_EDGE('',*,*,#348,.F.);
#234=ORIENTED_EDGE('',*,*,#387,.T.);
#235=ORIENTED_EDGE('',*,*,#381,.T.);
#236=ORIENTED_EDGE('',*,*,#390,.F.);
#237=ORIENTED_EDGE('',*,*,#349,.F.);
#238=ORIENTED_EDGE('',*,*,#389,.T.);
#239=ORIENTED_EDGE('',*,*,#380,.T.);
#240=ORIENTED_EDGE('',*,*,#391,.F.);
#241=ORIENTED_EDGE('',*,*,#350,.F.);
#242=ORIENTED_EDGE('',*,*,#390,.T.);
#243=ORIENTED_EDGE('',*,*,#379,.T.);
#244=ORIENTED_EDGE('',*,*,#392,.F.);
#245=ORIENTED_EDGE('',*,*,#351,.F.);
#246=ORIENTED_EDGE('',*,*,#391,.T.);
#247=ORIENTED_EDGE('',*,*,#378,.T.);
#248=ORIENTED_EDGE('',*,*,#393,.F.);
#249=ORIENTED_EDGE('',*,*,#352,.F.);
#250=ORIENTED_EDGE('',*,*,#392,.T.);
#251=ORIENTED_EDGE('',*,*,#377,.T.);
#252=ORIENTED_EDGE('',*,*,#394,.F.);
#253=ORIENTED_EDGE('',*,*,#353,.F.);
#254=ORIENTED_EDGE('',*,*,#393,.T.);
#255=ORIENTED_EDGE('',*,*,#376,.T.);
#256=ORIENTED_EDGE('',*,*,#395,.F.);
#257=ORIENTED_EDGE('',*,*,#354,.F.);
#258=ORIENTED_EDGE('',*,*,#394,.T.);
#259=ORIENTED_EDGE('',*,*,#375,.T.);
#260=ORIENTED_EDGE('',*,*,#396,.F.);
#261=ORIENTED_EDGE('',*,*,#355,.F.);
#262=ORIENTED_EDGE('',*,*,#395,.T.);
#263=ORIENTED_EDGE('',*,*,#374,.T.);
#264=ORIENTED_EDGE('',*,*,#397,.F.);
#265=ORIENTED_EDGE('',*,*,#356,.F.);
#266=ORIENTED_EDGE('',*,*,#396,.T.);
#267=ORIENTED_EDGE('',*,*,#373,.T.);
#268=ORIENTED_EDGE('',*,*,#398,.F.);
#269=ORIENTED_EDGE('',*,*,#357,.F.);
#270=ORIENTED_EDGE('',*,*,#397,.T.);
#271=ORIENTED_EDGE('',*,*,#372,.T.);
#272=ORIENTED_EDGE('',*,*,#399,.F.);
#273=ORIENTED_EDGE('',*,*,#358,.F.);
#274=ORIENTED_EDGE('',*,*,#398,.T.);
#275=ORIENTED_EDGE('',*,*,#371,.T.);
#276=ORIENTED_EDGE('',*,*,#400,.F.);
#277=ORIENTED_EDGE('',*,*,#359,.F.);
#278=ORIENTED_EDGE('',*,*,#399,.T.);
#279=ORIENTED_EDGE('',*,*,#370,.T.);
#280=ORIENTED_EDGE('',*,*,#401,.F.);
#281=ORIENTED_EDGE('',*,*,#360,.F.);
#282=ORIENTED_EDGE('',*,*,#400,.T.);
#283=ORIENTED_EDGE('',*,*,#369,.T.);
#284=ORIENTED_EDGE('',*,*,#402,.F.);
#285=ORIENTED_EDGE('',*,*,#361,.F.);
#286=ORIENTED_EDGE('',*,*,#401,.T.);
#287=ORIENTED_EDGE('',*,*,#368,.T.);
#288=ORIENTED_EDGE('',*,*,#388,.F.);
#289=ORIENTED_EDGE('',*,*,#362,.F.);
#290=ORIENTED_EDGE('',*,*,#402,.T.);
#291=ORIENTED_EDGE('',*,*,#383,.T.);
#292=ORIENTED_EDGE('',*,*,#403,.T.);
#293=ORIENTED_EDGE('',*,*,#364,.F.);
#294=ORIENTED_EDGE('',*,*,#404,.F.);
#295=ORIENTED_EDGE('',*,*,#386,.T.);
#296=ORIENTED_EDGE('',*,*,#405,.T.);
#297=ORIENTED_EDGE('',*,*,#365,.F.);
#298=ORIENTED_EDGE('',*,*,#403,.F.);
#299=ORIENTED_EDGE('',*,*,#385,.T.);
#300=ORIENTED_EDGE('',*,*,#406,.T.);
#301=ORIENTED_EDGE('',*,*,#366,.F.);
#302=ORIENTED_EDGE('',*,*,#405,.F.);
#303=ORIENTED_EDGE('',*,*,#384,.T.);
#304=ORIENTED_EDGE('',*,*,#404,.T.);
#305=ORIENTED_EDGE('',*,*,#363,.F.);
#306=ORIENTED_EDGE('',*,*,#406,.F.);
#307=VERTEX_POINT('',#658);
#308=VERTEX_POINT('',#659);
#309=VERTEX_POINT('',#661);
#310=VERTEX_POINT('',#663);
#311=VERTEX_POINT('',#665);
#312=VERTEX_POINT('',#667);
#313=VERTEX_POINT('',#669);
#314=VERTEX_POINT('',#671);
#315=VERTEX_POINT('',#673);
#316=VERTEX_POINT('',#675);
#317=VERTEX_POINT('',#677);
#318=VERTEX_POINT('',#679);
#319=VERTEX_POINT('',#681);
#320=VERTEX_POINT('',#683);
#321=VERTEX_POINT('',#685);
#322=VERTEX_POINT('',#687);
#323=VERTEX_POINT('',#690);
#324=VERTEX_POINT('',#691);
#325=VERTEX_POINT('',#693);
#326=VERTEX_POINT('',#695);
#327=VERTEX_POINT('',#699);
#328=VERTEX_POINT('',#700);
#329=VERTEX_POINT('',#702);
#330=VERTEX_POINT('',#704);
#331=VERTEX_POINT('',#706);
#332=VERTEX_POINT('',#708);
#333=VERTEX_POINT('',#710);
#334=VERTEX_POINT('',#712);
#335=VERTEX_POINT('',#714);
#336=VERTEX_POINT('',#716);
#337=VERTEX_POINT('',#718);
#338=VERTEX_POINT('',#720);
#339=VERTEX_POINT('',#722);
#340=VERTEX_POINT('',#724);
#341=VERTEX_POINT('',#726);
#342=VERTEX_POINT('',#728);
#343=VERTEX_POINT('',#731);
#344=VERTEX_POINT('',#732);
#345=VERTEX_POINT('',#734);
#346=VERTEX_POINT('',#736);
#347=EDGE_CURVE('',#307,#308,#407,.T.);
#348=EDGE_CURVE('',#308,#309,#408,.T.);
#349=EDGE_CURVE('',#309,#310,#409,.T.);
#350=EDGE_CURVE('',#310,#311,#410,.T.);
#351=EDGE_CURVE('',#311,#312,#411,.T.);
#352=EDGE_CURVE('',#312,#313,#412,.T.);
#353=EDGE_CURVE('',#313,#314,#413,.T.);
#354=EDGE_CURVE('',#314,#315,#414,.T.);
#355=EDGE_CURVE('',#315,#316,#415,.T.);
#356=EDGE_CURVE('',#316,#317,#416,.T.);
#357=EDGE_CURVE('',#317,#318,#417,.T.);
#358=EDGE_CURVE('',#318,#319,#418,.T.);
#359=EDGE_CURVE('',#319,#320,#419,.T.);
#360=EDGE_CURVE('',#320,#321,#420,.T.);
#361=EDGE_CURVE('',#321,#322,#421,.T.);
#362=EDGE_CURVE('',#322,#307,#422,.T.);
#363=EDGE_CURVE('',#323,#324,#423,.T.);
#364=EDGE_CURVE('',#324,#325,#424,.T.);
#365=EDGE_CURVE('',#325,#326,#425,.T.);
#366=EDGE_CURVE('',#326,#323,#426,.T.);
#367=EDGE_CURVE('',#327,#328,#427,.T.);
#368=EDGE_CURVE('',#329,#327,#428,.T.);
#369=EDGE_CURVE('',#330,#329,#429,.T.);
#370=EDGE_CURVE('',#331,#330,#430,.T.);
#371=EDGE_CURVE('',#332,#331,#431,.T.);
#372=EDGE_CURVE('',#333,#332,#432,.T.);
#373=EDGE_CURVE('',#334,#333,#433,.T.);
#374=EDGE_CURVE('',#335,#334,#434,.T.);
#375=EDGE_CURVE('',#336,#335,#435,.T.);
#376=EDGE_CURVE('',#337,#336,#436,.T.);
#377=EDGE_CURVE('',#338,#337,#437,.T.);
#378=EDGE_CURVE('',#339,#338,#438,.T.);
#379=EDGE_CURVE('',#340,#339,#439,.T.);
#380=EDGE_CURVE('',#341,#340,#440,.T.);
#381=EDGE_CURVE('',#342,#341,#441,.T.);
#382=EDGE_CURVE('',#328,#342,#442,.T.);
#383=EDGE_CURVE('',#343,#344,#443,.T.);
#384=EDGE_CURVE('',#345,#343,#444,.T.);
#385=EDGE_CURVE('',#346,#345,#445,.T.);
#386=EDGE_CURVE('',#344,#346,#446,.T.);
#387=EDGE_CURVE('',#308,#328,#447,.T.);
#388=EDGE_CURVE('',#307,#327,#448,.T.);
#389=EDGE_CURVE('',#309,#342,#449,.T.);
#390=EDGE_CURVE('',#310,#341,#450,.T.);
#391=EDGE_CURVE('',#311,#340,#451,.T.);
#392=EDGE_CURVE('',#312,#339,#452,.T.);
#393=EDGE_CURVE('',#313,#338,#453,.T.);
#394=EDGE_CURVE('',#314,#337,#454,.T.);
#395=EDGE_CURVE('',#315,#336,#455,.T.);
#396=EDGE_CURVE('',#316,#335,#456,.T.);
#397=EDGE_CURVE('',#317,#334,#457,.T.);
#398=EDGE_CURVE('',#318,#333,#458,.T.);
#399=EDGE_CURVE('',#319,#332,#459,.T.);
#400=EDGE_CURVE('',#320,#331,#460,.T.);
#401=EDGE_CURVE('',#321,#330,#461,.T.);
#402=EDGE_CURVE('',#322,#329,#462,.T.);
#403=EDGE_CURVE('',#344,#325,#463,.T.);
#404=EDGE_CURVE('',#343,#324,#464,.T.);
#405=EDGE_CURVE('',#346,#326,#465,.T.);
#406=EDGE_CURVE('',#345,#323,#466,.T.);
#407=LINE('',#657,#467);
#408=LINE('',#660,#468);
#409=LINE('',#662,#469);
#410=LINE('',#664,#470);
#411=LINE('',#666,#471);
#412=LINE('',#668,#472);
#413=LINE('',#670,#473);
#414=LINE('',#672,#474);
#415=LINE('',#674,#475);
#416=LINE('',#676,#476);
#417=LINE('',#678,#477);
#418=LINE('',#680,#478);
#419=LINE('',#682,#479);
#420=LINE('',#684,#480);
#421=LINE('',#686,#481);
#422=LINE('',#688,#482);
#423=LINE('',#689,#483);
#424=LINE('',#692,#484);
#425=LINE('',#694,#485);
#426=LINE('',#696,#486);
#427=LINE('',#698,#487);
#428=LINE('',#701,#488);
#429=LINE('',#703,#489);
#430=LINE('',#705,#490);
#431=LINE('',#707,#491);
#432=LINE('',#709,#492);
#433=LINE('',#711,#493);
#434=LINE('',#713,#494);
#435=LINE('',#715,#495);
#436=LINE('',#717,#496);
#437=LINE('',#719,#497);
#438=LINE('',#721,#498);
#439=LINE('',#723,#499);
#440=LINE('',#725,#500);
#441=LINE('',#727,#501);
#442=LINE('',#729,#502);
#443=LINE('',#730,#503);
#444=LINE('',#733,#504);
#445=LINE('',#735,#505);
#446=LINE('',#737,#506);
#447=LINE('',#739,#507);
#448=LINE('',#740,#508);
#449=LINE('',#742,#509);
#450=LINE('',#744,#510);
#451=LINE('',#746,#511);
#452=LINE('',#748,#512);
#453=LINE('',#750,#513);
#454=LINE('',#752,#514);
#455=LINE('',#754,#515);
#456=LINE('',#756,#516);
#457=LINE('',#758,#517);
#458=LINE('',#760,#518);
#459=LINE('',#762,#519);
#460=LINE('',#764,#520);
#461=LINE('',#766,#521);
#462=LINE('',#768,#522);
#463=LINE('',#771,#523);
#464=LINE('',#772,#524);
#465=LINE('',#774,#525);
#466=LINE('',#776,#526);
#467=VECTOR('',#552,1.);
#468=VECTOR('',#553,1.);
#469=VECTOR('',#554,1.);
#470=VECTOR('',#555,1.);
#471=VECTOR('',#556,1.);
#472=VECTOR('',#557,1.);
#473=VECTOR('',#558,1.);
#474=VECTOR('',#559,1.);
#475=VECTOR('',#560,1.);
#476=VECTOR('',#561,1.);
#477=VECTOR('',#562,1.);
#478=VECTOR('',#563,1.);
#479=VECTOR('',#564,1.);
#480=VECTOR('',#565,1.);
#481=VECTOR('',#566,1.);
#482=VECTOR('',#567,1.);
#483=VECTOR('',#568,1.);
#484=VECTOR('',#569,1.);
#485=VECTOR('',#570,1.);
#486=VECTOR('',#571,1.);
#487=VECTOR('',#574,1.);
#488=VECTOR('',#575,1.);
#489=VECTOR('',#576,1.);
#490=VECTOR('',#577,1.);
#491=VECTOR('',#578,1.);
#492=VECTOR('',#579,1.);
#493=VECTOR('',#580,1.);
#494=VECTOR('',#581,1.);
#495=VECTOR('',#582,1.);
#496=VECTOR('',#583,1.);
#497=VECTOR('',#584,1.);
#498=VECTOR('',#585,1.);
#499=VECTOR('',#586,1.);
#500=VECTOR('',#587,1.);
#501=VECTOR('',#588,1.);
#502=VECTOR('',#589,1.);
#503=VECTOR('',#590,1.);
#504=VECTOR('',#591,1.);
#505=VECTOR('',#592,1.);
#506=VECTOR('',#593,1.);
#507=VECTOR('',#596,1.);
#508=VECTOR('',#597,1.);
#509=VECTOR('',#600,1.);
#510=VECTOR('',#603,1.);
#511=VECTOR('',#606,1.);
#512=VECTOR('',#609,1.);
#513=VECTOR('',#612,1.);
#514=VECTOR('',#615,1.);
#515=VECTOR('',#618,1.);
#516=VECTOR('',#621,1.);
#517=VECTOR('',#624,1.);
#518=VECTOR('',#627,1.);
#519=VECTOR('',#630,1.);
#520=VECTOR('',#633,1.);
#521=VECTOR('',#636,1.);
#522=VECTOR('',#639,1.);
#523=VECTOR('',#644,1.);
#524=VECTOR('',#645,1.);
#525=VECTOR('',#648,1.);
#526=VECTOR('',#651,1.);
#527=AXIS2_PLACEMENT_3D('',#656,#550,#551);
#528=AXIS2_PLACEMENT_3D('',#697,#572,#573);
#529=AXIS2_PLACEMENT_3D('',#738,#594,#595);
#530=AXIS2_PLACEMENT_3D('',#741,#598,#599);
#531=AXIS2_PLACEMENT_3D('',#743,#601,#602);
#532=AXIS2_PLACEMENT_3D('',#745,#604,#605);
#533=AXIS2_PLACEMENT_3D('',#747,#607,#608);
#534=AXIS2_PLACEMENT_3D('',#749,#610,#611);
#535=AXIS2_PLACEMENT_3D('',#751,#613,#614);
#536=AXIS2_PLACEMENT_3D('',#753,#616,#617);
#537=AXIS2_PLACEMENT_3D('',#755,#619,#620);
#538=AXIS2_PLACEMENT_3D('',#757,#622,#623);
#539=AXIS2_PLACEMENT_3D('',#759,#625,#626);
#540=AXIS2_PLACEMENT_3D('',#761,#628,#629);
#541=AXIS2_PLACEMENT_3D('',#763,#631,#632);
#542=AXIS2_PLACEMENT_3D('',#765,#634,#635);
#543=AXIS2_PLACEMENT_3D('',#767,#637,#638);
#544=AXIS2_PLACEMENT_3D('',#769,#640,#641);
#545=AXIS2_PLACEMENT_3D('',#770,#642,#643);
#546=AXIS2_PLACEMENT_3D('',#773,#646,#647);
#547=AXIS2_PLACEMENT_3D('',#775,#649,#650);
#548=AXIS2_PLACEMENT_3D('',#777,#652,#653);
#549=AXIS2_PLACEMENT_3D('',#778,#654,#655);
#550=DIRECTION('',(0.,0.,1.));
#551=DIRECTION('',(1.,0.,0.));
#552=DIRECTION('',(-1.,0.,0.));
#553=DIRECTION('',(0.,-1.,0.));
#554=DIRECTION('',(1.,0.,0.));
#555=DIRECTION('',(-1.38777878078145E-16,1.,0.));
#556=DIRECTION('',(-1.,1.11022302462515E-14,0.));
#557=DIRECTION('',(0.,1.,0.));
#558=DIRECTION('',(-1.,0.,0.));
#559=DIRECTION('',(0.,-1.,0.));
#560=DIRECTION('',(-1.,-1.11022302462516E-14,0.));
#561=DIRECTION('',(0.,-1.,0.));
#562=DIRECTION('',(-1.,0.,0.));
#563=DIRECTION('',(0.,1.,0.));
#564=DIRECTION('',(-1.,0.,0.));
#565=DIRECTION('',(0.,1.,0.));
#566=DIRECTION('',(-1.,0.,0.));
#567=DIRECTION('',(0.,-1.,0.));
#568=DIRECTION('',(1.54197642309049E-16,-1.,0.));
#569=DIRECTION('',(-1.,2.86671348500289E-16,0.));
#570=DIRECTION('',(-1.15648231731787E-16,1.,0.));
#571=DIRECTION('',(1.,1.14668539400115E-15,0.));
#572=DIRECTION('',(0.,0.,1.));
#573=DIRECTION('',(1.,0.,0.));
#574=DIRECTION('',(-1.,0.,0.));
#575=DIRECTION('',(0.,-1.,0.));
#576=DIRECTION('',(-1.,0.,0.));
#577=DIRECTION('',(0.,1.,0.));
#578=DIRECTION('',(-1.,0.,0.));
#579=DIRECTION('',(0.,1.,0.));
#580=DIRECTION('',(-1.,0.,0.));
#581=DIRECTION('',(0.,-1.,0.));
#582=DIRECTION('',(-1.,-1.11022302462516E-14,0.));
#583=DIRECTION('',(0.,-1.,0.));
#584=DIRECTION('',(-1.,0.,0.));
#585=DIRECTION('',(0.,1.,0.));
#586=DIRECTION('',(-1.,1.11022302462515E-14,0.));
#587=DIRECTION('',(-1.38777878078145E-16,1.,0.));
#588=DIRECTION('',(1.,0.,0.));
#589=DIRECTION('',(0.,-1.,0.));
#590=DIRECTION('',(-1.,2.86671348500289E-16,0.));
#591=DIRECTION('',(1.54197642309049E-16,-1.,0.));
#592=DIRECTION('',(1.,1.14668539400115E-15,0.));
#593=DIRECTION('',(-1.15648231731787E-16,1.,0.));
#594=DIRECTION('',(0.,0.,1.));
#595=DIRECTION('',(1.,0.,0.));
#596=DIRECTION('',(0.,0.,-1.));
#597=DIRECTION('',(0.,0.,-1.));
#598=DIRECTION('',(0.,-1.,0.));
#599=DIRECTION('',(0.,0.,-1.));
#600=DIRECTION('',(0.,0.,-1.));
#601=DIRECTION('',(1.,0.,0.));
#602=DIRECTION('',(0.,0.,-1.));
#603=DIRECTION('',(0.,0.,-1.));
#604=DIRECTION('',(0.,1.,0.));
#605=DIRECTION('',(0.,0.,1.));
#606=DIRECTION('',(0.,0.,-1.));
#607=DIRECTION('',(-1.,-1.38777878078145E-16,0.));
#608=DIRECTION('',(1.38777878078145E-16,-1.,0.));
#609=DIRECTION('',(0.,0.,-1.));
#610=DIRECTION('',(-1.11022302462515E-14,-1.,0.));
#611=DIRECTION('',(1.,-1.11022302462516E-14,0.));
#612=DIRECTION('',(0.,0.,-1.));
#613=DIRECTION('',(-1.,0.,0.));
#614=DIRECTION('',(0.,0.,1.));
#615=DIRECTION('',(0.,0.,-1.));
#616=DIRECTION('',(0.,-1.,0.));
#617=DIRECTION('',(0.,0.,-1.));
#618=DIRECTION('',(0.,0.,-1.));
#619=DIRECTION('',(1.,0.,0.));
#620=DIRECTION('',(0.,0.,-1.));
#621=DIRECTION('',(0.,0.,-1.));
#622=DIRECTION('',(1.11022302462516E-14,-1.,0.));
#623=DIRECTION('',(1.,1.11022302462516E-14,0.));
#624=DIRECTION('',(0.,0.,-1.));
#625=DIRECTION('',(1.,0.,0.));
#626=DIRECTION('',(0.,0.,-1.));
#627=DIRECTION('',(0.,0.,-1.));
#628=DIRECTION('',(0.,-1.,0.));
#629=DIRECTION('',(0.,0.,-1.));
#630=DIRECTION('',(0.,0.,-1.));
#631=DIRECTION('',(-1.,0.,0.));
#632=DIRECTION('',(0.,0.,1.));
#633=DIRECTION('',(0.,0.,-1.));
#634=DIRECTION('',(0.,-1.,0.));
#635=DIRECTION('',(0.,0.,-1.));
#636=DIRECTION('',(0.,0.,-1.));
#637=DIRECTION('',(-1.,0.,0.));
#638=DIRECTION('',(0.,0.,1.));
#639=DIRECTION('',(0.,0.,-1.));
#640=DIRECTION('',(0.,-1.,0.));
#641=DIRECTION('',(0.,0.,-1.));
#642=DIRECTION('',(1.,0.,0.));
#643=DIRECTION('',(0.,0.,-1.));
#644=DIRECTION('',(0.,0.,1.));
#645=DIRECTION('',(0.,0.,1.));
#646=DIRECTION('',(2.86671348500289E-16,1.,0.));
#647=DIRECTION('',(-1.,2.77555756156289E-16,0.));
#648=DIRECTION('',(0.,0.,1.));
#649=DIRECTION('',(1.,1.15648231731787E-16,0.));
#650=DIRECTION('',(-1.17961196366423E-16,1.,0.));
#651=DIRECTION('',(0.,0.,1.));
#652=DIRECTION('',(1.14668539400115E-15,-1.,0.));
#653=DIRECTION('',(1.,1.14491749414469E-15,0.));
#654=DIRECTION('',(-1.,-1.54197642309049E-16,0.));
#655=DIRECTION('',(1.52655665885959E-16,-1.,0.));
#656=CARTESIAN_POINT('',(0.,0.,0.));
#657=CARTESIAN_POINT('',(-70.,320.,1.));
#658=CARTESIAN_POINT('',(-70.,320.,1.));
#659=CARTESIAN_POINT('',(-75.,320.,1.));
#660=CARTESIAN_POINT('',(-75.,320.,1.));
#661=CARTESIAN_POINT('',(-75.,-280.,1.));
#662=CARTESIAN_POINT('',(-75.,-280.,1.));
#663=CARTESIAN_POINT('',(73.4100970690501,-280.,1.));
#664=CARTESIAN_POINT('',(73.4100970690501,-280.,1.));
#665=CARTESIAN_POINT('',(73.41009706905,320.,1.));
#666=CARTESIAN_POINT('',(73.41009706905,320.,1.));
#667=CARTESIAN_POINT('',(68.41009706905,320.,1.));
#668=CARTESIAN_POINT('',(68.41009706905,320.,1.));
#669=CARTESIAN_POINT('',(68.41009706905,370.,1.));
#670=CARTESIAN_POINT('',(68.41009706905,370.,1.));
#671=CARTESIAN_POINT('',(50.,370.,1.));
#672=CARTESIAN_POINT('',(50.,370.,1.));
#673=CARTESIAN_POINT('',(50.,320.,1.));
#674=CARTESIAN_POINT('',(50.,320.,1.));
#675=CARTESIAN_POINT('',(45.,320.,1.));
#676=CARTESIAN_POINT('',(45.,320.,1.));
#677=CARTESIAN_POINT('',(45.,0.,1.));
#678=CARTESIAN_POINT('',(45.,0.,1.));
#679=CARTESIAN_POINT('',(-45.,0.,1.));
#680=CARTESIAN_POINT('',(-45.,0.,1.));
#681=CARTESIAN_POINT('',(-45.,320.,1.));
#682=CARTESIAN_POINT('',(-45.,320.,1.));
#683=CARTESIAN_POINT('',(-50.,320.,1.));
#684=CARTESIAN_POINT('',(-50.,320.,1.));
#685=CARTESIAN_POINT('',(-50.,370.,1.));
#686=CARTESIAN_POINT('',(-50.,370.,1.));
#687=CARTESIAN_POINT('',(-70.,370.,1.));
#688=CARTESIAN_POINT('',(-70.,370.,1.));
#689=CARTESIAN_POINT('',(48.41009706905,-50.,1.));
#690=CARTESIAN_POINT('',(48.41009706905,-50.,1.));
#691=CARTESIAN_POINT('',(48.4100970690501,-230.,1.));
#692=CARTESIAN_POINT('',(48.4100970690501,-230.,1.));
#693=CARTESIAN_POINT('',(-48.4100970690501,-230.,1.));
#694=CARTESIAN_POINT('',(-48.4100970690501,-230.,1.));
#695=CARTESIAN_POINT('',(-48.4100970690501,-50.0000000000001,1.));
#696=CARTESIAN_POINT('',(-48.4100970690501,-50.0000000000001,1.));
#697=CARTESIAN_POINT('',(0.,0.,1.));
#698=CARTESIAN_POINT('',(-70.,320.,0.));
#699=CARTESIAN_POINT('',(-70.,320.,0.));
#700=CARTESIAN_POINT('',(-75.,320.,0.));
#701=CARTESIAN_POINT('',(-70.,370.,0.));
#702=CARTESIAN_POINT('',(-70.,370.,0.));
#703=CARTESIAN_POINT('',(-50.,370.,0.));
#704=CARTESIAN_POINT('',(-50.,370.,0.));
#705=CARTESIAN_POINT('',(-50.,320.,0.));
#706=CARTESIAN_POINT('',(-50.,320.,0.));
#707=CARTESIAN_POINT('',(-45.,320.,0.));
#708=CARTESIAN_POINT('',(-45.,320.,0.));
#709=CARTESIAN_POINT('',(-45.,0.,0.));
#710=CARTESIAN_POINT('',(-45.,0.,0.));
#711=CARTESIAN_POINT('',(45.,0.,0.));
#712=CARTESIAN_POINT('',(45.,0.,0.));
#713=CARTESIAN_POINT('',(45.,320.,0.));
#714=CARTESIAN_POINT('',(45.,320.,0.));
#715=CARTESIAN_POINT('',(50.,320.,0.));
#716=CARTESIAN_POINT('',(50.,320.,0.));
#717=CARTESIAN_POINT('',(50.,370.,0.));
#718=CARTESIAN_POINT('',(50.,370.,0.));
#719=CARTESIAN_POINT('',(68.41009706905,370.,0.));
#720=CARTESIAN_POINT('',(68.41009706905,370.,0.));
#721=CARTESIAN_POINT('',(68.41009706905,320.,0.));
#722=CARTESIAN_POINT('',(68.41009706905,320.,0.));
#723=CARTESIAN_POINT('',(73.41009706905,320.,0.));
#724=CARTESIAN_POINT('',(73.41009706905,320.,0.));
#725=CARTESIAN_POINT('',(73.4100970690501,-280.,0.));
#726=CARTESIAN_POINT('',(73.4100970690501,-280.,0.));
#727=CARTESIAN_POINT('',(-75.,-280.,0.));
#728=CARTESIAN_POINT('',(-75.,-280.,0.));
#729=CARTESIAN_POINT('',(-75.,320.,0.));
#730=CARTESIAN_POINT('',(-6.59344101550664E-14,-230.,0.));
#731=CARTESIAN_POINT('',(48.4100970690501,-230.,0.));
#732=CARTESIAN_POINT('',(-48.4100970690501,-230.,0.));
#733=CARTESIAN_POINT('',(48.41009706905,7.46472283199974E-15,0.));
#734=CARTESIAN_POINT('',(48.41009706905,-50.,0.));
#735=CARTESIAN_POINT('',(5.73342697000578E-14,-50.0000000000001,0.));
#736=CARTESIAN_POINT('',(-48.4100970690501,-50.0000000000001,0.));
#737=CARTESIAN_POINT('',(-48.4100970690501,-5.59854212399982E-15,0.));
#738=CARTESIAN_POINT('',(0.,0.,0.));
#739=CARTESIAN_POINT('',(-75.,320.,1.));
#740=CARTESIAN_POINT('',(-70.,320.,1.));
#741=CARTESIAN_POINT('',(-70.,320.,1.));
#742=CARTESIAN_POINT('',(-75.,-280.,1.));
#743=CARTESIAN_POINT('',(-75.,320.,1.));
#744=CARTESIAN_POINT('',(73.4100970690501,-280.,1.));
#745=CARTESIAN_POINT('',(-75.,-280.,1.));
#746=CARTESIAN_POINT('',(73.41009706905,320.,1.));
#747=CARTESIAN_POINT('',(73.4100970690501,-280.,1.));
#748=CARTESIAN_POINT('',(68.41009706905,320.,1.));
#749=CARTESIAN_POINT('',(73.41009706905,320.,1.));
#750=CARTESIAN_POINT('',(68.41009706905,370.,1.));
#751=CARTESIAN_POINT('',(68.41009706905,320.,1.));
#752=CARTESIAN_POINT('',(50.,370.,1.));
#753=CARTESIAN_POINT('',(68.41009706905,370.,1.));
#754=CARTESIAN_POINT('',(50.,320.,1.));
#755=CARTESIAN_POINT('',(50.,370.,1.));
#756=CARTESIAN_POINT('',(45.,320.,1.));
#757=CARTESIAN_POINT('',(50.,320.,1.));
#758=CARTESIAN_POINT('',(45.,0.,1.));
#759=CARTESIAN_POINT('',(45.,320.,1.));
#760=CARTESIAN_POINT('',(-45.,0.,1.));
#761=CARTESIAN_POINT('',(45.,0.,1.));
#762=CARTESIAN_POINT('',(-45.,320.,1.));
#763=CARTESIAN_POINT('',(-45.,0.,1.));
#764=CARTESIAN_POINT('',(-50.,320.,1.));
#765=CARTESIAN_POINT('',(-45.,320.,1.));
#766=CARTESIAN_POINT('',(-50.,370.,1.));
#767=CARTESIAN_POINT('',(-50.,320.,1.));
#768=CARTESIAN_POINT('',(-70.,370.,1.));
#769=CARTESIAN_POINT('',(-50.,370.,1.));
#770=CARTESIAN_POINT('',(-70.,370.,1.));
#771=CARTESIAN_POINT('',(-48.4100970690501,-230.,-665.728248173156));
#772=CARTESIAN_POINT('',(48.4100970690501,-230.,-665.728248173156));
#773=CARTESIAN_POINT('',(48.4100970690501,-230.,-665.728248173156));
#774=CARTESIAN_POINT('',(-48.4100970690501,-50.0000000000001,-665.728248173156));
#775=CARTESIAN_POINT('',(-48.4100970690501,-230.,-665.728248173156));
#776=CARTESIAN_POINT('',(48.41009706905,-50.,-665.728248173156));
#777=CARTESIAN_POINT('',(-48.4100970690501,-50.0000000000001,-665.728248173156));
#778=CARTESIAN_POINT('',(48.41009706905,-50.,-665.728248173156));
#779=(
GEOMETRIC_REPRESENTATION_CONTEXT(3)
GLOBAL_UNCERTAINTY_ASSIGNED_CONTEXT((#780))
GLOBAL_UNIT_ASSIGNED_CONTEXT((#786,#782,#781))
REPRESENTATION_CONTEXT('firebasket leg','TOP_LEVEL_ASSEMBLY_PART')
);
#780=UNCERTAINTY_MEASURE_WITH_UNIT(LENGTH_MEASURE(2.E-5),#786,
'DISTANCE_ACCURACY_VALUE','Maximum Tolerance applied to model');
#781=(
NAMED_UNIT(*)
SI_UNIT($,.STERADIAN.)
SOLID_ANGLE_UNIT()
);
#782=(
CONVERSION_BASED_UNIT('DEGREE',#784)
NAMED_UNIT(#783)
PLANE_ANGLE_UNIT()
);
#783=DIMENSIONAL_EXPONENTS(0.,0.,0.,0.,0.,0.,0.);
#784=PLANE_ANGLE_MEASURE_WITH_UNIT(PLANE_ANGLE_MEASURE(0.0174532925),#785);
#785=(
NAMED_UNIT(*)
PLANE_ANGLE_UNIT()
SI_UNIT($,.RADIAN.)
);
#786=(
LENGTH_UNIT()
NAMED_UNIT(*)
SI_UNIT(.MILLI.,.METRE.)
);
ENDSEC;
END-ISO-10303-21;
