0
SECTION
2
HEADER
9
$ACADVER
1
AC1014
9
$HANDSEED
5
FFFF
0
ENDSEC
0
SECTION
2
TABLES
0
TABLE
2
VPORT
5
8
100
AcDbSymbolTable
0
ENDTAB
0
TABLE
2
LTYPE
5
5
100
AcDbSymbolTable
0
LTYPE
5
14
100
AcDbSymbolTableRecord
100
AcDbLinetypeTableRecord
2
BYBLOCK
70
0
0
LTYPE
5
15
100
AcDbSymbolTableRecord
100
AcDbLinetypeTableRecord
2
BYLAYER
70
0
0
ENDTAB
0
TABLE
2
LAYER
5
2
100
AcDbSymbolTable
70
2
0
LAYER
5
50
100
AcDbSymbolTableRecord
100
AcDbLayerTableRecord
2
0
70
0
6
CONTINUOUS
0
ENDTAB
0
TABLE
2
STYLE
5
3
100
AcDbSymbolTable
70
1
0
STYLE
5
11
100
AcDbSymbolTableRecord
100
AcDbTextStyleTableRecord
2
STANDARD
70
0
0
ENDTAB
0
TABLE
2
VIEW
5
6
100
AcDbSymbolTable
70
0
0
ENDTAB
0
TABLE
2
UCS
5
7
100
AcDbSymbolTable
70
0
0
ENDTAB
0
TABLE
2
APPID
5
9
100
AcDbSymbolTable
70
2
0
APPID
5
12
100
AcDbSymbolTableRecord
100
AcDbRegAppTableRecord
2
ACAD
70
0
0
ENDTAB
0
TABLE
2
DIMSTYLE
5
A
100
AcDbSymbolTable
70
1
0
ENDTAB
0
TABLE
2
BLOCK_RECORD
5
1
100
AcDbSymbolTable
70
1
0
BLOCK_RECORD
5
1F
100
AcDbSymbolTableRecord
100
AcDbBlockTableRecord
2
*MODEL_SPACE
0
BLOCK_RECORD
5
1B
100
AcDbSymbolTableRecord
100
AcDbBlockTableRecord
2
*PAPER_SPACE
0
ENDTAB
0
ENDSEC
0
SECTION
2
BLOCKS
0
BLOCK
5
20
100
AcDbEntity
100
AcDbBlockBegin
2
*MODEL_SPACE
0
ENDBLK
5
21
100
AcDbEntity
100
AcDbBlockEnd
0
BLOCK
5
1C
100
AcDbEntity
100
AcDbBlockBegin
2
*PAPER_SPACE
0
ENDBLK
5
1D
100
AcDbEntity
100
AcDbBlockEnd
0
ENDSEC
0
SECTION
2
ENTITIES
0
LINE
5
100
100
AcDbEntity
8
0
100
AcDbLine
10
-25.227493698607649
20
20.207337395355225
30
0
11
65.108846182045227
21
20.207337395355228
31
0
0
LINE
5
101
100
AcDbEntity
8
0
100
AcDbLine
10
70.108846182045227
20
15.207337395355239
30
0
11
70.108846182045241
21
5.0129603859097402
31
0
0
LINE
5
102
100
AcDbEntity
8
0
100
AcDbLine
10
49.969524475302201
20
4.9972713490354366
30
0
11
-9.9999835533807264
21
4.9972713490354446
31
0
0
LINE
5
103
100
AcDbEntity
8
0
100
AcDbLine
10
-30.227493698607649
20
5.0129603859097402
30
0
11
-30.227493698607638
21
15.207337395355234
31
0
0
LINE
5
104
100
AcDbEntity
8
0
100
AcDbLine
10
-30.227493698607649
20
5.0129603859097402
30
0
11
-15
21
5.0129603859097411
31
0
0
LINE
5
105
100
AcDbEntity
8
0
100
AcDbLine
10
-14.999983553380726
20
-0.0027286509645664189
30
0
11
-14.99998355338073
21
0.207337395355216
31
0
0
LINE
5
106
100
AcDbEntity
8
0
100
AcDbLine
10
-19.999983553380719
20
-4.792662604644776
30
0
11
-25.227493698607645
21
-4.7926626046447742
31
0
0
LINE
5
107
100
AcDbEntity
8
0
100
AcDbLine
10
-30.227493698607645
20
0.20733739535522377
30
0
11
-30.227493698607649
21
5.0129603859097402
31
0
0
LINE
5
108
100
AcDbEntity
8
0
100
AcDbLine
10
70.108846182045241
20
5.0129603859097402
30
0
11
54.999999999999986
21
5.0129603859097411
31
0
0
LINE
5
109
100
AcDbEntity
8
0
100
AcDbLine
10
54.969524475302222
20
-0.0027286509645807477
30
0
11
54.969524475302222
21
0.20733739535521545
31
0
0
LINE
5
110
100
AcDbEntity
8
0
100
AcDbLine
10
59.969524475302208
20
-4.7926626046447751
30
0
11
65.108846182045212
21
-4.7926626046447751
31
0
0
LINE
5
111
100
AcDbEntity
8
0
100
AcDbLine
10
70.108846182045212
20
0.20733739535521323
30
0
11
70.108846182045241
21
5.0129603859097402
31
0
0
ARC
5
112
100
AcDbEntity
8
0
100
AcDbCircle
10
-25.227493698607649
20
15.207337395355234
30
0
40
4.9999999999999911
100
AcDbArc
50
90
51
180
0
ARC
5
113
100
AcDbEntity
8
0
100
AcDbCircle
10
-25.227493698607645
20
0.207337395355226
30
0
40
5
100
AcDbArc
50
180
51
270
0
ARC
5
114
100
AcDbEntity
8
0
100
AcDbCircle
10
65.108846182045212
20
0.20733739535522211
30
0
40
4.9999999999999973
100
AcDbArc
50
270
51
360
0
ARC
5
115
100
AcDbEntity
8
0
100
AcDbCircle
10
65.108846182045227
20
15.207337395355239
30
0
40
4.9999999999999911
100
AcDbArc
50
0
51
90
0
LINE
5
116
100
AcDbEntity
8
0
100
AcDbLine
10
-15
20
5.0129603859097411
30
0
11
54.999999999999986
21
5.0129603859097411
31
0
0
ARC
5
117
100
AcDbEntity
8
0
100
AcDbCircle
10
-9.9999835533807282
20
-0.0027286509645568779
30
0
40
5.0000000000000018
100
AcDbArc
50
89.999999999999986
51
180
0
ARC
5
118
100
AcDbEntity
8
0
100
AcDbCircle
10
49.969524475302201
20
-0.0027286509645810253
30
0
40
5.0000000000000178
100
AcDbArc
50
0
51
90
0
ARC
5
119
100
AcDbEntity
8
0
100
AcDbCircle
10
-19.999983553380719
20
0.207337395355216
30
0
40
4.999999999999992
100
AcDbArc
50
-90
51
0
0
ARC
5
120
100
AcDbEntity
8
0
100
AcDbCircle
10
59.969524475302208
20
0.20733739535521545
30
0
40
4.9999999999999911
100
AcDbArc
50
180
51
270
0
CIRCLE
5
121
100
AcDbEntity
8
0
100
AcDbCircle
10
-19.999983553380719
20
0.207337395355216
30
0
40
0.99999999999999867
0
CIRCLE
5
122
100
AcDbEntity
8
0
100
AcDbCircle
10
59.969524475302208
20
0.20733739535521545
30
0
40
0.99999999999999656
0
CIRCLE
5
123
100
AcDbEntity
8
0
100
AcDbCircle
10
20
20
15
30
0
40
0.99999999999999989
0
CIRCLE
5
124
100
AcDbEntity
8
0
100
AcDbCircle
10
-25.00000037252903
20
15.000000223517418
30
0
40
1.0000000000000007
0
CIRCLE
5
125
100
AcDbEntity
8
0
100
AcDbCircle
10
65.000000968575478
20
15.000000223517418
30
0
40
0.99999999999999845
0
ENDSEC
0
SECTION
2
OBJECTS
0
DICTIONARY
5
C
100
AcDbDictionary
3
ACAD_GROUP
350
D
3
ACAD_MLINESTYLE
350
17
0
DICTIONARY
5
D
100
AcDbDictionary
0
DICTIONARY
5
1A
330
C
100
AcDbDictionary
0
DICTIONARY
5
17
100
AcDbDictionary
0
ENDSEC
0
EOF
