0
SECTION
2
HEADER
9
$ANGDIR
70
0
9
$CHAMFERA
40
10
9
$CHAMFERB
40
10
9
$CLAYER
8
Layer_1
9
$EXTMAX
10
169.75604426450269
20
256.06185190893859
9
$EXTMIN
10
57.421910476081422
20
189.36510151292518
9
$LIMMAX
10
420
20
297
9
$LIMMIN
10
0
20
0
9
$LTSCALE
40
10
9
$PLINEGEN
70
0
9
$TEXTSIZE
40
20
9
$GRIDUNIT
10
10
20
10
9
$SNAPUNIT
10
1
20
1
0
ENDSEC
0
SECTION
2
TABLES
0
TABLE
2
STYLE
70
1
0
STYLE
2
STANDARD
70
0
40
0
41
1
50
0
71
0
42
0.20000000000000001
3
txt
4

0
ENDTAB
0
TABLE
2
LTYPE
70
14
0
LTYPE
2
CONTINUOUS
70
0
3
Solid line
72
65
73
0
40
0
0
LTYPE
2
DOT
70
0
3
............................................
72
65
73
2
40
0.25
49
0
49
-0.25
0
LTYPE
2
HIDDEN
70
0
3
_ _ _ _ _ _ _ _ _ _ _ _ _ _ _ _ _ _ _ _ _ _ 
72
65
73
2
40
0.375
49
0.25
49
-0.125
0
LTYPE
2
TSLONGDASH
70
0
3
__ __ __ __ __ __ __ __ __ __ __ __ __ __ _ 
72
65
73
2
40
1.28
49
1
49
-0.28000000000000003
0
LTYPE
2
TSDASHDOT
70
0
3
______ . ______ . ______ . ______ . ______ .
72
65
73
4
40
1.28
49
1
49
-0.14000000000000001
49
0
49
-0.14000000000000001
0
LTYPE
2
TSCENTER
70
0
3
______ _ ______ _ ______ _ ______ _ ______ _
72
65
73
4
40
2
49
1.5
49
-0.17999999999999999
49
0.14000000000000001
49
-0.17999999999999999
0
LTYPE
2
TSPHANTOM
70
0
3
_____ _ _ _____ _ _ _____ _ _ _____ _ _ ____
72
65
73
6
40
2.5
49
1.6299999999999999
49
-0.19
49
0.14999999999999999
49
-0.19
49
0.14999999999999999
49
-0.19
0
LTYPE
2
DASHED
70
0
3
__ __ __ __ __ __ __ __ __ __ __ __ __ __ __
72
65
73
2
40
0.75
49
0.5
49
-0.25
0
LTYPE
2
CENTER
70
0
3
____ _ ____ _ ____ _ ____ _ ____ _ ____ _ __
72
65
73
4
40
2
49
1.25
49
-0.25
49
0.25
49
-0.25
0
LTYPE
2
PHANTOM
70
0
3
_____ _ _ _____ _ _ _____ _ _ _____ _ _ ____
72
65
73
6
40
2.5
49
1.25
49
-0.25
49
0.25
49
-0.25
49
0.25
49
-0.25
0
LTYPE
2
DASHDOT
70
0
3
__ . __ . __ . __ . __ . __ . __ . __ . __ .
72
65
73
4
40
1
49
0.5
49
-0.25
49
0
49
-0.25
0
LTYPE
2
BORDER
70
0
3
__ __ . __ __ . __ __ . __ __ . __ __ . __ _
72
65
73
6
40
1.75
49
0.5
49
-0.25
49
0.5
49
-0.25
49
0
49
-0.25
0
LTYPE
2
DIVIDE
70
0
3
__ . . __ . . __ . . __ . . __ . . __ . . __
72
65
73
6
40
1.25
49
0.5
49
-0.25
49
0
49
-0.25
49
0
49
-0.25
0
ENDTAB
0
TABLE
2
LAYER
70
3
0
LAYER
2
Layer_1
70
0
62
7
6
CONTINUOUS
0
LAYER
2
Layer_2
70
0
62
7
6
CONTINUOUS
0
LAYER
2
Layer_3
70
0
62
7
6
CONTINUOUS
0
ENDTAB
0
ENDSEC
0
SECTION
2
ENTITIES
0
ARC
8
Layer_1
6
CONTINUOUS
62
7
10
72.421910476081436
20
240.97110830719888
40
15.000000000000012
50
89.688555190309941
51
273.15882737781254
0
ARC
8
Layer_1
6
CONTINUOUS
62
7
10
153.53619365880849
20
241.00325720780793
40
15.058594701130644
50
265.36545153882389
51
95.449908023563523
0
LINE
8
Layer_1
6
CONTINUOUS
62
7
10
72.503446135733583
20
255.97088670343547
11
152.51550844721874
21
255.99389901321311
0
LINE
8
Layer_1
6
CONTINUOUS
62
7
10
72.515508447218735
20
225.99389901321305
11
152.51550844721874
21
225.99389901321305
0
CIRCLE
8
Layer_1
6
CONTINUOUS
62
7
10
66.558113235467943
20
241.7774278108503
40
3.0000000000000022
0
CIRCLE
8
Layer_1
6
CONTINUOUS
62
7
10
156.1683605376225
20
241.39034250932912
40
3.0000000000000022
0
ARC
8
Layer_1
6
CONTINUOUS
62
7
10
73.583166380644997
20
204.39154731344678
40
15.000000000000012
50
89.688555190309941
51
273.15882737781254
0
ARC
8
Layer_1
6
CONTINUOUS
62
7
10
154.69744956337203
20
204.42369621405584
40
15.058594701130646
50
265.36545153882378
51
95.449908023563637
0
LINE
8
Layer_1
6
CONTINUOUS
62
7
10
73.664702040297158
20
219.39132570968337
11
153.67676435178234
21
219.41433801946101
0
LINE
8
Layer_1
6
CONTINUOUS
62
7
10
73.676764351782282
20
189.41433801946096
11
153.67676435178234
21
189.41433801946096
0
CIRCLE
8
Layer_1
6
CONTINUOUS
62
7
10
67.719369140031489
20
205.1978668170982
40
3.0000000000000022
0
CIRCLE
8
Layer_1
6
CONTINUOUS
62
7
10
157.32961644218605
20
204.81078151557702
40
3.0000000000000022
0
ENDSEC
0
EOF
