0
SECTION
2
HEADER
9
$INSUNITS
70
4
9
$ACADVER
1
AC1014
9
$HANDSEED
5
FFFF
0
ENDSEC
0
SECTION
2
TABLES
0
TABLE
2
VPORT
5
8
100
AcDbSymbolTable
0
ENDTAB
0
TABLE
2
LTYPE
5
5
100
AcDbSymbolTable
0
LTYPE
5
14
100
AcDbSymbolTableRecord
100
AcDbLinetypeTableRecord
2
BYBLOCK
70
0
0
LTYPE
5
15
100
AcDbSymbolTableRecord
100
AcDbLinetypeTableRecord
2
BYLAYER
70
0
0
ENDTAB
0
TABLE
2
LAYER
5
2
100
AcDbSymbolTable
70
2
0
LAYER
5
50
100
AcDbSymbolTableRecord
100
AcDbLayerTableRecord
2
0
70
0
6
CONTINUOUS
0
ENDTAB
0
TABLE
2
STYLE
5
3
100
AcDbSymbolTable
70
1
0
STYLE
5
11
100
AcDbSymbolTableRecord
100
AcDbTextStyleTableRecord
2
STANDARD
70
0
0
ENDTAB
0
TABLE
2
VIEW
5
6
100
AcDbSymbolTable
70
0
0
ENDTAB
0
TABLE
2
UCS
5
7
100
AcDbSymbolTable
70
0
0
ENDTAB
0
TABLE
2
APPID
5
9
100
AcDbSymbolTable
70
2
0
APPID
5
12
100
AcDbSymbolTableRecord
100
AcDbRegAppTableRecord
2
ACAD
70
0
0
ENDTAB
0
TABLE
2
DIMSTYLE
5
A
100
AcDbSymbolTable
70
1
0
ENDTAB
0
TABLE
2
BLOCK_RECORD
5
1
100
AcDbSymbolTable
70
1
0
BLOCK_RECORD
5
1F
100
AcDbSymbolTableRecord
100
AcDbBlockTableRecord
2
*MODEL_SPACE
0
BLOCK_RECORD
5
1B
100
AcDbSymbolTableRecord
100
AcDbBlockTableRecord
2
*PAPER_SPACE
0
ENDTAB
0
ENDSEC
0
SECTION
2
BLOCKS
0
BLOCK
5
20
100
AcDbEntity
100
AcDbBlockBegin
2
*MODEL_SPACE
0
ENDBLK
5
21
100
AcDbEntity
100
AcDbBlockEnd
0
BLOCK
5
1C
100
AcDbEntity
100
AcDbBlockBegin
2
*PAPER_SPACE
0
ENDBLK
5
1D
100
AcDbEntity
100
AcDbBlockEnd
0
ENDSEC
0
SECTION
2
ENTITIES
0
POLYLINE
5
100
100
AcDbEntity
8
OUTER_PROFILES
100
AcDbPolyline
90
2
10
449.71051538029883
20
372.10844680035729
30
0
10
450.38237243510071
20
372.6401089038892
30
0
0
LINE
5
101
100
AcDbEntity
8
OUTER_PROFILES
100
AcDbLine
10
450.38237243510071
20
372.6401089038892
30
0
11
619.80169349841947
21
545.81453499755889
31
0
0
LINE
5
102
100
AcDbEntity
8
OUTER_PROFILES
100
AcDbLine
10
619.80169349841947
20
545.81453499755889
30
0
11
406.51929495781201
21
587.85786649339968
31
0
0
ELLIPSE
5
103
100
AcDbEntity
8
OUTER_PROFILES
100
AcDbEllipse
10
400.75952341237144
20
588.99326250395779
30
0
11
6.0187051935586808
21
0.45966328381156163
31
0.0
40
0.74549812579264318
41
0.35655354050660876
42
1.3621848065409983
0
POLYLINE
5
104
100
AcDbEntity
8
OUTER_PROFILES
100
AcDbPolyline
90
2
10
402.34125628380946
20
584.69880546601371
30
0
10
400.82977897062739
20
584.42151663572884
30
0
0
ELLIPSE
5
105
100
AcDbEntity
8
OUTER_PROFILES
100
AcDbEllipse
10
400.42031549730768
20
588.9164162009705
30
0
11
4.267837865714851
21
-1.636195459404898
31
0.0
40
0.9845253795453609
41
1.1200018507037428
42
1.5321476885520851
0
POLYLINE
5
106
100
AcDbEntity
8
OUTER_PROFILES
100
AcDbPolyline
90
2
10
398.97554754947544
20
584.65453827775059
30
0
10
398.53807304862016
20
584.82237047738374
30
0
0
ARC
5
107
100
AcDbEntity
8
OUTER_PROFILES
100
AcDbCircle
10
400.31261299111168
20
588.95770698031799
30
0
40
4.499999999999849
100
AcDbArc
50
172.21578916644239
51
246.77504433483381
0
POLYLINE
5
108
100
AcDbEntity
8
OUTER_PROFILES
100
AcDbPolyline
90
2
10
395.85407958035023
20
589.56719842826783
30
0
10
395.93952807549385
20
589.96640203865206
30
0
0
ELLIPSE
5
109
100
AcDbEntity
8
OUTER_PROFILES
100
AcDbEllipse
10
400.24798262580015
20
588.66170045204331
30
0
11
1.02259693548335
21
4.6834853437229889
31
0.0
40
0.93870798960459056
41
4.7866383626691187
42
5.751532196239169
0
POLYLINE
5
110
100
AcDbEntity
8
OUTER_PROFILES
100
AcDbPolyline
90
2
10
398.90062357300053
20
593.18536520661939
30
0
10
400.38427088114366
20
593.3861317489949
30
0
0
ELLIPSE
5
111
100
AcDbEntity
8
OUTER_PROFILES
100
AcDbEllipse
10
400.58390163854023
20
588.71823746470466
30
0
11
4.5335645327005087
21
-2.5818021864880225
31
0.0
40
0.86253583975791193
41
4.2162707773439365
42
4.6030024135217449
0
LINE
5
112
100
AcDbEntity
8
OUTER_PROFILES
100
AcDbLine
10
402.30256626788241
20
592.88707972369286
30
0
11
475.91251825460199
21
771.43749222725569
31
0
0
ELLIPSE
5
113
100
AcDbEntity
8
OUTER_PROFILES
100
AcDbEllipse
10
477.63104529427903
20
775.60600074480271
30
0
11
4.503724061838116
21
-2.5646760205354102
31
0.0
40
0.86826175025038577
41
1.4607087922256594
42
2.9019206271827911
0
POLYLINE
5
114
100
AcDbEntity
8
OUTER_PROFILES
100
AcDbPolyline
90
2
10
472.72744703232968
20
777.16909852250012
30
0
10
472.83923136594092
20
777.43976285334747
30
0
0
ELLIPSE
5
115
100
AcDbEntity
8
OUTER_PROFILES
100
AcDbEllipse
10
477.55586162684369
20
775.40497067686715
30
0
11
5.213411042309307
21
-0.41202175280683973
31
0.0
40
0.86047544241455221
41
3.5186566252308427
42
4.6074670091474115
0
POLYLINE
5
116
100
AcDbEntity
8
OUTER_PROFILES
100
AcDbPolyline
90
2
10
477.36244825409972
20
779.90946395313267
30
0
10
478.77936256609416
20
779.78874810281263
30
0
0
ARC
5
117
100
AcDbEntity
8
OUTER_PROFILES
100
AcDbCircle
10
477.88146544310916
20
775.37923784014856
30
0
40
4.5000000000006066
100
AcDbArc
50
54.758360038013144
51
78.490366412846029
0
POLYLINE
5
118
100
AcDbEntity
8
OUTER_PROFILES
100
AcDbPolyline
90
2
10
480.47808256717599
20
779.05450375039266
30
0
10
480.84102943455787
20
778.77677863124995
30
0
0
ELLIPSE
5
119
100
AcDbEntity
8
OUTER_PROFILES
100
AcDbEllipse
10
477.970832226342
20
775.31082493058591
30
0
11
3.626583952707497
21
-2.7762570275250513
31
0.0
40
0.98527698065524949
41
4.7501085470010214
42
6.1811041036604779
0
LINE
5
120
100
AcDbEntity
8
OUTER_PROFILES
100
AcDbLine
10
481.85728343782239
20
772.9131427796234
30
0
11
575.43491955950594
21
715.18195932994922
31
0
0
POLYLINE
5
121
100
AcDbEntity
8
OUTER_PROFILES
100
AcDbPolyline
90
2
10
575.43491955950594
20
715.18195932994922
30
0
10
576.1670802408172
20
714.82809416428381
30
0
0
POLYLINE
5
122
100
AcDbEntity
8
OUTER_PROFILES
100
AcDbPolyline
90
2
10
576.1670802408172
20
714.82809416428381
30
0
10
576.98436100897823
20
715.08897097615886
30
0
0
LINE
5
123
100
AcDbEntity
8
OUTER_PROFILES
100
AcDbLine
10
576.98436100897823
20
715.08897097615886
30
0
11
787.59687331595592
21
812.47274991053041
31
0
0
LINE
5
124
100
AcDbEntity
8
OUTER_PROFILES
100
AcDbLine
10
787.59687331595592
20
812.47274991053041
30
0
11
607.8565757290155
21
936.01375385810297
31
0
0
ELLIPSE
5
125
100
AcDbEntity
8
OUTER_PROFILES
100
AcDbEllipse
10
603.60885040310802
20
938.93334539267494
30
0
11
5.3490563252213361
21
-0.65065872516750245
31
0.0
40
0.8351142842820346
41
0.5586835131996758
42
1.4593095424661235
0
POLYLINE
5
126
100
AcDbEntity
8
OUTER_PROFILES
100
AcDbPolyline
90
2
10
603.66396388295129
20
934.42161493736967
30
0
10
602.12743810403299
20
934.62078283912376
30
0
0
ARC
5
127
100
AcDbEntity
8
OUTER_PROFILES
100
AcDbCircle
10
603.26108343640328
20
938.9756477348925
30
0
40
4.5000000000004166
100
AcDbArc
50
234.75836003802638
51
255.40877281534233
0
POLYLINE
5
128
100
AcDbEntity
8
OUTER_PROFILES
100
AcDbPolyline
90
2
10
600.66446631233725
20
935.30038182464773
30
0
10
600.30151944495719
20
935.57810694379009
30
0
0
ELLIPSE
5
129
100
AcDbEntity
8
OUTER_PROFILES
100
AcDbEllipse
10
603.17171665317164
20
939.04406064445425
30
0
11
3.6265839527074686
21
-2.776257027525086
31
0.0
40
0.98527698065524927
41
1.6085158934109833
42
2.9592605245490664
0
POLYLINE
5
130
100
AcDbEntity
8
OUTER_PROFILES
100
AcDbPolyline
90
2
10
599.10925961865314
20
941.12639365570885
30
0
10
599.22310826470391
20
941.31776909539872
30
0
0
ELLIPSE
5
131
100
AcDbEntity
8
OUTER_PROFILES
100
AcDbEllipse
10
603.09161054165861
20
938.90279428333974
30
0
11
4.4799427593147616
21
1.1741862456789425
31
0.0
40
0.97165711249303055
41
3.9703347573649648
42
5.0743607398043702
0
POLYLINE
5
132
100
AcDbEntity
8
OUTER_PROFILES
100
AcDbPolyline
90
2
10
603.61106684842571
20
943.38949350292387
30
0
10
604.99228073830329
20
943.05124296908525
30
0
0
ELLIPSE
5
133
100
AcDbEntity
8
OUTER_PROFILES
100
AcDbEllipse
10
603.4091129595397
20
938.82616374966256
30
0
11
4.0021060101385766
21
-2.6067187663254692
31
0.0
40
0.94217678829160578
41
4.5058732387725327
42
4.9333160358603898
0
LINE
5
134
100
AcDbEntity
8
OUTER_PROFILES
100
AcDbLine
10
606.68240780976237
20
941.93398608669838
30
0
11
749.62023693337642
21
1077.6459822509087
31
0
0
ELLIPSE
5
135
100
AcDbEntity
8
OUTER_PROFILES
100
AcDbEllipse
10
752.88433947488306
20
1080.7450769713798
30
0
11
-2.8084469492059823
21
-3.5173209908414336
31
0.0
40
0.99977979574097187
41
0.13755145376493896
42
1.5661335440489992
0
POLYLINE
5
136
100
AcDbEntity
8
OUTER_PROFILES
100
AcDbPolyline
90
2
10
749.35473611008194
20
1083.5364745212005
30
0
10
749.36992592080992
20
1083.5554983247775
30
0
0
ARC
5
137
100
AcDbEntity
8
OUTER_PROFILES
100
AcDbCircle
10
752.87333900772092
20
1080.7312999000101
30
0
40
4.4999999999997771
100
AcDbArc
50
56.85547145418964
51
141.12674974664193
0
POLYLINE
5
138
100
AcDbEntity
8
OUTER_PROFILES
100
AcDbPolyline
90
2
10
755.3337268131977
20
1084.4991231239235
30
0
10
756.42265156506937
20
1083.5931569567333
30
0
0
ELLIPSE
5
139
100
AcDbEntity
8
OUTER_PROFILES
100
AcDbEllipse
10
753.12234080337305
20
1080.5215706420461
30
0
11
3.9949811646132485
21
-3.364893144790519
31
0.0
40
0.86153194200849559
41
4.8170104900917572
42
4.878647569659714
0
POLYLINE
5
140
100
AcDbEntity
8
OUTER_PROFILES
100
AcDbPolyline
90
2
10
756.64247368729332
20
1083.3590463622847
30
0
10
756.89916467294029
20
1083.0506607635971
30
0
0
ELLIPSE
5
141
100
AcDbEntity
8
OUTER_PROFILES
100
AcDbEllipse
10
753.18178083716066
20
1080.4425709068901
30
0
11
4.2582602284919613
21
-3.9198445055045905
31
0.0
40
0.77750524366978457
41
4.8805421554318116
42
6.3873780163171503
0
LINE
5
142
100
AcDbEntity
8
OUTER_PROFILES
100
AcDbLine
10
757.09997403647992
20
1076.1996448641057
30
0
11
830.87573924810556
21
996.3094762024599
31
0
0
POLYLINE
5
143
100
AcDbEntity
8
OUTER_PROFILES
100
AcDbPolyline
90
2
10
830.87573924810556
20
996.3094762024599
30
0
10
831.48570399742971
20
995.77168179628359
30
0
0
POLYLINE
5
144
100
AcDbEntity
8
OUTER_PROFILES
100
AcDbPolyline
90
2
10
831.48570399742971
20
995.77168179628359
30
0
10
832.34303690609886
20
995.80306409542709
30
0
0
LINE
5
145
100
AcDbEntity
8
OUTER_PROFILES
100
AcDbLine
10
832.34303690609886
20
995.80306409542709
30
0
11
1061.3899501047729
21
1032.9344833243524
31
0
0
LINE
5
146
100
AcDbEntity
8
OUTER_PROFILES
100
AcDbLine
10
1061.3899501047729
20
1032.9344833243524
30
0
11
921.36450698963756
21
1200.4547974767802
31
0
0
ELLIPSE
5
147
100
AcDbEntity
8
OUTER_PROFILES
100
AcDbEllipse
10
917.81932710473234
20
1204.2570318188552
30
0
11
-4.9767913031206454
21
2.0657465169303042
31
0.0
40
0.83511428428203471
41
3.6403847640155171
42
4.5317889369978763
0
POLYLINE
5
148
100
AcDbEntity
8
OUTER_PROFILES
100
AcDbPolyline
90
2
10
917.01618081818992
20
1199.7973890408607
30
0
10
915.56079586208489
20
1200.3325011992474
30
0
0
ARC
5
149
100
AcDbEntity
8
OUTER_PROFILES
100
AcDbCircle
10
917.55186236369582
20
1204.3680500077937
30
0
40
4.4999999999997637
100
AcDbArc
50
221.44961579943276
51
243.73910520711749
0
POLYLINE
5
150
100
AcDbEntity
8
OUTER_PROFILES
100
AcDbPolyline
90
2
10
914.17894082616397
20
1201.3892246853461
30
0
10
913.92719434744265
20
1201.701330570668
30
0
0
ELLIPSE
5
151
100
AcDbEntity
8
OUTER_PROFILES
100
AcDbEllipse
10
917.491034578376
20
1204.4488941564966
30
0
11
2.7365370388386401
21
-3.637038668038457
31
0.0
40
0.98867233062441873
41
1.5591912072559253
42
3.0590725952676121
0
LINE
5
152
100
AcDbEntity
8
OUTER_PROFILES
100
AcDbLine
10
914.46741732603584
20
1207.8505486414233
30
0
11
885.67969524379862
21
1237.054034515231
31
0
0
POLYLINE
5
153
100
AcDbEntity
8
OUTER_PROFILES
100
AcDbPolyline
90
2
10
885.67969524379862
20
1237.054034515231
30
0
10
885.18660091316201
20
1237.5311319426837
30
0
0
POLYLINE
5
154
100
AcDbEntity
8
OUTER_PROFILES
100
AcDbPolyline
90
2
10
885.18660091316201
20
1237.5311319426837
30
0
10
884.03631740743526
20
1237.3017243170418
30
0
0
LINE
5
155
100
AcDbEntity
8
OUTER_PROFILES
100
AcDbLine
10
884.03631740743526
20
1237.3017243170418
30
0
11
660.54815168222092
21
1159.3598369044707
31
0
0
ELLIPSE
5
156
100
AcDbEntity
8
OUTER_PROFILES
100
AcDbEllipse
10
656.26787792525818
20
1157.8670839697565
30
0
11
3.4032720205692546
21
-3.182952383364265
31
0.0
40
0.96571312530821485
41
5.1814517777452798
42
6.1976028756159698
0
POLYLINE
5
157
100
AcDbEntity
8
OUTER_PROFILES
100
AcDbPolyline
90
2
10
659.9214380517277
20
1154.9767116632804
30
0
10
659.90634045762192
20
1154.9576142282397
30
0
0
ELLIPSE
5
158
100
AcDbEntity
8
OUTER_PROFILES
100
AcDbEllipse
10
656.27887839242021
20
1157.8808610411265
30
0
11
3.6405967891857829
21
-2.9068779825598363
31
0.0
40
0.96592582628906831
41
0.004663809743701855
42
1.028410456722662
0
POLYLINE
5
159
100
AcDbEntity
8
OUTER_PROFILES
100
AcDbPolyline
90
2
10
655.75323716003663
20
1153.3685358896405
30
0
10
654.36987758793919
20
1153.6978962427509
30
0
0
ELLIPSE
5
160
100
AcDbEntity
8
OUTER_PROFILES
100
AcDbEllipse
10
655.9613759745406
20
1157.957491574803
30
0
11
-4.6974045474677677
21
-0.58505862598316383
31
0.0
40
0.95063085247108947
41
5.1733892254329774
42
5.6044172754964761
0
LINE
5
161
100
AcDbEntity
8
OUTER_PROFILES
100
AcDbLine
10
652.65435203528205
20
1154.6985191111187
30
0
11
498.5127999684729
21
1002.7966632667155
31
0
0
ELLIPSE
5
162
100
AcDbEntity
8
OUTER_PROFILES
100
AcDbEllipse
10
496.06751454220984
20
999.01780619852366
30
0
11
2.4855609445176858
21
-3.7588990510894398
31
0.0
40
0.99858731312071503
41
4.3006839585384613
42
5.6576415283491501
0
POLYLINE
5
163
100
AcDbEntity
8
OUTER_PROFILES
100
AcDbPolyline
90
2
10
500.28029126805507
20
997.42400889113173
30
0
10
500.20661563169699
20
997.20985305582076
30
0
0
ELLIPSE
5
164
100
AcDbEntity
8
OUTER_PROFILES
100
AcDbEllipse
10
496.14020404585983
20
999.15527425646565
30
0
11
-3.2536150770097096
21
-3.2080889302233762
31
0.0
40
0.98484905489570973
41
4.3710188252774254
42
5.5673406138471631
0
POLYLINE
5
165
100
AcDbEntity
8
OUTER_PROFILES
100
AcDbPolyline
90
2
10
495.75865076799789
20
994.631794615128
30
0
10
494.35293707710264
20
994.89423463731578
30
0
0
ELLIPSE
5
166
100
AcDbEntity
8
OUTER_PROFILES
100
AcDbEllipse
10
495.86137590136678
20
999.13499601496005
30
0
11
4.5927212658714822
21
-1.901771321927884
31
0.0
40
0.90526910367720792
41
1.5247611507660384
42
1.991577355708549
0
LINE
5
167
100
AcDbEntity
8
OUTER_PROFILES
100
AcDbLine
10
492.41393238990207
20
996.11684140294858
30
0
11
364.44773050909771
21
822.35082681942595
31
0
0
ELLIPSE
5
168
100
AcDbEntity
8
OUTER_PROFILES
100
AcDbEllipse
10
362.79248779986352
20
818.1435824983015
30
0
11
1.5837390413075527
21
4.2346852438446074
31
0.0
40
0.99532220230183233
41
0.017019837900759938
42
1.4768526395223041
0
POLYLINE
5
169
100
AcDbEntity
8
OUTER_PROFILES
100
AcDbPolyline
90
2
10
367.13734223605661
20
816.97143968772355
30
0
10
367.05291459335274
20
816.69054416921108
30
0
0
ELLIPSE
5
170
100
AcDbEntity
8
OUTER_PROFILES
100
AcDbEllipse
10
362.86413660405628
20
818.33516086186989
30
0
11
1.6774960190144896
21
4.4853776114931936
31
0.0
40
0.93969262078590843
41
1.5860620188102739
42
2.6629579141965181
0
POLYLINE
5
171
100
AcDbEntity
8
OUTER_PROFILES
100
AcDbPolyline
90
2
10
363.31638610025863
20
813.62782252352122
30
0
10
361.79630133659907
20
813.64355192799735
30
0
0
ELLIPSE
5
172
100
AcDbEntity
8
OUTER_PROFILES
100
AcDbEllipse
10
362.6095172547499
20
818.12733970197974
30
0
11
4.3897676175226321
21
-2.5517691398839788
31
0.0
40
0.8862529688762808
41
1.2605166275118576
42
1.8023146270210086
0
LINE
5
173
100
AcDbEntity
8
OUTER_PROFILES
100
AcDbLine
10
359.40108673565385
20
814.92621320994033
30
0
11
257.28360833288554
21
624.32059033608039
31
0
0
ELLIPSE
5
174
100
AcDbEntity
8
OUTER_PROFILES
100
AcDbEllipse
10
255.15211072635742
20
620.34208014075409
30
0
11
-1.7309367463385792
21
4.1903801770756903
31
0.0
40
0.99254281823170432
41
0.88723291993986231
42
2.0952813638978922
0
POLYLINE
5
175
100
AcDbEntity
8
OUTER_PROFILES
100
AcDbPolyline
90
2
10
259.61897659667352
20
619.73076937514259
30
0
10
259.5290161065044
20
619.33255091832439
30
0
0
ELLIPSE
5
176
100
AcDbEntity
8
OUTER_PROFILES
100
AcDbEllipse
10
255.21674109166884
20
620.63808666902821
30
0
11
2.1838412680418378
21
4.113530448080037
31
0.0
40
0.96622835930818718
41
1.3831170429201725
42
2.1606210081601938
0
POLYLINE
5
177
100
AcDbEntity
8
OUTER_PROFILES
100
AcDbPolyline
90
2
10
257.30510766998577
20
616.59651307052297
30
0
10
255.54828902727201
20
616.04663224529509
30
0
0
ELLIPSE
5
178
100
AcDbEntity
8
OUTER_PROFILES
100
AcDbEllipse
10
254.83799915982121
20
620.51350832766173
30
0
11
5.2120622959942828
21
-0.22279708438282697
31
0.0
40
0.86259412120131562
41
1.3973301497085953
42
1.8804666078890777
0
LINE
5
179
100
AcDbEntity
8
OUTER_PROFILES
100
AcDbLine
10
253.06660915259653
20
616.29936149482478
30
0
11
169.31722876947794
21
417.05911250729548
31
0
0
ELLIPSE
5
180
100
AcDbEntity
8
OUTER_PROFILES
100
AcDbEllipse
10
167.5700769405309
20
412.90262843749122
30
0
11
-3.4012949520628903
21
3.0706640409027153
31
0.0
40
0.98203229786990487
41
1.2399705465980195
42
2.3408963323778109
0
POLYLINE
5
181
100
AcDbEntity
8
OUTER_PROFILES
100
AcDbPolyline
90
2
10
172.1027258090925
20
413.16252993348854
30
0
10
172.02004422696589
20
412.45866411987799
30
0
0
ELLIPSE
5
182
100
AcDbEntity
8
OUTER_PROFILES
100
AcDbEllipse
10
167.61531383571162
20
413.45306809166823
30
0
11
1.9723767945731738
21
4.7798106702594803
31
0.0
40
0.87027660855414291
41
1.4230950561853077
42
1.8605564586775327
0
POLYLINE
5
183
100
AcDbEntity
8
OUTER_PROFILES
100
AcDbPolyline
90
3
10
171.03810895133273
20
410.44241315339775
30
0
10
170.20588676377594
20
409.65672610609664
30
0
10
169.22811194672602
20
409.06297104172666
30
0
0
ELLIPSE
5
184
100
AcDbEntity
8
OUTER_PROFILES
100
AcDbEllipse
10
167.25490396905093
20
413.18022907656052
30
0
11
5.0381574539862015
21
0.32777597867413771
31
0.0
40
0.89129939643804057
41
1.227004865067749
42
2.0039613604158717
0
LINE
5
185
100
AcDbEntity
8
OUTER_PROFILES
100
AcDbLine
10
165.40532386193064
20
408.96687501332417
30
0
11
80.292719083052916
21
215.07987450050962
31
0
0
ELLIPSE
5
186
100
AcDbEntity
8
OUTER_PROFILES
100
AcDbEllipse
10
78.696987065064093
20
210.86167902616464
30
0
11
-4.5724213186335501
21
-0.089536117150537956
31
0.0
40
0.98397264411267127
41
1.9464865187609623
42
3.0722571030905415
0
POLYLINE
5
187
100
AcDbEntity
8
OUTER_PROFILES
100
AcDbPolyline
90
2
10
83.252318370168936
20
211.26270029993549
30
0
10
83.219103897562476
20
210.71339836360605
30
0
0
ELLIPSE
5
188
100
AcDbEntity
8
OUTER_PROFILES
100
AcDbEllipse
10
78.703274226030516
20
211.25864012411927
30
0
11
2.1097977812813169
21
4.7255959477645471
31
0.0
40
0.86953471772020907
41
1.3082595955392144
42
1.8390772409681302
0
POLYLINE
5
189
100
AcDbEntity
8
OUTER_PROFILES
100
AcDbPolyline
90
2
10
82.106101307405709
20
208.23708919854209
30
0
10
80.69134376043813
20
207.04299437501359
30
0
0
ELLIPSE
5
190
100
AcDbEntity
8
OUTER_PROFILES
100
AcDbEllipse
10
78.394613936294419
20
211.00152370834078
30
0
11
-4.708899444398841
21
0.48158359543394091
31
0.0
40
0.95067850534941634
41
4.1085852747898883
42
5.0006183772352486
0
LINE
5
191
100
AcDbEntity
8
OUTER_PROFILES
100
AcDbLine
10
76.617140182544659
20
206.84643451525372
30
0
11
0
21
0
31
0
0
LINE
5
192
100
AcDbEntity
8
OUTER_PROFILES
100
AcDbLine
10
0
20
0
30
0
11
250.98843645361512
21
8.7871361410121246e-14
31
0
0
POLYLINE
5
193
100
AcDbEntity
8
OUTER_PROFILES
100
AcDbPolyline
90
2
10
250.98843645361512
20
8.7871361410121246e-14
30
0
10
252.07313495138575
20
0.15696680476281027
30
0
0
POLYLINE
5
194
100
AcDbEntity
8
OUTER_PROFILES
100
AcDbPolyline
90
2
10
252.07313495138575
20
0.15696680476281027
30
0
10
252.54056641511625
20
1.0270808387328876
30
0
0
LINE
5
195
100
AcDbEntity
8
OUTER_PROFILES
100
AcDbLine
10
252.54056641511625
20
1.0270808387328876
30
0
11
328.39667158524048
21
194.07243773627914
31
0
0
ELLIPSE
5
196
100
AcDbEntity
8
OUTER_PROFILES
100
AcDbEllipse
10
330.12724895093766
20
198.47656479303436
30
0
11
5.502430911495475
21
0.96982047049935016
31
0.0
40
0.80540600051457933
41
2.0284644650555621
42
3.3133907710300372
0
POLYLINE
5
197
100
AcDbEntity
8
OUTER_PROFILES
100
AcDbPolyline
90
2
10
324.57228727337969
20
198.27863757054922
30
0
10
324.84915895324298
20
198.81538604044243
30
0
0
ELLIPSE
5
198
100
AcDbEntity
8
OUTER_PROFILES
100
AcDbEllipse
10
330.1058094494831
20
198.06043359339225
30
0
11
5.4708439383655341
21
4.1415616219971314
31
0.0
40
0.65581597334177755
41
4.1367196467898939
42
4.579105787813436
0
POLYLINE
5
199
100
AcDbEntity
8
OUTER_PROFILES
100
AcDbPolyline
90
2
10
326.68678188758383
20
201.06611173780493
30
0
10
328.53347696312278
20
202.39707710636333
30
0
0
ARC
5
200
100
AcDbEntity
8
OUTER_PROFILES
100
AcDbCircle
10
330.46621931614936
20
198.33327260850425
30
0
40
4.5000000000002638
100
AcDbArc
50
98.222370692002357
51
115.43572525885162
0
POLYLINE
5
201
100
AcDbEntity
8
OUTER_PROFILES
100
AcDbPolyline
90
2
10
329.82265013645991
20
202.78701471048475
30
0
10
331.31894762420052
20
202.81967170050444
30
0
0
ELLIPSE
5
202
100
AcDbEntity
8
OUTER_PROFILES
100
AcDbEllipse
10
330.80686758388623
20
198.33828558050001
30
0
11
5.3195092840856253
21
0.078281775065362491
31
0.0
40
0.84585110747899972
41
4.8212421990800856
42
6.2211227294656188
0
LINE
5
203
100
AcDbEntity
8
OUTER_PROFILES
100
AcDbLine
10
336.11202859093709
20
198.69548877267331
30
0
11
448.46580359738931
21
206.2604103710359
31
0
0
LINE
5
204
100
AcDbEntity
8
OUTER_PROFILES
100
AcDbLine
10
448.46580359738931
20
206.2604103710359
30
0
11
330.34452500169357
21
396.28094041892751
31
0
0
ELLIPSE
5
205
100
AcDbEntity
8
OUTER_PROFILES
100
AcDbEllipse
10
327.45920148325092
20
399.73419009558233
30
0
11
3.8869591645219743
21
3.2315933336610607
31
0.0
40
0.89023171889255936
41
1.5686189289154542
42
1.9937550494335976
0
POLYLINE
5
206
100
AcDbEntity
8
OUTER_PROFILES
100
AcDbPolyline
90
2
10
328.48711233622174
20
395.25238152139485
30
0
10
326.99243361943059
20
395.10972361292028
30
0
0
ELLIPSE
5
207
100
AcDbEntity
8
OUTER_PROFILES
100
AcDbEllipse
10
327.13877408607107
20
399.79165016172374
30
0
11
-2.5525894093042565
21
4.0372651244551978
31
0.0
40
0.94210684818897583
41
3.7646177050000706
42
5.3124880017601877
0
POLYLINE
5
208
100
AcDbEntity
8
OUTER_PROFILES
100
AcDbPolyline
90
2
10
322.55828476182649
20
400.08694897163684
30
0
10
322.76775698733445
20
400.78039472375457
30
0
0
ELLIPSE
5
209
100
AcDbEntity
8
OUTER_PROFILES
100
AcDbEllipse
10
327.02426408747954
20
399.23696123616651
30
0
11
2.9179440327111483
21
3.8898856208409742
31
0.0
40
0.92541657839832292
41
4.4375833111714709
42
5.2536296328013545
0
POLYLINE
5
210
100
AcDbEntity
8
OUTER_PROFILES
100
AcDbPolyline
90
2
10
325.44233717087275
20
403.55538755437607
30
0
10
327.24528897689362
20
403.96501475931348
30
0
0
ELLIPSE
5
211
100
AcDbEntity
8
OUTER_PROFILES
100
AcDbEllipse
10
327.36741738561636
20
399.44062701103343
30
0
11
4.8042494238389715
21
-1.1526846267948883
31
0.0
40
0.91082118216702879
41
4.4724005106906892
42
4.8502788989580603
0
POLYLINE
5
212
100
AcDbEntity
8
OUTER_PROFILES
100
AcDbPolyline
90
2
10
329.06770192861256
20
403.61646460165252
30
0
10
329.5026919819523
20
403.44215199093367
30
0
0
ELLIPSE
5
213
100
AcDbEntity
8
OUTER_PROFILES
100
AcDbEllipse
10
327.44785363077659
20
399.40649466510655
30
0
11
5.2557306437658271
21
-1.4591674233963059
31
0.0
40
0.8250026612694904
41
4.878212352776707
42
6.1075550282822206
0
LINE
5
214
100
AcDbEntity
8
OUTER_PROFILES
100
AcDbLine
10
332.83307474999907
20
398.72739663290542
30
0
11
448.90672615324382
21
372.20465801560459
31
0
0
POLYLINE
5
215
100
AcDbEntity
8
OUTER_PROFILES
100
AcDbPolyline
90
2
10
448.90672615324382
20
372.20465801560459
30
0
10
449.71051538029883
20
372.10844680035729
30
0
0
LINE
5
216
100
AcDbEntity
8
BEND
100
AcDbLine
10
326.31887928524782
20
403.83600463353724
30
3.3999977280732562e-11
11
256.44930145260798
21
616.25285490825479
31
8.0837833552430916e-11
0
LINE
5
217
100
AcDbEntity
8
BEND
100
AcDbLine
10
322.60248067803684
20
400.43864723574865
30
3.2994296404957506e-11
11
172.11443764914992
21
412.80623699131263
31
1.460409839676606e-11
0
LINE
5
218
100
AcDbEntity
8
BEND
100
AcDbLine
10
327.74063520215566
20
395.12246153323213
30
3.2443197821019885e-11
11
330.57032956781705
21
202.83523456548039
31
2.9126802209407644e-12
0
LINE
5
219
100
AcDbEntity
8
BEND
100
AcDbLine
10
398.75558830626738
20
584.73526694502834
30
9.9448273602865381e-11
11
329.28593686545855
21
403.53123827149608
31
3.5038796109601863e-11
0
LINE
5
220
100
AcDbEntity
8
BEND
100
AcDbLine
10
478.07319482343047
20
779.87807452945276
30
1.73277437263523e-10
11
495.05269800499144
21
994.72384123178927
31
2.346086813026966e-10
0
LINE
5
221
100
AcDbEntity
8
BEND
100
AcDbLine
10
472.7674266412821
20
777.31038185965588
30
1.7093960630809691e-10
11
367.10154344747662
21
816.82859275656426
31
1.5426378218022057e-10
0
LINE
5
222
100
AcDbEntity
8
BEND
100
AcDbLine
10
401.59058403530219
20
584.53779737615582
30
9.9850971015415009e-11
11
449.71490171185536
21
372.11184026104604
31
4.7573201727227497e-11
0
LINE
5
223
100
AcDbEntity
8
BEND
100
AcDbLine
10
599.16122783283345
20
941.22489176693591
30
2.5032026288702918e-10
11
500.24749950070202
21
997.31463663109992
31
2.367734296958406e-10
0
LINE
5
224
100
AcDbEntity
8
BEND
100
AcDbLine
10
399.63218591788927
20
593.3467168363162
30
1.0145676193972413e-10
11
362.5663657119224
21
813.57614077994185
31
1.5257886420598503e-10
0
LINE
5
225
100
AcDbEntity
8
BEND
100
AcDbLine
10
395.88387597063877
20
589.76962291491884
30
1.0023998566151957e-10
11
259.58937783436079
21
619.52830173820007
31
8.179969942313732e-11
0
LINE
5
226
100
AcDbEntity
8
BEND
100
AcDbLine
10
600.48101793107685
20
935.43666453775108
30
2.4916195701960693e-10
11
480.6615309484381
21
778.91822103728964
31
1.7381951401335032e-10
0
LINE
5
227
100
AcDbEntity
8
BEND
100
AcDbLine
10
604.31087130913193
20
943.25847619838464
30
2.5256007066587518e-10
11
655.05605488100002
21
1153.510417649632
31
3.3842390423498323e-10
0
LINE
5
228
100
AcDbEntity
8
BEND
100
AcDbLine
10
602.89160107397697
20
934.48749350696767
30
2.4892560121223756e-10
11
576.17245250100211
21
714.82974490017023
31
1.8190340412815332e-10
0
LINE
5
229
100
AcDbEntity
8
BEND
100
AcDbLine
10
749.36229277952202
20
1083.5460169529201
30
3.4680743877087732e-10
11
659.91395189309276
21
1154.9671129313811
31
3.4049363300031795e-10
0
LINE
5
230
100
AcDbEntity
8
BEND
100
AcDbLine
10
755.89677638596311
20
1084.0682077548267
30
3.6276093444913755e-10
11
885.14973636448849
21
1237.5242369750176
31
4.7998469089576251e-10
0
LINE
5
231
100
AcDbEntity
8
BEND
100
AcDbLine
10
756.7717786979955
20
1083.2055755118824
30
3.4990276885227432e-10
11
914.05104552044179
21
1201.5437562090738
31
4.7282647119822034e-10
0
LINE
5
232
100
AcDbEntity
8
BEND
100
AcDbLine
10
831.4913222900916
20
995.77182635101076
30
3.3160835562717461e-10
11
916.27604367819549
21
1200.0349634718066
31
4.7319715338510803e-10
0
LINE
5
233
100
AcDbEntity
8
BEND
100
AcDbLine
10
324.6485635828484
20
198.55021431119872
30
1.8078523123254842e-12
11
83.269539717948575
21
210.98630644880632
31
-8.0637196184879888e-14
0
LINE
5
234
100
AcDbEntity
8
BEND
100
AcDbLine
10
327.57036487711156
20
201.78412186404267
30
1.4581992841820669e-12
11
170.20919891675365
21
409.65218215219858
31
1.4347901325542043e-11
0
LINE
5
235
100
AcDbEntity
8
BEND
100
AcDbLine
10
252.0596094346138
20
0.15475539802725452
30
-1.2747464900569545e-13
11
81.449226428915011
21
207.578640400078
31
-1.7917901936599029e-13
0
LINE
5
236
100
AcDbEntity
8
BEND_EXTENT
100
AcDbLine
10
331.31894762420308
20
202.81967170050456
30
2.6950748764502243e-12
11
328.48711233622174
21
395.25238152139508
31
3.2966019095769717e-11
0
LINE
5
237
100
AcDbEntity
8
BEND_EXTENT
100
AcDbLine
10
326.99243361943246
20
395.10972361291982
30
3.2610936378122555e-11
11
329.82265013645991
21
202.7870147104847
31
2.4821017484287235e-12
0
LINE
5
238
100
AcDbEntity
8
BEND_EXTENT
100
AcDbLine
10
328.53347696312147
20
202.39707710636227
30
2.1269910622192915e-12
11
171.03810895133276
21
410.44241315339764
31
1.4014630331750957e-11
0
LINE
5
239
100
AcDbEntity
8
BEND_EXTENT
100
AcDbLine
10
172.02004422696581
20
412.45866411987805
30
1.4440846667008501e-11
11
322.55828476182643
21
400.08694897163684
31
3.2824699944415681e-11
0
LINE
5
240
100
AcDbEntity
8
BEND_EXTENT
100
AcDbLine
10
322.76775698733451
20
400.78039472375423
30
3.3322058545234026e-11
11
172.10272580909248
21
413.16252993348854
31
1.4796112894864858e-11
0
LINE
5
241
100
AcDbEntity
8
BEND_EXTENT
100
AcDbLine
10
255.54828902726828
20
616.04663224529349
30
7.9943832842151922e-11
11
325.4423371708728
21
403.55538755437573
31
3.4458608523752315e-11
0
LINE
5
242
100
AcDbEntity
8
BEND_EXTENT
100
AcDbLine
10
327.24528897689038
20
403.96501475931183
30
3.4806715246406737e-11
11
257.30510766998566
21
616.59651307052309
31
8.0487345740495946e-11
0
LINE
5
243
100
AcDbEntity
8
BEND_EXTENT
100
AcDbLine
10
576.98436100897845
20
715.08897097615909
30
1.818844292450107e-10
11
603.66396388295141
21
934.42161493736967
31
2.49757306227868e-10
0
LINE
5
244
100
AcDbEntity
8
BEND_EXTENT
100
AcDbLine
10
602.12743810403458
20
934.6207828391241
30
2.4929565001287317e-10
11
575.43491955950594
21
715.18195932994922
31
1.8144053743002622e-10
0
LINE
5
245
100
AcDbEntity
8
BEND_EXTENT
100
AcDbLine
10
480.84102943455764
20
778.77677863124995
30
1.7385022186723253e-10
11
600.66446631233725
21
935.3003818246475
31
2.4915373234751923e-10
0
LINE
5
246
100
AcDbEntity
8
BEND_EXTENT
100
AcDbLine
10
600.30151944495663
20
935.57810694378986
30
2.4915378053346408e-10
11
480.47808256717593
21
779.05450375039266
31
1.7385027005317744e-10
0
LINE
5
247
100
AcDbEntity
8
BEND_EXTENT
100
AcDbLine
10
478.77936256609388
20
779.78874810281218
30
1.735662741825271e-10
11
495.75865076799795
21
994.631794615128
31
2.3474348308560449e-10
0
LINE
5
248
100
AcDbEntity
8
BEND_EXTENT
100
AcDbLine
10
500.20661563169676
20
997.20985305582053
30
2.3659034918657133e-10
11
599.10925961865325
21
941.12639365570885
31
2.5029084247342636e-10
0
LINE
5
249
100
AcDbEntity
8
BEND_EXTENT
100
AcDbLine
10
599.22310826470391
20
941.31776909539838
30
2.5050399229827279e-10
11
500.28029126805507
21
997.42400889113185
31
2.3673245001076914e-10
0
LINE
5
250
100
AcDbEntity
8
BEND_EXTENT
100
AcDbLine
10
654.36987758793862
20
1153.6978962427509
30
3.3817958149477043e-10
11
603.61106684842571
21
943.38949350292387
31
2.5249297071099334e-10
0
LINE
5
251
100
AcDbEntity
8
BEND_EXTENT
100
AcDbLine
10
604.99228073830261
20
943.05124296908446
30
2.5291911844634926e-10
11
655.75323716003686
21
1153.3685358896405
31
3.3860572902539625e-10
0
LINE
5
252
100
AcDbEntity
8
BEND_EXTENT
100
AcDbLine
10
659.90634045762204
20
1154.9576142282399
30
3.4052367930485322e-10
11
749.35473611008194
21
1083.5364745212005
31
3.4669350301961734e-10
0
LINE
5
253
100
AcDbEntity
8
BEND_EXTENT
100
AcDbLine
10
749.36992592080992
20
1083.5554983247775
30
3.468356097833129e-10
11
659.92143805172782
21
1154.9767116632802
31
3.4066578608081504e-10
0
LINE
5
254
100
AcDbEntity
8
BEND_EXTENT
100
AcDbLine
10
884.03631740743549
20
1237.3017243170418
30
4.7898063381519899e-10
11
755.33372681319793
21
1084.4991231239235
31
3.4996124795098386e-10
0
LINE
5
255
100
AcDbEntity
8
BEND_EXTENT
100
AcDbLine
10
756.42265156506767
20
1083.5931569567344
30
3.500321571021854e-10
11
885.67969524379862
21
1237.054034515231
31
4.7954885750747471e-10
0
LINE
5
256
100
AcDbEntity
8
BEND_EXTENT
100
AcDbLine
10
913.92719434744265
20
1201.701330570668
30
4.7300800958347954e-10
11
756.64247368729343
21
1083.359046362285
31
3.5003212741646758e-10
0
LINE
5
257
100
AcDbEntity
8
BEND_EXTENT
100
AcDbLine
10
756.89916467294074
20
1083.0506607635971
30
3.4988998393828422e-10
11
914.17894082616442
21
1201.3892246853466
31
4.7286586670464856e-10
0
LINE
5
258
100
AcDbEntity
8
BEND_EXTENT
100
AcDbLine
10
915.56079586208421
20
1200.3325011992476
30
4.7272357470322259e-10
11
830.87573924810556
21
996.3094762024599
31
3.3204531062096743e-10
0
LINE
5
259
100
AcDbEntity
8
BEND_EXTENT
100
AcDbLine
10
832.34303690609886
20
995.80306409542777
30
3.3216946548655947e-10
11
917.01618081818992
21
1199.7973890408607
31
4.7288325799943481e-10
0
LINE
5
260
100
AcDbEntity
8
BEND_EXTENT
100
AcDbLine
10
494.35293707710196
20
994.89423463731555
30
2.3417522933628647e-10
11
477.3624482540996
21
779.90946395313244
31
1.7306907505023627e-10
0
LINE
5
261
100
AcDbEntity
8
BEND_EXTENT
100
AcDbLine
10
472.8392313659408
20
777.43976285334747
30
1.7122221932630086e-10
11
367.13734223605672
21
816.97143968772343
31
1.5460923798360599e-10
0
LINE
5
262
100
AcDbEntity
8
BEND_EXTENT
100
AcDbLine
10
367.05291459335274
20
816.69054416921108
30
1.5421844805894504e-10
11
472.72744703232974
21
777.16909852250046
31
1.7090248722574402e-10
0
LINE
5
263
100
AcDbEntity
8
BEND_EXTENT
100
AcDbLine
10
400.38427088114054
20
593.38613174899342
30
1.0212973531881638e-10
11
363.31638610025863
21
813.62782252352099
31
1.5237148795992883e-10
0
LINE
5
264
100
AcDbEntity
8
BEND_EXTENT
100
AcDbLine
10
361.79630133659685
20
813.64355192799678
30
1.5219404535643809e-10
11
398.90062357300053
21
593.18536520661928
31
1.0181017789547887e-10
0
LINE
5
265
100
AcDbEntity
8
BEND_EXTENT
100
AcDbLine
10
395.93952807549374
20
589.96640203865206
30
1.0038944381501358e-10
11
259.61897659667335
21
619.7307693751427
31
8.1861809524611793e-11
0
LINE
5
266
100
AcDbEntity
8
BEND_EXTENT
100
AcDbLine
10
259.52901610650429
20
619.3325509183237
30
8.171277047320894e-11
11
395.85407958035006
21
589.56719842826783
31
1.0016934990978257e-10
0
LINE
5
267
100
AcDbEntity
8
BEND_EXTENT
100
AcDbLine
10
398.53807304861988
20
584.82237047738363
30
9.9369612520888722e-11
11
329.06770192861245
21
403.61646460165224
31
3.5081816565885894e-11
0
LINE
5
268
100
AcDbEntity
8
BEND_EXTENT
100
AcDbLine
10
329.50269198195201
20
403.44215199093327
30
3.5133107836465769e-11
11
398.97554754947532
21
584.65453827775048
31
9.9429785309596654e-11
0
LINE
5
269
100
AcDbEntity
8
BEND_EXTENT
100
AcDbLine
10
400.82977897062744
20
584.42151663572906
30
9.9660474548073521e-11
11
448.90672615324405
21
372.20465801560476
31
4.739233867104464e-11
0
LINE
5
270
100
AcDbEntity
8
BEND_EXTENT
100
AcDbLine
10
450.38237243510093
20
372.64010890388977
30
4.7942825284849622e-11
11
402.34125628380946
21
584.6988054660136
31
1.0010437399965627e-10
0
LINE
5
271
100
AcDbEntity
8
BEND_EXTENT
100
AcDbLine
10
169.22811194672391
20
409.06297104172472
30
1.3801686777446762e-11
11
326.68678188758383
21
201.06611173780493
31
1.9140525352518404e-12
0
LINE
5
272
100
AcDbEntity
8
BEND_EXTENT
100
AcDbLine
10
324.84915895324065
20
198.81538604043882
30
1.8432144054507053e-12
11
83.252318370169036
21
211.26270029993549
31
-1.1554204974114286e-13
0
LINE
5
273
100
AcDbEntity
8
BEND_EXTENT
100
AcDbLine
10
83.219103897562434
20
210.71339836360613
30
-8.0014876263069446e-14
11
324.57228727337952
21
198.27863757054922
31
1.8077183309099859e-12
0
LINE
5
274
100
AcDbEntity
8
BEND_EXTENT
100
AcDbLine
10
252.54056641511636
20
1.0270808387326462
30
-1.7415843205362405e-13
11
82.106101307405737
21
208.23708919854204
31
-7.9892432810758629e-14
0
LINE
5
275
100
AcDbEntity
8
BEND_EXTENT
100
AcDbLine
10
80.691343760438414
20
207.0429943750139
30
-8.667654532948693e-15
11
250.98843645361507
21
7.1054273576010019e-14
31
3.6664655435659043e-15
0
ENDSEC
0
SECTION
2
OBJECTS
0
DICTIONARY
5
C
100
AcDbDictionary
3
ACAD_GROUP
350
D
3
ACAD_MLINESTYLE
350
17
0
DICTIONARY
5
D
100
AcDbDictionary
0
DICTIONARY
5
1A
330
C
100
AcDbDictionary
0
DICTIONARY
5
17
100
AcDbDictionary
0
ENDSEC
0
EOF
