  0
SECTION
  2
HEADER
  9
$ACADVER
  1
AC1006
  9
$DWGCODEPAGE
  3
ansi_1252
  9
$INSBASE
 10
0.0
 20
0.0
 30
0.0
  9
$EXTMIN
 10
-22.74277952755905
 20
-9.997641732283464
  9
$EXTMAX
 10
22.74277952755905
 20
9.997641732283464
  9
$LIMMIN
 10
0.0
 20
0.0
  9
$LIMMAX
 10
12.0
 20
9.0
  9
$ORTHOMODE
 70
     0
  9
$REGENMODE
 70
     1
  9
$FILLMODE
 70
     1
  9
$QTEXTMODE
 70
     0
  9
$MIRRTEXT
 70
     1
  9
$DRAGMODE
 70
     2
  9
$LTSCALE
 40
1.0
  9
$OSMODE
 70
    37
  9
$ATTMODE
 70
     1
  9
$TEXTSIZE
 40
0.2
  9
$TRACEWID
 40
0.05
  9
$TEXTSTYLE
  7
STANDARD
  9
$CLAYER
  8
0
  9
$CELTYPE
  6
BYLAYER
  9
$CECOLOR
 62
   256
  9
$DIMSCALE
 40
1.0
  9
$DIMASZ
 40
0.18
  9
$DIMEXO
 40
0.0625
  9
$DIMDLI
 40
0.38
  9
$DIMRND
 40
0.0
  9
$DIMDLE
 40
0.0
  9
$DIMEXE
 40
0.18
  9
$DIMTP
 40
0.0
  9
$DIMTM
 40
0.0
  9
$DIMTXT
 40
0.18
  9
$DIMCEN
 40
0.09
  9
$DIMTSZ
 40
0.0
  9
$DIMTOL
 70
     0
  9
$DIMLIM
 70
     0
  9
$DIMTIH
 70
     1
  9
$DIMTOH
 70
     1
  9
$DIMSE1
 70
     0
  9
$DIMSE2
 70
     0
  9
$DIMTAD
 70
     0
  9
$DIMZIN
 70
     0
  9
$DIMBLK
  1

  9
$DIMASO
 70
     1
  9
$DIMSHO
 70
     1
  9
$DIMPOST
  1

  9
$DIMAPOST
  1

  9
$DIMALT
 70
     0
  9
$DIMALTD
 70
     2
  9
$DIMALTF
 40
25.4
  9
$DIMLFAC
 40
1.0
  9
$DIMTOFL
 70
     0
  9
$DIMTVP
 40
0.0
  9
$DIMTIX
 70
     0
  9
$DIMSOXD
 70
     0
  9
$DIMSAH
 70
     0
  9
$DIMBLK1
  1

  9
$DIMBLK2
  1

  9
$LUNITS
 70
     2
  9
$LUPREC
 70
     4
  9
$SKETCHINC
 40
0.1
  9
$FILLETRAD
 40
0.5
  9
$AUNITS
 70
     0
  9
$AUPREC
 70
     0
  9
$MENU
  1
.
  9
$ELEVATION
 40
0.0
  9
$THICKNESS
 40
0.0
  9
$LIMCHECK
 70
     0
  9
$CHAMFERA
 40
0.5
  9
$CHAMFERB
 40
0.5
  9
$SKPOLY
 70
     0
  9
$TDCREATE
 40
2456702.617714873
  9
$TDUPDATE
 40
2456702.617714896
  9
$TDINDWG
 40
0.0000000116
  9
$TDUSRTIMER
 40
0.0000000116
  9
$USRTIMER
 70
     1
  9
$ANGBASE
 50
0.0
  9
$ANGDIR
 70
     0
  9
$PDMODE
 70
     0
  9
$PDSIZE
 40
0.0
  9
$PLINEWID
 40
0.0
  9
$COORDS
 70
     1
  9
$SPLFRAME
 70
     0
  9
$SPLINETYPE
 70
     6
  9
$SPLINESEGS
 70
     8
  9
$ATTDIA
 70
     0
  9
$ATTREQ
 70
     1
  9
$HANDLING
 70
     1
  9
$HANDSEED
  5
176
  9
$SURFTAB1
 70
     6
  9
$SURFTAB2
 70
     6
  9
$SURFTYPE
 70
     6
  9
$SURFU
 70
     6
  9
$SURFV
 70
     6
  9
$UCSNAME
  2

  9
$UCSORG
 10
0.0
 20
0.0
 30
0.0
  9
$UCSXDIR
 10
1.0
 20
0.0
 30
0.0
  9
$UCSYDIR
 10
0.0
 20
1.0
 30
0.0
  9
$USERI1
 70
     0
  9
$USERI2
 70
     0
  9
$USERI3
 70
     0
  9
$USERI4
 70
     0
  9
$USERI5
 70
     0
  9
$USERR1
 40
0.0
  9
$USERR2
 40
0.0
  9
$USERR3
 40
0.0
  9
$USERR4
 40
0.0
  9
$USERR5
 40
0.0
  9
$WORLDVIEW
 70
     1
  0
ENDSEC
  0
SECTION
  2
TABLES
  0
TABLE
  2
VPORT
 70
     1
  0
VPORT
  2
*ACTIVE
 70
     0
 10
0.0
 20
0.0
 11
1.0
 21
1.0
 12
10.42990654205607
 22
4.5
 13
0.0
 23
0.0
 14
0.5
 24
0.5
 15
0.5
 25
0.5
 16
0.0
 26
0.0
 36
1.0
 17
0.0
 27
0.0
 37
0.0
 40
9.0
 41
1.972972972850329
 42
50.0
 43
0.0
 44
0.0
 50
0.0
 51
0.0
 71
     0
 72
   100
 73
     1
 74
     3
 75
     0
 76
     0
 77
     0
 78
     0
  0
ENDTAB
  0
TABLE
  2
LTYPE
 70
     1
  0
LTYPE
  2
CONTINUOUS
 70
     0
  3
Solid line
 72
    65
 73
     0
 40
0.0
  0
ENDTAB
  0
TABLE
  2
LAYER
 70
     3
  0
LAYER
  2
0
 70
     0
 62
     7
  6
CONTINUOUS
  0
LAYER
  2
LAYER_1
 70
     0
 62
     7
  6
CONTINUOUS
  0
LAYER
  2
20
 70
     0
 62
     7
  6
CONTINUOUS
  0
ENDTAB
  0
TABLE
  2
STYLE
 70
     1
  0
STYLE
  2
STANDARD
 70
     0
 40
0.0
 41
1.0
 50
0.0
 71
     0
 42
0.2
  3
txt
  4

  0
ENDTAB
  0
TABLE
  2
VIEW
 70
     0
  0
ENDTAB
  0
TABLE
  2
UCS
 70
     0
  0
ENDTAB
  0
ENDSEC
  0
SECTION
  2
BLOCKS
  0
ENDSEC
  0
SECTION
  2
ENTITIES
  0
POLYLINE
  5
41
  8
LAYER_1
 62
   250
 66
     1
 10
0.0
 20
0.0
 30
0.0
 70
     1
  0
VERTEX
  5
84
  8
LAYER_1
 62
   250
 10
22.73930708661417
 20
9.992350393700788
 30
0.0
  0
VERTEX
  5
85
  8
LAYER_1
 62
   250
 10
22.73930708661417
 20
-9.992350393700788
 30
0.0
  0
VERTEX
  5
86
  8
LAYER_1
 62
   250
 10
20.89040157480315
 20
-9.189893700787401
 30
0.0
  0
VERTEX
  5
87
  8
LAYER_1
 62
   250
 10
19.09307086614173
 20
-8.451877952755906
 30
0.0
  0
VERTEX
  5
88
  8
LAYER_1
 62
   250
 10
17.34054724409449
 20
-7.773133858267717
 30
0.0
  0
VERTEX
  5
89
  8
LAYER_1
 62
   250
 10
15.62684645669291
 20
-7.148897637795276
 30
0.0
  0
VERTEX
  5
8A
  8
LAYER_1
 62
   250
 10
13.94667322834646
 20
-6.574787401574803
 30
0.0
  0
VERTEX
  5
8B
  8
LAYER_1
 62
   250
 10
12.29539763779528
 20
-6.046787401574803
 30
0.0
  0
VERTEX
  5
8C
  8
LAYER_1
 62
   250
 10
10.66896062992126
 20
-5.561185039370079
 30
0.0
  0
VERTEX
  5
8D
  8
LAYER_1
 62
   250
 10
9.063838582677166
 20
-5.114582677165354
 30
0.0
  0
VERTEX
  5
8E
  8
LAYER_1
 62
   250
 10
7.476964566929134
 20
-4.703846456692913
 30
0.0
  0
VERTEX
  5
8F
  8
LAYER_1
 62
   250
 10
5.905688976377952
 20
-4.326094488188977
 30
0.0
  0
VERTEX
  5
90
  8
LAYER_1
 62
   250
 10
4.347732283464567
 20
-3.978677165354331
 30
0.0
  0
VERTEX
  5
91
  8
LAYER_1
 62
   250
 10
2.801133858267717
 20
-3.659161417322835
 30
0.0
  0
VERTEX
  5
92
  8
LAYER_1
 62
   250
 10
1.264200787401575
 20
-3.365307086614173
 30
0.0
  0
VERTEX
  5
93
  8
LAYER_1
 62
   250
 10
-0.264507874015748
 20
-3.095047244094488
 30
0.0
  0
VERTEX
  5
94
  8
LAYER_1
 62
   250
 10
-1.786220472440945
 20
-2.846492125984252
 30
0.0
  0
VERTEX
  5
95
  8
LAYER_1
 62
   250
 10
-3.301992125984252
 20
-2.61790157480315
 30
0.0
  0
VERTEX
  5
96
  8
LAYER_1
 62
   250
 10
-4.812720472440945
 20
-2.407665354330708
 30
0.0
  0
VERTEX
  5
97
  8
LAYER_1
 62
   250
 10
-6.319173228346457
 20
-2.214311023622047
 30
0.0
  0
VERTEX
  5
98
  8
LAYER_1
 62
   250
 10
-7.821996062992126
 20
-2.036488188976378
 30
0.0
  0
VERTEX
  5
99
  8
LAYER_1
 62
   250
 10
-9.321744094488189
 20
-1.87294094488189
 30
0.0
  0
VERTEX
  5
9A
  8
LAYER_1
 62
   250
 10
-10.81888582677165
 20
-1.722531496062992
 30
0.0
  0
VERTEX
  5
9B
  8
LAYER_1
 62
   250
 10
-12.31381889763779
 20
-1.584200787401575
 30
0.0
  0
VERTEX
  5
9C
  8
LAYER_1
 62
   250
 10
-13.80688188976378
 20
-1.456976377952756
 30
0.0
  0
VERTEX
  5
9D
  8
LAYER_1
 62
   250
 10
-15.29835826771654
 20
-1.339972440944882
 30
0.0
  0
VERTEX
  5
9E
  8
LAYER_1
 62
   250
 10
-16.78849606299213
 20
-1.232362204724409
 30
0.0
  0
VERTEX
  5
9F
  8
LAYER_1
 62
   250
 10
-18.2775
 20
-1.133393700787402
 30
0.0
  0
VERTEX
  5
A0
  8
LAYER_1
 62
   250
 10
-19.76553937007874
 20
-1.042374015748031
 30
0.0
  0
VERTEX
  5
A1
  8
LAYER_1
 62
   250
 10
-21.25276771653543
 20
-0.9586653543307087
 30
0.0
  0
VERTEX
  5
A2
  8
LAYER_1
 62
   250
 10
-22.73930708661417
 20
-0.8816771653543307
 30
0.0
  0
VERTEX
  5
A3
  8
LAYER_1
 62
   250
 10
-22.73930708661417
 20
0.8816771653543307
 30
0.0
  0
VERTEX
  5
A4
  8
LAYER_1
 62
   250
 10
-21.25276771653543
 20
0.9586653543307087
 30
0.0
  0
VERTEX
  5
A5
  8
LAYER_1
 62
   250
 10
-19.76553937007874
 20
1.042374015748031
 30
0.0
  0
VERTEX
  5
A6
  8
LAYER_1
 62
   250
 10
-18.2775
 20
1.133393700787402
 30
0.0
  0
VERTEX
  5
A7
  8
LAYER_1
 62
   250
 10
-16.78849606299213
 20
1.232362204724409
 30
0.0
  0
VERTEX
  5
A8
  8
LAYER_1
 62
   250
 10
-15.29835826771654
 20
1.339972440944882
 30
0.0
  0
VERTEX
  5
A9
  8
LAYER_1
 62
   250
 10
-13.80688188976378
 20
1.456976377952756
 30
0.0
  0
VERTEX
  5
AA
  8
LAYER_1
 62
   250
 10
-12.31381889763779
 20
1.584200787401575
 30
0.0
  0
VERTEX
  5
AB
  8
LAYER_1
 62
   250
 10
-10.81888582677165
 20
1.722531496062992
 30
0.0
  0
VERTEX
  5
AC
  8
LAYER_1
 62
   250
 10
-9.321744094488189
 20
1.87294094488189
 30
0.0
  0
VERTEX
  5
AD
  8
LAYER_1
 62
   250
 10
-7.821996062992126
 20
2.036488188976378
 30
0.0
  0
VERTEX
  5
AE
  8
LAYER_1
 62
   250
 10
-6.319173228346457
 20
2.214311023622047
 30
0.0
  0
VERTEX
  5
AF
  8
LAYER_1
 62
   250
 10
-4.812720472440945
 20
2.407665354330708
 30
0.0
  0
VERTEX
  5
B0
  8
LAYER_1
 62
   250
 10
-3.301992125984252
 20
2.61790157480315
 30
0.0
  0
VERTEX
  5
B1
  8
LAYER_1
 62
   250
 10
-1.786220472440945
 20
2.846492125984252
 30
0.0
  0
VERTEX
  5
B2
  8
LAYER_1
 62
   250
 10
-0.264507874015748
 20
3.095047244094488
 30
0.0
  0
VERTEX
  5
B3
  8
LAYER_1
 62
   250
 10
1.264200787401575
 20
3.365307086614173
 30
0.0
  0
VERTEX
  5
B4
  8
LAYER_1
 62
   250
 10
2.801133858267717
 20
3.659161417322835
 30
0.0
  0
VERTEX
  5
B5
  8
LAYER_1
 62
   250
 10
4.347732283464567
 20
3.978677165354331
 30
0.0
  0
VERTEX
  5
B6
  8
LAYER_1
 62
   250
 10
5.905688976377952
 20
4.326094488188977
 30
0.0
  0
VERTEX
  5
B7
  8
LAYER_1
 62
   250
 10
7.476964566929134
 20
4.703846456692913
 30
0.0
  0
VERTEX
  5
B8
  8
LAYER_1
 62
   250
 10
9.063838582677166
 20
5.114582677165354
 30
0.0
  0
VERTEX
  5
B9
  8
LAYER_1
 62
   250
 10
10.66896062992126
 20
5.561185039370079
 30
0.0
  0
VERTEX
  5
BA
  8
LAYER_1
 62
   250
 10
12.29539763779528
 20
6.046787401574803
 30
0.0
  0
VERTEX
  5
BB
  8
LAYER_1
 62
   250
 10
13.94667322834646
 20
6.574787401574803
 30
0.0
  0
VERTEX
  5
BC
  8
LAYER_1
 62
   250
 10
15.62684645669291
 20
7.148897637795276
 30
0.0
  0
VERTEX
  5
BD
  8
LAYER_1
 62
   250
 10
17.34054724409449
 20
7.773133858267717
 30
0.0
  0
VERTEX
  5
BE
  8
LAYER_1
 62
   250
 10
19.09307086614173
 20
8.451877952755906
 30
0.0
  0
VERTEX
  5
BF
  8
LAYER_1
 62
   250
 10
20.89040157480315
 20
9.189893700787401
 30
0.0
  0
VERTEX
  5
C0
  8
LAYER_1
 62
   250
 10
22.73930708661417
 20
9.992350393700788
 30
0.0
  0
SEQEND
  5
175
  8
LAYER_1
 62
   250
  0
POLYLINE
  5
43
  8
20
 62
     2
 66
     1
 10
0.0
 20
0.0
 30
0.0
  0
VERTEX
  5
C1
  8
20
 62
     2
 10
22.73930708661417
 20
-9.992350393700788
 30
0.0
  0
VERTEX
  5
C2
  8
20
 62
     2
 10
20.89040157480315
 20
-9.189893700787401
 30
0.0
  0
SEQEND
  5
174
  8
20
 62
     2
  0
POLYLINE
  5
44
  8
20
 62
     2
 66
     1
 10
0.0
 20
0.0
 30
0.0
  0
VERTEX
  5
C3
  8
20
 62
     2
 10
20.89040157480315
 20
-9.189893700787401
 30
0.0
  0
VERTEX
  5
C4
  8
20
 62
     2
 10
19.09307086614173
 20
-8.451877952755906
 30
0.0
  0
SEQEND
  5
173
  8
20
 62
     2
  0
POLYLINE
  5
45
  8
20
 62
     2
 66
     1
 10
0.0
 20
0.0
 30
0.0
  0
VERTEX
  5
C5
  8
20
 62
     2
 10
19.09307086614173
 20
-8.451877952755906
 30
0.0
  0
VERTEX
  5
C6
  8
20
 62
     2
 10
17.34054724409449
 20
-7.773133858267717
 30
0.0
  0
SEQEND
  5
172
  8
20
 62
     2
  0
POLYLINE
  5
46
  8
20
 62
     2
 66
     1
 10
0.0
 20
0.0
 30
0.0
  0
VERTEX
  5
C7
  8
20
 62
     2
 10
17.34054724409449
 20
-7.773133858267717
 30
0.0
  0
VERTEX
  5
C8
  8
20
 62
     2
 10
15.62684645669291
 20
-7.148897637795276
 30
0.0
  0
SEQEND
  5
171
  8
20
 62
     2
  0
POLYLINE
  5
47
  8
20
 62
     2
 66
     1
 10
0.0
 20
0.0
 30
0.0
  0
VERTEX
  5
C9
  8
20
 62
     2
 10
15.62684645669291
 20
-7.148897637795276
 30
0.0
  0
VERTEX
  5
CA
  8
20
 62
     2
 10
13.94667322834646
 20
-6.574787401574803
 30
0.0
  0
SEQEND
  5
170
  8
20
 62
     2
  0
POLYLINE
  5
48
  8
20
 62
     2
 66
     1
 10
0.0
 20
0.0
 30
0.0
  0
VERTEX
  5
CB
  8
20
 62
     2
 10
13.94667322834646
 20
-6.574787401574803
 30
0.0
  0
VERTEX
  5
CC
  8
20
 62
     2
 10
12.29539763779528
 20
-6.046787401574803
 30
0.0
  0
SEQEND
  5
16F
  8
20
 62
     2
  0
POLYLINE
  5
49
  8
20
 62
     2
 66
     1
 10
0.0
 20
0.0
 30
0.0
  0
VERTEX
  5
CD
  8
20
 62
     2
 10
12.29539763779528
 20
-6.046787401574803
 30
0.0
  0
VERTEX
  5
CE
  8
20
 62
     2
 10
10.66896062992126
 20
-5.561185039370079
 30
0.0
  0
SEQEND
  5
16E
  8
20
 62
     2
  0
POLYLINE
  5
4A
  8
20
 62
     2
 66
     1
 10
0.0
 20
0.0
 30
0.0
  0
VERTEX
  5
CF
  8
20
 62
     2
 10
10.66896062992126
 20
-5.561185039370079
 30
0.0
  0
VERTEX
  5
D0
  8
20
 62
     2
 10
9.063838582677166
 20
-5.114582677165354
 30
0.0
  0
SEQEND
  5
16D
  8
20
 62
     2
  0
POLYLINE
  5
4B
  8
20
 62
     2
 66
     1
 10
0.0
 20
0.0
 30
0.0
  0
VERTEX
  5
D1
  8
20
 62
     2
 10
9.063838582677166
 20
-5.114582677165354
 30
0.0
  0
VERTEX
  5
D2
  8
20
 62
     2
 10
7.476964566929134
 20
-4.703846456692913
 30
0.0
  0
SEQEND
  5
16C
  8
20
 62
     2
  0
POLYLINE
  5
4C
  8
20
 62
     2
 66
     1
 10
0.0
 20
0.0
 30
0.0
  0
VERTEX
  5
D3
  8
20
 62
     2
 10
7.476964566929134
 20
-4.703846456692913
 30
0.0
  0
VERTEX
  5
D4
  8
20
 62
     2
 10
5.905688976377952
 20
-4.326094488188977
 30
0.0
  0
SEQEND
  5
16B
  8
20
 62
     2
  0
POLYLINE
  5
4D
  8
20
 62
     2
 66
     1
 10
0.0
 20
0.0
 30
0.0
  0
VERTEX
  5
D5
  8
20
 62
     2
 10
5.905688976377952
 20
-4.326094488188977
 30
0.0
  0
VERTEX
  5
D6
  8
20
 62
     2
 10
4.347732283464567
 20
-3.978677165354331
 30
0.0
  0
SEQEND
  5
16A
  8
20
 62
     2
  0
POLYLINE
  5
4E
  8
20
 62
     2
 66
     1
 10
0.0
 20
0.0
 30
0.0
  0
VERTEX
  5
D7
  8
20
 62
     2
 10
4.347732283464567
 20
-3.978677165354331
 30
0.0
  0
VERTEX
  5
D8
  8
20
 62
     2
 10
2.801133858267717
 20
-3.659161417322835
 30
0.0
  0
SEQEND
  5
169
  8
20
 62
     2
  0
POLYLINE
  5
4F
  8
20
 62
     2
 66
     1
 10
0.0
 20
0.0
 30
0.0
  0
VERTEX
  5
D9
  8
20
 62
     2
 10
2.801133858267717
 20
-3.659161417322835
 30
0.0
  0
VERTEX
  5
DA
  8
20
 62
     2
 10
1.264200787401575
 20
-3.365307086614173
 30
0.0
  0
SEQEND
  5
168
  8
20
 62
     2
  0
POLYLINE
  5
50
  8
20
 62
     2
 66
     1
 10
0.0
 20
0.0
 30
0.0
  0
VERTEX
  5
DB
  8
20
 62
     2
 10
1.264200787401575
 20
-3.365307086614173
 30
0.0
  0
VERTEX
  5
DC
  8
20
 62
     2
 10
-0.264507874015748
 20
-3.095047244094488
 30
0.0
  0
SEQEND
  5
167
  8
20
 62
     2
  0
POLYLINE
  5
51
  8
20
 62
     2
 66
     1
 10
0.0
 20
0.0
 30
0.0
  0
VERTEX
  5
DD
  8
20
 62
     2
 10
-0.264507874015748
 20
-3.095047244094488
 30
0.0
  0
VERTEX
  5
DE
  8
20
 62
     2
 10
-1.786220472440945
 20
-2.846492125984252
 30
0.0
  0
SEQEND
  5
166
  8
20
 62
     2
  0
POLYLINE
  5
52
  8
20
 62
     2
 66
     1
 10
0.0
 20
0.0
 30
0.0
  0
VERTEX
  5
DF
  8
20
 62
     2
 10
-1.786220472440945
 20
-2.846492125984252
 30
0.0
  0
VERTEX
  5
E0
  8
20
 62
     2
 10
-3.301992125984252
 20
-2.61790157480315
 30
0.0
  0
SEQEND
  5
165
  8
20
 62
     2
  0
POLYLINE
  5
53
  8
20
 62
     2
 66
     1
 10
0.0
 20
0.0
 30
0.0
  0
VERTEX
  5
E1
  8
20
 62
     2
 10
-3.301992125984252
 20
-2.61790157480315
 30
0.0
  0
VERTEX
  5
E2
  8
20
 62
     2
 10
-4.812720472440945
 20
-2.407665354330708
 30
0.0
  0
SEQEND
  5
164
  8
20
 62
     2
  0
POLYLINE
  5
54
  8
20
 62
     2
 66
     1
 10
0.0
 20
0.0
 30
0.0
  0
VERTEX
  5
E3
  8
20
 62
     2
 10
-4.812720472440945
 20
-2.407665354330708
 30
0.0
  0
VERTEX
  5
E4
  8
20
 62
     2
 10
-6.319173228346457
 20
-2.214311023622047
 30
0.0
  0
SEQEND
  5
163
  8
20
 62
     2
  0
POLYLINE
  5
55
  8
20
 62
     2
 66
     1
 10
0.0
 20
0.0
 30
0.0
  0
VERTEX
  5
E5
  8
20
 62
     2
 10
-6.319173228346457
 20
-2.214311023622047
 30
0.0
  0
VERTEX
  5
E6
  8
20
 62
     2
 10
-7.821996062992126
 20
-2.036488188976378
 30
0.0
  0
SEQEND
  5
162
  8
20
 62
     2
  0
POLYLINE
  5
56
  8
20
 62
     2
 66
     1
 10
0.0
 20
0.0
 30
0.0
  0
VERTEX
  5
E7
  8
20
 62
     2
 10
-7.821996062992126
 20
-2.036488188976378
 30
0.0
  0
VERTEX
  5
E8
  8
20
 62
     2
 10
-9.321744094488189
 20
-1.87294094488189
 30
0.0
  0
SEQEND
  5
161
  8
20
 62
     2
  0
POLYLINE
  5
57
  8
20
 62
     2
 66
     1
 10
0.0
 20
0.0
 30
0.0
  0
VERTEX
  5
E9
  8
20
 62
     2
 10
-9.321744094488189
 20
-1.87294094488189
 30
0.0
  0
VERTEX
  5
EA
  8
20
 62
     2
 10
-10.81888582677165
 20
-1.722531496062992
 30
0.0
  0
SEQEND
  5
160
  8
20
 62
     2
  0
POLYLINE
  5
58
  8
20
 62
     2
 66
     1
 10
0.0
 20
0.0
 30
0.0
  0
VERTEX
  5
EB
  8
20
 62
     2
 10
-10.81888582677165
 20
-1.722531496062992
 30
0.0
  0
VERTEX
  5
EC
  8
20
 62
     2
 10
-12.31381889763779
 20
-1.584200787401575
 30
0.0
  0
SEQEND
  5
15F
  8
20
 62
     2
  0
POLYLINE
  5
59
  8
20
 62
     2
 66
     1
 10
0.0
 20
0.0
 30
0.0
  0
VERTEX
  5
ED
  8
20
 62
     2
 10
-12.31381889763779
 20
-1.584200787401575
 30
0.0
  0
VERTEX
  5
EE
  8
20
 62
     2
 10
-13.80688188976378
 20
-1.456976377952756
 30
0.0
  0
SEQEND
  5
15E
  8
20
 62
     2
  0
POLYLINE
  5
5A
  8
20
 62
     2
 66
     1
 10
0.0
 20
0.0
 30
0.0
  0
VERTEX
  5
EF
  8
20
 62
     2
 10
-13.80688188976378
 20
-1.456976377952756
 30
0.0
  0
VERTEX
  5
F0
  8
20
 62
     2
 10
-15.29835826771654
 20
-1.339972440944882
 30
0.0
  0
SEQEND
  5
15D
  8
20
 62
     2
  0
POLYLINE
  5
5B
  8
20
 62
     2
 66
     1
 10
0.0
 20
0.0
 30
0.0
  0
VERTEX
  5
F1
  8
20
 62
     2
 10
-15.29835826771654
 20
-1.339972440944882
 30
0.0
  0
VERTEX
  5
F2
  8
20
 62
     2
 10
-16.78849606299213
 20
-1.232362204724409
 30
0.0
  0
SEQEND
  5
15C
  8
20
 62
     2
  0
POLYLINE
  5
5C
  8
20
 62
     2
 66
     1
 10
0.0
 20
0.0
 30
0.0
  0
VERTEX
  5
F3
  8
20
 62
     2
 10
-16.78849606299213
 20
-1.232362204724409
 30
0.0
  0
VERTEX
  5
F4
  8
20
 62
     2
 10
-18.2775
 20
-1.133393700787402
 30
0.0
  0
SEQEND
  5
15B
  8
20
 62
     2
  0
POLYLINE
  5
5D
  8
20
 62
     2
 66
     1
 10
0.0
 20
0.0
 30
0.0
  0
VERTEX
  5
F5
  8
20
 62
     2
 10
-18.2775
 20
-1.133393700787402
 30
0.0
  0
VERTEX
  5
F6
  8
20
 62
     2
 10
-19.76553937007874
 20
-1.042374015748031
 30
0.0
  0
SEQEND
  5
15A
  8
20
 62
     2
  0
POLYLINE
  5
5E
  8
20
 62
     2
 66
     1
 10
0.0
 20
0.0
 30
0.0
  0
VERTEX
  5
F7
  8
20
 62
     2
 10
-19.76553937007874
 20
-1.042374015748031
 30
0.0
  0
VERTEX
  5
F8
  8
20
 62
     2
 10
-21.25276771653543
 20
-0.9586653543307087
 30
0.0
  0
SEQEND
  5
159
  8
20
 62
     2
  0
POLYLINE
  5
5F
  8
20
 62
     2
 66
     1
 10
0.0
 20
0.0
 30
0.0
  0
VERTEX
  5
F9
  8
20
 62
     2
 10
-21.25276771653543
 20
-0.9586653543307087
 30
0.0
  0
VERTEX
  5
FA
  8
20
 62
     2
 10
-22.73930708661417
 20
-0.8816771653543307
 30
0.0
  0
SEQEND
  5
158
  8
20
 62
     2
  0
POLYLINE
  5
60
  8
20
 62
     2
 66
     1
 10
0.0
 20
0.0
 30
0.0
  0
VERTEX
  5
FB
  8
20
 62
     2
 10
-22.73930708661417
 20
-0.8816771653543307
 30
0.0
  0
VERTEX
  5
FC
  8
20
 62
     2
 10
-22.73930708661417
 20
0.8816771653543307
 30
0.0
  0
SEQEND
  5
157
  8
20
 62
     2
  0
POLYLINE
  5
61
  8
20
 62
     2
 66
     1
 10
0.0
 20
0.0
 30
0.0
  0
VERTEX
  5
FD
  8
20
 62
     2
 10
-21.25276771653543
 20
0.9586653543307087
 30
0.0
  0
VERTEX
  5
FE
  8
20
 62
     2
 10
-22.73930708661417
 20
0.8816771653543307
 30
0.0
  0
SEQEND
  5
156
  8
20
 62
     2
  0
POLYLINE
  5
62
  8
20
 62
     2
 66
     1
 10
0.0
 20
0.0
 30
0.0
  0
VERTEX
  5
FF
  8
20
 62
     2
 10
-19.76553937007874
 20
1.042374015748031
 30
0.0
  0
VERTEX
  5
100
  8
20
 62
     2
 10
-21.25276771653543
 20
0.9586653543307087
 30
0.0
  0
SEQEND
  5
155
  8
20
 62
     2
  0
POLYLINE
  5
63
  8
20
 62
     2
 66
     1
 10
0.0
 20
0.0
 30
0.0
  0
VERTEX
  5
101
  8
20
 62
     2
 10
-18.2775
 20
1.133393700787402
 30
0.0
  0
VERTEX
  5
102
  8
20
 62
     2
 10
-19.76553937007874
 20
1.042374015748031
 30
0.0
  0
SEQEND
  5
154
  8
20
 62
     2
  0
POLYLINE
  5
64
  8
20
 62
     2
 66
     1
 10
0.0
 20
0.0
 30
0.0
  0
VERTEX
  5
103
  8
20
 62
     2
 10
-16.78849606299213
 20
1.232362204724409
 30
0.0
  0
VERTEX
  5
104
  8
20
 62
     2
 10
-18.2775
 20
1.133393700787402
 30
0.0
  0
SEQEND
  5
153
  8
20
 62
     2
  0
POLYLINE
  5
65
  8
20
 62
     2
 66
     1
 10
0.0
 20
0.0
 30
0.0
  0
VERTEX
  5
105
  8
20
 62
     2
 10
-15.29835826771654
 20
1.339972440944882
 30
0.0
  0
VERTEX
  5
106
  8
20
 62
     2
 10
-16.78849606299213
 20
1.232362204724409
 30
0.0
  0
SEQEND
  5
152
  8
20
 62
     2
  0
POLYLINE
  5
66
  8
20
 62
     2
 66
     1
 10
0.0
 20
0.0
 30
0.0
  0
VERTEX
  5
107
  8
20
 62
     2
 10
-13.80688188976378
 20
1.456976377952756
 30
0.0
  0
VERTEX
  5
108
  8
20
 62
     2
 10
-15.29835826771654
 20
1.339972440944882
 30
0.0
  0
SEQEND
  5
151
  8
20
 62
     2
  0
POLYLINE
  5
67
  8
20
 62
     2
 66
     1
 10
0.0
 20
0.0
 30
0.0
  0
VERTEX
  5
109
  8
20
 62
     2
 10
-12.31381889763779
 20
1.584200787401575
 30
0.0
  0
VERTEX
  5
10A
  8
20
 62
     2
 10
-13.80688188976378
 20
1.456976377952756
 30
0.0
  0
SEQEND
  5
150
  8
20
 62
     2
  0
POLYLINE
  5
68
  8
20
 62
     2
 66
     1
 10
0.0
 20
0.0
 30
0.0
  0
VERTEX
  5
10B
  8
20
 62
     2
 10
-10.81888582677165
 20
1.722531496062992
 30
0.0
  0
VERTEX
  5
10C
  8
20
 62
     2
 10
-12.31381889763779
 20
1.584200787401575
 30
0.0
  0
SEQEND
  5
14F
  8
20
 62
     2
  0
POLYLINE
  5
69
  8
20
 62
     2
 66
     1
 10
0.0
 20
0.0
 30
0.0
  0
VERTEX
  5
10D
  8
20
 62
     2
 10
-9.321744094488189
 20
1.87294094488189
 30
0.0
  0
VERTEX
  5
10E
  8
20
 62
     2
 10
-10.81888582677165
 20
1.722531496062992
 30
0.0
  0
SEQEND
  5
14E
  8
20
 62
     2
  0
POLYLINE
  5
6A
  8
20
 62
     2
 66
     1
 10
0.0
 20
0.0
 30
0.0
  0
VERTEX
  5
10F
  8
20
 62
     2
 10
-7.821996062992126
 20
2.036488188976378
 30
0.0
  0
VERTEX
  5
110
  8
20
 62
     2
 10
-9.321744094488189
 20
1.87294094488189
 30
0.0
  0
SEQEND
  5
14D
  8
20
 62
     2
  0
POLYLINE
  5
6B
  8
20
 62
     2
 66
     1
 10
0.0
 20
0.0
 30
0.0
  0
VERTEX
  5
111
  8
20
 62
     2
 10
-6.319173228346457
 20
2.214311023622047
 30
0.0
  0
VERTEX
  5
112
  8
20
 62
     2
 10
-7.821996062992126
 20
2.036488188976378
 30
0.0
  0
SEQEND
  5
14C
  8
20
 62
     2
  0
POLYLINE
  5
6C
  8
20
 62
     2
 66
     1
 10
0.0
 20
0.0
 30
0.0
  0
VERTEX
  5
113
  8
20
 62
     2
 10
-4.812720472440945
 20
2.407665354330708
 30
0.0
  0
VERTEX
  5
114
  8
20
 62
     2
 10
-6.319173228346457
 20
2.214311023622047
 30
0.0
  0
SEQEND
  5
14B
  8
20
 62
     2
  0
POLYLINE
  5
6D
  8
20
 62
     2
 66
     1
 10
0.0
 20
0.0
 30
0.0
  0
VERTEX
  5
115
  8
20
 62
     2
 10
-3.301992125984252
 20
2.61790157480315
 30
0.0
  0
VERTEX
  5
116
  8
20
 62
     2
 10
-4.812720472440945
 20
2.407665354330708
 30
0.0
  0
SEQEND
  5
14A
  8
20
 62
     2
  0
POLYLINE
  5
6E
  8
20
 62
     2
 66
     1
 10
0.0
 20
0.0
 30
0.0
  0
VERTEX
  5
117
  8
20
 62
     2
 10
-1.786220472440945
 20
2.846492125984252
 30
0.0
  0
VERTEX
  5
118
  8
20
 62
     2
 10
-3.301992125984252
 20
2.61790157480315
 30
0.0
  0
SEQEND
  5
149
  8
20
 62
     2
  0
POLYLINE
  5
6F
  8
20
 62
     2
 66
     1
 10
0.0
 20
0.0
 30
0.0
  0
VERTEX
  5
119
  8
20
 62
     2
 10
-0.264507874015748
 20
3.095047244094488
 30
0.0
  0
VERTEX
  5
11A
  8
20
 62
     2
 10
-1.786220472440945
 20
2.846492125984252
 30
0.0
  0
SEQEND
  5
148
  8
20
 62
     2
  0
POLYLINE
  5
70
  8
20
 62
     2
 66
     1
 10
0.0
 20
0.0
 30
0.0
  0
VERTEX
  5
11B
  8
20
 62
     2
 10
1.264200787401575
 20
3.365307086614173
 30
0.0
  0
VERTEX
  5
11C
  8
20
 62
     2
 10
-0.264507874015748
 20
3.095047244094488
 30
0.0
  0
SEQEND
  5
147
  8
20
 62
     2
  0
POLYLINE
  5
71
  8
20
 62
     2
 66
     1
 10
0.0
 20
0.0
 30
0.0
  0
VERTEX
  5
11D
  8
20
 62
     2
 10
2.801133858267717
 20
3.659161417322835
 30
0.0
  0
VERTEX
  5
11E
  8
20
 62
     2
 10
1.264200787401575
 20
3.365307086614173
 30
0.0
  0
SEQEND
  5
146
  8
20
 62
     2
  0
POLYLINE
  5
72
  8
20
 62
     2
 66
     1
 10
0.0
 20
0.0
 30
0.0
  0
VERTEX
  5
11F
  8
20
 62
     2
 10
4.347732283464567
 20
3.978677165354331
 30
0.0
  0
VERTEX
  5
120
  8
20
 62
     2
 10
2.801133858267717
 20
3.659161417322835
 30
0.0
  0
SEQEND
  5
145
  8
20
 62
     2
  0
POLYLINE
  5
73
  8
20
 62
     2
 66
     1
 10
0.0
 20
0.0
 30
0.0
  0
VERTEX
  5
121
  8
20
 62
     2
 10
5.905688976377952
 20
4.326094488188977
 30
0.0
  0
VERTEX
  5
122
  8
20
 62
     2
 10
4.347732283464567
 20
3.978677165354331
 30
0.0
  0
SEQEND
  5
144
  8
20
 62
     2
  0
POLYLINE
  5
74
  8
20
 62
     2
 66
     1
 10
0.0
 20
0.0
 30
0.0
  0
VERTEX
  5
123
  8
20
 62
     2
 10
7.476964566929134
 20
4.703846456692913
 30
0.0
  0
VERTEX
  5
124
  8
20
 62
     2
 10
5.905688976377952
 20
4.326094488188977
 30
0.0
  0
SEQEND
  5
143
  8
20
 62
     2
  0
POLYLINE
  5
75
  8
20
 62
     2
 66
     1
 10
0.0
 20
0.0
 30
0.0
  0
VERTEX
  5
125
  8
20
 62
     2
 10
9.063838582677166
 20
5.114582677165354
 30
0.0
  0
VERTEX
  5
126
  8
20
 62
     2
 10
7.476964566929134
 20
4.703846456692913
 30
0.0
  0
SEQEND
  5
142
  8
20
 62
     2
  0
POLYLINE
  5
76
  8
20
 62
     2
 66
     1
 10
0.0
 20
0.0
 30
0.0
  0
VERTEX
  5
127
  8
20
 62
     2
 10
10.66896062992126
 20
5.561185039370079
 30
0.0
  0
VERTEX
  5
128
  8
20
 62
     2
 10
9.063838582677166
 20
5.114582677165354
 30
0.0
  0
SEQEND
  5
141
  8
20
 62
     2
  0
POLYLINE
  5
77
  8
20
 62
     2
 66
     1
 10
0.0
 20
0.0
 30
0.0
  0
VERTEX
  5
129
  8
20
 62
     2
 10
12.29539763779528
 20
6.046787401574803
 30
0.0
  0
VERTEX
  5
12A
  8
20
 62
     2
 10
10.66896062992126
 20
5.561185039370079
 30
0.0
  0
SEQEND
  5
140
  8
20
 62
     2
  0
POLYLINE
  5
78
  8
20
 62
     2
 66
     1
 10
0.0
 20
0.0
 30
0.0
  0
VERTEX
  5
12B
  8
20
 62
     2
 10
13.94667322834646
 20
6.574787401574803
 30
0.0
  0
VERTEX
  5
12C
  8
20
 62
     2
 10
12.29539763779528
 20
6.046787401574803
 30
0.0
  0
SEQEND
  5
13F
  8
20
 62
     2
  0
POLYLINE
  5
79
  8
20
 62
     2
 66
     1
 10
0.0
 20
0.0
 30
0.0
  0
VERTEX
  5
12D
  8
20
 62
     2
 10
15.62684645669291
 20
7.148897637795276
 30
0.0
  0
VERTEX
  5
12E
  8
20
 62
     2
 10
13.94667322834646
 20
6.574787401574803
 30
0.0
  0
SEQEND
  5
13E
  8
20
 62
     2
  0
POLYLINE
  5
7A
  8
20
 62
     2
 66
     1
 10
0.0
 20
0.0
 30
0.0
  0
VERTEX
  5
12F
  8
20
 62
     2
 10
17.34054724409449
 20
7.773133858267717
 30
0.0
  0
VERTEX
  5
130
  8
20
 62
     2
 10
15.62684645669291
 20
7.148897637795276
 30
0.0
  0
SEQEND
  5
13D
  8
20
 62
     2
  0
POLYLINE
  5
7B
  8
20
 62
     2
 66
     1
 10
0.0
 20
0.0
 30
0.0
  0
VERTEX
  5
131
  8
20
 62
     2
 10
19.09307086614173
 20
8.451877952755906
 30
0.0
  0
VERTEX
  5
132
  8
20
 62
     2
 10
17.34054724409449
 20
7.773133858267717
 30
0.0
  0
SEQEND
  5
13C
  8
20
 62
     2
  0
POLYLINE
  5
7C
  8
20
 62
     2
 66
     1
 10
0.0
 20
0.0
 30
0.0
  0
VERTEX
  5
133
  8
20
 62
     2
 10
20.89040157480315
 20
9.189893700787401
 30
0.0
  0
VERTEX
  5
134
  8
20
 62
     2
 10
19.09307086614173
 20
8.451877952755906
 30
0.0
  0
SEQEND
  5
13B
  8
20
 62
     2
  0
POLYLINE
  5
7D
  8
20
 62
     2
 66
     1
 10
0.0
 20
0.0
 30
0.0
  0
VERTEX
  5
135
  8
20
 62
     2
 10
22.73930708661417
 20
9.992350393700788
 30
0.0
  0
VERTEX
  5
136
  8
20
 62
     2
 10
20.89040157480315
 20
9.189893700787401
 30
0.0
  0
SEQEND
  5
13A
  8
20
 62
     2
  0
POLYLINE
  5
7E
  8
20
 62
     2
 66
     1
 10
0.0
 20
0.0
 30
0.0
  0
VERTEX
  5
137
  8
20
 62
     2
 10
22.73930708661417
 20
9.992350393700788
 30
0.0
  0
VERTEX
  5
138
  8
20
 62
     2
 10
22.73930708661417
 20
-9.992350393700788
 30
0.0
  0
SEQEND
  5
139
  8
20
 62
     2
  0
ENDSEC
  0
EOF
