  0
SECTION
  2
HEADER
  9
$ACADVER
  1
AC1009
  9
$DWGCODEPAGE
  3
ansi_1252
  9
$INSBASE
 10
0.0
 20
0.0
 30
0.0
  9
$EXTMIN
 10
0.0832414061049555
 20
0.164370226139932
 30
0.0
  9
$EXTMAX
 10
5.407857567344981
 20
5.291724137931036
 30
0.0
  9
$LIMMIN
 10
0.0
 20
0.0
  9
$LIMMAX
 10
12.0
 20
9.0
  9
$ORTHOMODE
 70
     0
  9
$REGENMODE
 70
     1
  9
$FILLMODE
 70
     1
  9
$QTEXTMODE
 70
     0
  9
$MIRRTEXT
 70
     1
  9
$DRAGMODE
 70
     2
  9
$LTSCALE
 40
1.0
  9
$OSMODE
 70
    37
  9
$ATTMODE
 70
     1
  9
$TEXTSIZE
 40
0.2
  9
$TRACEWID
 40
0.05
  9
$TEXTSTYLE
  7
STANDARD
  9
$CLAYER
  8
0
  9
$CELTYPE
  6
BYLAYER
  9
$CECOLOR
 62
   256
  9
$DIMSCALE
 40
1.0
  9
$DIMASZ
 40
0.18
  9
$DIMEXO
 40
0.0625
  9
$DIMDLI
 40
0.38
  9
$DIMRND
 40
0.0
  9
$DIMDLE
 40
0.0
  9
$DIMEXE
 40
0.18
  9
$DIMTP
 40
0.0
  9
$DIMTM
 40
0.0
  9
$DIMTXT
 40
0.18
  9
$DIMCEN
 40
0.09
  9
$DIMTSZ
 40
0.0
  9
$DIMTOL
 70
     0
  9
$DIMLIM
 70
     0
  9
$DIMTIH
 70
     1
  9
$DIMTOH
 70
     1
  9
$DIMSE1
 70
     0
  9
$DIMSE2
 70
     0
  9
$DIMTAD
 70
     0
  9
$DIMZIN
 70
     0
  9
$DIMBLK
  1

  9
$DIMASO
 70
     1
  9
$DIMSHO
 70
     1
  9
$DIMPOST
  1

  9
$DIMAPOST
  1

  9
$DIMALT
 70
     0
  9
$DIMALTD
 70
     2
  9
$DIMALTF
 40
25.4
  9
$DIMLFAC
 40
1.0
  9
$DIMTOFL
 70
     0
  9
$DIMTVP
 40
0.0
  9
$DIMTIX
 70
     0
  9
$DIMSOXD
 70
     0
  9
$DIMSAH
 70
     0
  9
$DIMBLK1
  1

  9
$DIMBLK2
  1

  9
$DIMSTYLE
  2
STANDARD
  9
$DIMCLRD
 70
     0
  9
$DIMCLRE
 70
     0
  9
$DIMCLRT
 70
     0
  9
$DIMTFAC
 40
1.0
  9
$DIMGAP
 40
0.09
  9
$LUNITS
 70
     2
  9
$LUPREC
 70
     4
  9
$SKETCHINC
 40
0.1
  9
$FILLETRAD
 40
0.5
  9
$AUNITS
 70
     0
  9
$AUPREC
 70
     0
  9
$MENU
  1
.
  9
$ELEVATION
 40
0.0
  9
$PELEVATION
 40
0.0
  9
$THICKNESS
 40
0.0
  9
$LIMCHECK
 70
     0
  9
$CHAMFERA
 40
0.5
  9
$CHAMFERB
 40
0.5
  9
$SKPOLY
 70
     0
  9
$TDCREATE
 40
2454910.5
  9
$TDUPDATE
 40
2456055.577847442
  9
$TDINDWG
 40
0.0000000116
  9
$TDUSRTIMER
 40
0.0000000116
  9
$USRTIMER
 70
     1
  9
$ANGBASE
 50
0.0
  9
$ANGDIR
 70
     0
  9
$PDMODE
 70
     0
  9
$PDSIZE
 40
0.0
  9
$PLINEWID
 40
0.0
  9
$COORDS
 70
     1
  9
$SPLFRAME
 70
     0
  9
$SPLINETYPE
 70
     6
  9
$SPLINESEGS
 70
     8
  9
$ATTDIA
 70
     0
  9
$ATTREQ
 70
     1
  9
$HANDLING
 70
     1
  9
$HANDSEED
  5
2D8
  9
$SURFTAB1
 70
     6
  9
$SURFTAB2
 70
     6
  9
$SURFTYPE
 70
     6
  9
$SURFU
 70
     6
  9
$SURFV
 70
     6
  9
$UCSNAME
  2

  9
$UCSORG
 10
0.0
 20
0.0
 30
0.0
  9
$UCSXDIR
 10
1.0
 20
0.0
 30
0.0
  9
$UCSYDIR
 10
0.0
 20
1.0
 30
0.0
  9
$PUCSNAME
  2

  9
$PUCSORG
 10
0.0
 20
0.0
 30
0.0
  9
$PUCSXDIR
 10
1.0
 20
0.0
 30
0.0
  9
$PUCSYDIR
 10
0.0
 20
1.0
 30
0.0
  9
$USERI1
 70
     0
  9
$USERI2
 70
     0
  9
$USERI3
 70
     0
  9
$USERI4
 70
     0
  9
$USERI5
 70
     0
  9
$USERR1
 40
0.0
  9
$USERR2
 40
0.0
  9
$USERR3
 40
0.0
  9
$USERR4
 40
0.0
  9
$USERR5
 40
0.0
  9
$WORLDVIEW
 70
     1
  9
$SHADEDGE
 70
     3
  9
$SHADEDIF
 70
    70
  9
$TILEMODE
 70
     1
  9
$MAXACTVP
 70
    64
  9
$PLIMCHECK
 70
     0
  9
$PEXTMIN
 10
1.000000000000000E+20
 20
1.000000000000000E+20
 30
1.000000000000000E+20
  9
$PEXTMAX
 10
-1.000000000000000E+20
 20
-1.000000000000000E+20
 30
-1.000000000000000E+20
  9
$PLIMMIN
 10
0.0
 20
0.0
  9
$PLIMMAX
 10
12.0
 20
9.0
  9
$UNITMODE
 70
     0
  9
$VISRETAIN
 70
     1
  9
$PLINEGEN
 70
     0
  9
$PSLTSCALE
 70
     1
  0
ENDSEC
  0
SECTION
  2
TABLES
  0
TABLE
  2
VPORT
 70
     1
  0
VPORT
  2
*ACTIVE
 70
     0
 10
0.0
 20
0.0
 11
1.0
 21
1.0
 12
10.42990654205607
 22
4.5
 13
0.0
 23
0.0
 14
0.5
 24
0.5
 15
0.5
 25
0.5
 16
0.0
 26
0.0
 36
1.0
 17
0.0
 27
0.0
 37
0.0
 40
9.0
 41
1.972972972850329
 42
50.0
 43
0.0
 44
0.0
 50
0.0
 51
0.0
 71
     0
 72
   100
 73
     1
 74
     3
 75
     0
 76
     0
 77
     0
 78
     0
  0
ENDTAB
  0
TABLE
  2
LTYPE
 70
     2
  0
LTYPE
  2
CONTINUOUS
 70
     0
  3
Solid line
 72
    65
 73
     0
 40
0.0
  0
LTYPE
  2
CONTINUOUS2
 70
     0
  3
Solid Line
 72
    65
 73
     0
 40
0.0
  0
ENDTAB
  0
TABLE
  2
LAYER
 70
     3
  0
LAYER
  2
0
 70
     0
 62
     7
  6
CONTINUOUS
  0
LAYER
  2
LIZARD1
 70
     0
 62
    18
  6
CONTINUOUS
  0
LAYER
  2
LIZARDETCH
 70
     0
 62
    18
  6
CONTINUOUS
  0
ENDTAB
  0
TABLE
  2
STYLE
 70
     1
  0
STYLE
  2
STANDARD
 70
     0
 40
0.0
 41
1.0
 50
0.0
 71
     0
 42
0.2
  3
txt
  4

  0
ENDTAB
  0
TABLE
  2
VIEW
 70
     0
  0
ENDTAB
  0
TABLE
  2
UCS
 70
     0
  0
ENDTAB
  0
TABLE
  2
APPID
 70
     1
  0
APPID
  2
ACAD
 70
     0
  0
ENDTAB
  0
TABLE
  2
DIMSTYLE
 70
     1
  0
DIMSTYLE
  2
STANDARD
 70
     0
  3

  4

  5

  6

  7

 40
1.0
 41
0.18
 42
0.0625
 43
0.38
 44
0.18
 45
0.0
 46
0.0
 47
0.0
 48
0.0
140
0.18
141
0.09
142
0.0
143
25.4
144
1.0
145
0.0
146
1.0
147
0.09
 71
     0
 72
     0
 73
     1
 74
     1
 75
     0
 76
     0
 77
     0
 78
     0
170
     0
171
     2
172
     0
173
     0
174
     0
175
     0
176
     0
177
     0
178
     0
  0
ENDTAB
  0
ENDSEC
  0
SECTION
  2
BLOCKS
  0
BLOCK
  8
0
  2
$MODEL_SPACE
 70
     0
 10
0.0
 20
0.0
 30
0.0
  3
$MODEL_SPACE
  1

  0
ENDBLK
  5
21
  8
0
  0
BLOCK
 67
     1
  8
0
  2
$PAPER_SPACE
 70
     0
 10
0.0
 20
0.0
 30
0.0
  3
$PAPER_SPACE
  1

  0
ENDBLK
  5
1D
 67
     1
  8
0
  0
ENDSEC
  0
SECTION
  2
ENTITIES
  0
POLYLINE
  5
41
  8
LIZARD1
 66
     1
 10
0.0
 20
0.0
 30
0.0
 70
     1
  0
VERTEX
  5
60
  8
LIZARD1
 10
0.3548420126238097
 20
0.3827691049558934
 30
0.0
 42
0.5328357473562119
  0
VERTEX
  5
61
  8
LIZARD1
 10
0.6446788492754916
 20
0.2681273784850111
 30
0.0
  0
VERTEX
  5
62
  8
LIZARD1
 10
0.8434600332643047
 20
0.4048473284858528
 30
0.0
 42
-0.1088768387497916
  0
VERTEX
  5
63
  8
LIZARD1
 10
0.9183389327324254
 20
0.4352409816732026
 30
0.0
  0
VERTEX
  5
64
  8
LIZARD1
 10
1.764976218715528
 20
0.5794274156952044
 30
0.0
  0
VERTEX
  5
65
  8
LIZARD1
 10
2.063425746966162
 20
1.384730030157802
 30
0.0
 42
0.1088768387498407
  0
VERTEX
  5
66
  8
LIZARD1
 10
2.074543520924704
 20
1.464773885906541
 30
0.0
  0
VERTEX
  5
67
  8
LIZARD1
 10
2.055531163017963
 20
1.705283416035209
 30
0.0
 42
-0.5328357473562103
  0
VERTEX
  5
68
  8
LIZARD1
 10
2.299732228805521
 20
1.898968616291748
 30
0.0
  0
VERTEX
  5
69
  8
LIZARD1
 10
2.632597023075182
 20
1.792857639444835
 30
0.0
 42
-0.3575391530690099
  0
VERTEX
  5
6A
  8
LIZARD1
 10
2.762167391254183
 20
1.593113889371
 30
0.0
  0
VERTEX
  5
6B
  8
LIZARD1
 10
2.752134133057669
 20
1.50334191728495
 30
0.0
 42
-0.0277903162566498
  0
VERTEX
  5
6C
  8
LIZARD1
 10
2.74867016151312
 20
1.482776230058288
 30
0.0
  0
VERTEX
  5
6D
  8
LIZARD1
 10
2.582354097643586
 20
0.7474408151124268
 30
0.0
 42
0.3892220455664069
  0
VERTEX
  5
6E
  8
LIZARD1
 10
2.708476322068025
 20
0.5271263329852471
 30
0.0
  0
VERTEX
  5
6F
  8
LIZARD1
 10
3.098689226683679
 20
0.4027718996178372
 30
0.0
 42
-0.042959457580853
  0
VERTEX
  5
70
  8
LIZARD1
 10
3.128421699752636
 20
0.3903979064438962
 30
0.0
  0
VERTEX
  5
71
  8
LIZARD1
 10
3.522384746802349
 20
0.185175999557534
 30
0.0
 42
0.2439150021129756
  0
VERTEX
  5
72
  8
LIZARD1
 10
3.695286294026481
 20
0.1848727916951849
 30
0.0
  0
VERTEX
  5
73
  8
LIZARD1
 10
4.133494299387464
 20
0.4111911868872
 30
0.0
  0
VERTEX
  5
74
  8
LIZARD1
 10
3.812687797269595
 20
0.9325403278503142
 30
0.0
 42
0.3666626378921978
  0
VERTEX
  5
75
  8
LIZARD1
 10
3.581984669327416
 20
1.008035878521987
 30
0.0
  0
VERTEX
  5
76
  8
LIZARD1
 10
3.516266310276557
 20
0.9812809491889591
 30
0.0
 42
-0.692327638987719
  0
VERTEX
  5
77
  8
LIZARD1
 10
3.2776306656678
 20
1.239344048441512
 30
0.0
  0
VERTEX
  5
78
  8
LIZARD1
 10
3.362831677239644
 20
1.409251459388778
 30
0.0
 42
0.0446188138748543
  0
VERTEX
  5
79
  8
LIZARD1
 10
3.375100869970766
 20
1.440363297264896
 30
0.0
  0
VERTEX
  5
7A
  8
LIZARD1
 10
3.446615821444729
 20
1.683152678906943
 30
0.0
 42
-0.6156629620958731
  0
VERTEX
  5
7B
  8
LIZARD1
 10
3.77645482385341
 20
1.743387427493009
 30
0.0
  0
VERTEX
  5
7C
  8
LIZARD1
 10
4.237532173087677
 20
1.133979289608018
 30
0.0
 42
0.2560180878897187
  0
VERTEX
  5
7D
  8
LIZARD1
 10
4.402165782245263
 20
1.060099527262077
 30
0.0
  0
VERTEX
  5
7E
  8
LIZARD1
 10
5.119561206006738
 20
1.117219162908391
 30
0.0
 42
0.1971419064541845
  0
VERTEX
  5
7F
  8
LIZARD1
 10
5.24670953578795
 20
1.181605563429029
 30
0.0
  0
VERTEX
  5
80
  8
LIZARD1
 10
5.36252761011297
 20
1.315601788946661
 30
0.0
 42
0.2361855167099
  0
VERTEX
  5
81
  8
LIZARD1
 10
5.403913393165193
 20
1.478435948383444
 30
0.0
  0
VERTEX
  5
82
  8
LIZARD1
 10
5.170014716700796
 20
2.549619730100924
 30
0.0
  0
VERTEX
  5
83
  8
LIZARD1
 10
4.12539301137666
 20
2.882649425231762
 30
0.0
 42
-0.2361855167098837
  0
VERTEX
  5
84
  8
LIZARD1
 10
4.00506738422613
 20
2.999907644430602
 30
0.0
  0
VERTEX
  5
85
  8
LIZARD1
 10
3.946932286080035
 20
3.167207151763999
 30
0.0
 42
-0.1971419064541934
  0
VERTEX
  5
86
  8
LIZARD1
 10
3.95474619246479
 20
3.30951403566128
 30
0.0
  0
VERTEX
  5
87
  8
LIZARD1
 10
4.263976848813372
 20
3.959356515024143
 30
0.0
 42
-0.2560180878901778
  0
VERTEX
  5
88
  8
LIZARD1
 10
4.410275404415742
 20
4.064993521701759
 30
0.0
  0
VERTEX
  5
89
  8
LIZARD1
 10
5.168577007720366
 20
4.159594150310781
 30
0.0
 42
0.6156629620964803
  0
VERTEX
  5
8A
  8
LIZARD1
 10
5.281331686452098
 20
4.475360479839927
 30
0.0
  0
VERTEX
  5
8B
  8
LIZARD1
 10
5.106827389910842
 20
4.658688935389046
 30
0.0
 42
-0.0446188138747873
  0
VERTEX
  5
8C
  8
LIZARD1
 10
5.086018344326626
 20
4.684870286918349
 30
0.0
  0
VERTEX
  5
8D
  8
LIZARD1
 10
4.981474715943289
 20
4.843610232844243
 30
0.0
 42
0.6923276389883731
  0
VERTEX
  5
8E
  8
LIZARD1
 10
4.638667693905415
 20
4.765977251993471
 30
0.0
  0
VERTEX
  5
8F
  8
LIZARD1
 10
4.628978962854897
 20
4.69568601888892
 30
0.0
 42
-0.366662637891727
  0
VERTEX
  5
90
  8
LIZARD1
 10
4.448246334131654
 20
4.533639024690391
 30
0.0
  0
VERTEX
  5
91
  8
LIZARD1
 10
3.836339577284636
 20
4.516465953525748
 30
0.0
  0
VERTEX
  5
92
  8
LIZARD1
 10
3.836087349730499
 20
4.338220817320869
 30
0.0
 42
-0.1377042215299137
  0
VERTEX
  5
93
  8
LIZARD1
 10
3.806410302444475
 20
4.241160495334115
 30
0.0
  0
VERTEX
  5
94
  8
LIZARD1
 10
3.751414891686787
 20
4.155439066397105
 30
0.0
 42
0.0530046992348921
  0
VERTEX
  5
95
  8
LIZARD1
 10
3.733631372484438
 20
4.119948451446226
 30
0.0
  0
VERTEX
  5
96
  8
LIZARD1
 10
3.600038331464207
 20
3.763513464247858
 30
0.0
 42
-0.0412746519872638
  0
VERTEX
  5
97
  8
LIZARD1
 10
3.586826414819144
 20
3.735529582978827
 30
0.0
  0
VERTEX
  5
98
  8
LIZARD1
 10
3.515252442543144
 20
3.611561103869158
 30
0.0
 42
-0.1670781297605964
  0
VERTEX
  5
99
  8
LIZARD1
 10
3.42316311632823
 20
3.531426564022153
 30
0.0
  0
VERTEX
  5
9A
  8
LIZARD1
 10
3.366443702323762
 20
3.508442798655893
 30
0.0
 42
-0.5775420028661034
  0
VERTEX
  5
9B
  8
LIZARD1
 10
3.109986717600929
 20
3.708504705383121
 30
0.0
  0
VERTEX
  5
9C
  8
LIZARD1
 10
3.215126431946054
 20
4.459060606178806
 30
0.0
 42
0.1433483995621128
  0
VERTEX
  5
9D
  8
LIZARD1
 10
3.199823110179868
 20
4.56343653861431
 30
0.0
  0
VERTEX
  5
9E
  8
LIZARD1
 10
3.095049897065703
 20
4.791686213896081
 30
0.0
 42
0.2422133274524537
  0
VERTEX
  5
9F
  8
LIZARD1
 10
2.959853917158893
 20
4.89774044975797
 30
0.0
  0
VERTEX
  5
A0
  8
LIZARD1
 10
2.370268541542382
 20
5.0110759088682
 30
0.0
 42
-0.1656289070348715
  0
VERTEX
  5
A1
  8
LIZARD1
 10
2.265091545607041
 20
5.071043735439853
 30
0.0
  0
VERTEX
  5
A2
  8
LIZARD1
 10
2.125487825370846
 20
5.228831625729651
 30
0.0
 42
0.2330355939089391
  0
VERTEX
  5
A3
  8
LIZARD1
 10
1.971860115883286
 20
5.291724137931036
 30
0.0
  0
VERTEX
  5
A4
  8
LIZARD1
 10
1.702229645351239
 20
5.273000506394776
 30
0.0
 42
0.5208018871115752
  0
VERTEX
  5
A5
  8
LIZARD1
 10
1.543730216264785
 20
5.009280752980289
 30
0.0
  0
VERTEX
  5
A6
  8
LIZARD1
 10
1.764673952552541
 20
4.513375164417383
 30
0.0
  0
VERTEX
  5
A7
  8
LIZARD1
 10
2.304612658280997
 20
4.456765258585244
 30
0.0
 42
-0.5208018871115487
  0
VERTEX
  5
A8
  8
LIZARD1
 10
2.453750949681412
 20
4.187640849790289
 30
0.0
  0
VERTEX
  5
A9
  8
LIZARD1
 10
2.335150854969545
 20
3.944772196920238
 30
0.0
 42
-0.2330355939089259
  0
VERTEX
  5
AA
  8
LIZARD1
 10
2.203870486954238
 20
3.843172953871613
 30
0.0
  0
VERTEX
  5
AB
  8
LIZARD1
 10
1.997420305431625
 20
3.801166530829
 30
0.0
 42
0.1656289070344551
  0
VERTEX
  5
AC
  8
LIZARD1
 10
1.892898146245434
 20
3.740064493741541
 30
0.0
  0
VERTEX
  5
AD
  8
LIZARD1
 10
1.499954071708387
 20
3.286136310310661
 30
0.0
 42
-0.2422133274515045
  0
VERTEX
  5
AE
  8
LIZARD1
 10
1.340510419306786
 20
3.222080275145072
 30
0.0
  0
VERTEX
  5
AF
  8
LIZARD1
 10
1.090453795557086
 20
3.245468848596154
 30
0.0
 42
-0.1433483995621124
  0
VERTEX
  5
B0
  8
LIZARD1
 10
0.9924099256304892
 20
3.284403749409377
 30
0.0
  0
VERTEX
  5
B1
  8
LIZARD1
 10
0.3949793057652404
 20
3.750735363372316
 30
0.0
 42
0.5775420028655228
  0
VERTEX
  5
B2
  8
LIZARD1
 10
0.0934921198418734
 20
3.628668052989056
 30
0.0
  0
VERTEX
  5
B3
  8
LIZARD1
 10
0.0850369375180274
 20
3.568055716888388
 30
0.0
 42
0.167078129760581
  0
VERTEX
  5
B4
  8
LIZARD1
 10
0.1083908216401532
 20
3.448236751049143
 30
0.0
  0
VERTEX
  5
B5
  8
LIZARD1
 10
0.1799636876852743
 20
3.324267633253712
 30
0.0
 42
0.041274651987252
  0
VERTEX
  5
B6
  8
LIZARD1
 10
0.1975924814313662
 20
3.298833837172466
 30
0.0
  0
VERTEX
  5
B7
  8
LIZARD1
 10
0.4394777146376578
 20
3.004921376285687
 30
0.0
 42
-0.0530046992348974
  0
VERTEX
  5
B8
  8
LIZARD1
 10
0.4613217291745343
 20
2.971775089410046
 30
0.0
  0
VERTEX
  5
B9
  8
LIZARD1
 10
0.50806095890759
 20
2.881286952133021
 30
0.0
 42
0.1377042215299211
  0
VERTEX
  5
BA
  8
LIZARD1
 10
0.5772791397979282
 20
2.807055714276166
 30
0.0
  0
VERTEX
  5
BB
  8
LIZARD1
 10
0.7289745775871888
 20
2.716222443613717
 30
0.0
  0
VERTEX
  5
BC
  8
LIZARD1
 10
1.141515508628315
 20
2.448402290096755
 30
0.0
 42
-0.2439150021129788
  0
VERTEX
  5
BD
  8
LIZARD1
 10
1.227703696533233
 20
2.298513553906882
 30
0.0
  0
VERTEX
  5
BE
  8
LIZARD1
 10
1.24695783528398
 20
1.854720593568756
 30
0.0
 42
0.0429594575813443
  0
VERTEX
  5
BF
  8
LIZARD1
 10
1.251107879382789
 20
1.822784519993967
 30
0.0
  0
VERTEX
  5
C0
  8
LIZARD1
 10
1.338520233315488
 20
1.422673015020012
 30
0.0
 42
-0.389222045566413
  0
VERTEX
  5
C1
  8
LIZARD1
 10
1.210783407187778
 20
1.203290723631825
 30
0.0
  0
VERTEX
  5
C2
  8
LIZARD1
 10
0.4908062256036466
 20
0.9796569525229597
 30
0.0
 42
0.0277903162565947
  0
VERTEX
  5
C3
  8
LIZARD1
 10
0.4712638322454016
 20
0.9723739962662497
 30
0.0
  0
VERTEX
  5
C4
  8
LIZARD1
 10
0.3885023947744117
 20
0.9361770667100529
 30
0.0
 42
0.3575391530689911
  0
VERTEX
  5
C5
  8
LIZARD1
 10
0.2803044170556969
 20
0.7240939612477881
 30
0.0
  0
SEQEND
  5
C6
  8
LIZARD1
  0
POLYLINE
  5
43
  8
LIZARDETCH
 66
     1
 10
0.0
 20
0.0
 30
0.0
  0
VERTEX
  5
C7
  8
LIZARDETCH
 10
5.216695432996735
 20
4.543259001633658
 30
0.0
  0
VERTEX
  5
C8
  8
LIZARDETCH
 10
5.136201032805022
 20
4.453492796209016
 30
0.0
  0
VERTEX
  5
C9
  8
LIZARDETCH
 10
5.119823470588745
 20
4.374810365555301
 30
0.0
  0
VERTEX
  5
CA
  8
LIZARDETCH
 10
5.061896428405677
 20
4.325407629051138
 30
0.0
  0
SEQEND
  5
CB
  8
LIZARDETCH
  0
POLYLINE
  5
44
  8
LIZARDETCH
 66
     1
 10
0.0
 20
0.0
 30
0.0
  0
VERTEX
  5
CC
  8
LIZARDETCH
 10
5.003761779435188
 20
4.809783809418512
 30
0.0
  0
VERTEX
  5
CD
  8
LIZARDETCH
 10
4.927020923556411
 20
4.657636024086814
 30
0.0
  0
VERTEX
  5
CE
  8
LIZARDETCH
 10
4.862987033943149
 20
4.526470142685556
 30
0.0
  0
VERTEX
  5
CF
  8
LIZARDETCH
 10
4.857093381443067
 20
4.443684882418106
 30
0.0
  0
SEQEND
  5
D0
  8
LIZARDETCH
  0
POLYLINE
  5
45
  8
LIZARDETCH
 66
     1
 10
0.0
 20
0.0
 30
0.0
  0
VERTEX
  5
D1
  8
LIZARDETCH
 10
4.960785090879827
 20
2.18127610138036
 30
0.0
  0
VERTEX
  5
D2
  8
LIZARDETCH
 10
4.760375238414836
 20
2.309850978070815
 30
0.0
  0
VERTEX
  5
D3
  8
LIZARDETCH
 10
4.677567489049413
 20
2.404309261714318
 30
0.0
  0
VERTEX
  5
D4
  8
LIZARDETCH
 10
4.454013475656137
 20
2.393847624151223
 30
0.0
  0
VERTEX
  5
D5
  8
LIZARDETCH
 10
4.326280922347677
 20
2.412838303033781
 30
0.0
  0
VERTEX
  5
D6
  8
LIZARDETCH
 10
4.23882077817964
 20
2.393761047215647
 30
0.0
  0
SEQEND
  5
D7
  8
LIZARDETCH
  0
POLYLINE
  5
46
  8
LIZARDETCH
 66
     1
 10
0.0
 20
0.0
 30
0.0
  0
VERTEX
  5
D8
  8
LIZARDETCH
 10
4.703065015478631
 20
2.375130070349919
 30
0.0
  0
VERTEX
  5
D9
  8
LIZARDETCH
 10
4.708543615706454
 20
2.384436227039616
 30
0.0
  0
VERTEX
  5
DA
  8
LIZARDETCH
 10
4.712808773857375
 20
2.390697754597207
 30
0.0
  0
VERTEX
  5
DB
  8
LIZARDETCH
 10
4.717366058402426
 20
2.396653899011321
 30
0.0
  0
VERTEX
  5
DC
  8
LIZARDETCH
 10
4.722201990913074
 20
2.402302312430421
 30
0.0
  0
VERTEX
  5
DD
  8
LIZARDETCH
 10
4.727303092319633
 20
2.40764064600364
 30
0.0
  0
VERTEX
  5
DE
  8
LIZARDETCH
 10
4.732655883552428
 20
2.412666550880125
 30
0.0
  0
VERTEX
  5
DF
  8
LIZARDETCH
 10
4.738246885541773
 20
2.41737767820901
 30
0.0
  0
VERTEX
  5
E0
  8
LIZARDETCH
 10
4.744062619217989
 20
2.421771679139431
 30
0.0
  0
VERTEX
  5
E1
  8
LIZARDETCH
 10
4.750089605511396
 20
2.425846204820532
 30
0.0
  0
VERTEX
  5
E2
  8
LIZARDETCH
 10
4.756314365352322
 20
2.429598906401439
 30
0.0
  0
VERTEX
  5
E3
  8
LIZARDETCH
 10
4.762723419671076
 20
2.433027435031297
 30
0.0
  0
VERTEX
  5
E4
  8
LIZARDETCH
 10
4.769303289397974
 20
2.436129441859247
 30
0.0
  0
VERTEX
  5
E5
  8
LIZARDETCH
 10
4.77604049546335
 20
2.438902578034419
 30
0.0
  0
VERTEX
  5
E6
  8
LIZARDETCH
 10
4.782921558797515
 20
2.441344494705953
 30
0.0
  0
VERTEX
  5
E7
  8
LIZARDETCH
 10
4.789933000330793
 20
2.443452843022988
 30
0.0
  0
VERTEX
  5
E8
  8
LIZARDETCH
 10
4.797061340993499
 20
2.445225274134659
 30
0.0
  0
VERTEX
  5
E9
  8
LIZARDETCH
 10
4.80429310171596
 20
2.446659439190102
 30
0.0
  0
VERTEX
  5
EA
  8
LIZARDETCH
 10
4.811614803428485
 20
2.447752989338459
 30
0.0
  0
VERTEX
  5
EB
  8
LIZARDETCH
 10
4.819012967061407
 20
2.448503575728867
 30
0.0
  0
VERTEX
  5
EC
  8
LIZARDETCH
 10
4.826474113545028
 20
2.448908849510461
 30
0.0
  0
VERTEX
  5
ED
  8
LIZARDETCH
 10
4.833984763809682
 20
2.44896646183238
 30
0.0
  0
VERTEX
  5
EE
  8
LIZARDETCH
 10
4.841531438785686
 20
2.44867406384376
 30
0.0
  0
VERTEX
  5
EF
  8
LIZARDETCH
 10
4.849100659403361
 20
2.44802930669374
 30
0.0
  0
VERTEX
  5
F0
  8
LIZARDETCH
 10
4.856678946593022
 20
2.447029841531456
 30
0.0
  0
VERTEX
  5
F1
  8
LIZARDETCH
 10
4.864252821285
 20
2.445673319506047
 30
0.0
  0
VERTEX
  5
F2
  8
LIZARDETCH
 10
4.871808804409588
 20
2.443957391766653
 30
0.0
  0
VERTEX
  5
F3
  8
LIZARDETCH
 10
4.879333416897137
 20
2.4418797094624
 30
0.0
  0
VERTEX
  5
F4
  8
LIZARDETCH
 10
4.886813179677953
 20
2.43943792374244
 30
0.0
  0
VERTEX
  5
F5
  8
LIZARDETCH
 10
4.894234613682353
 20
2.4366296857559
 30
0.0
  0
VERTEX
  5
F6
  8
LIZARDETCH
 10
4.901584239840662
 20
2.433452646651926
 30
0.0
  0
VERTEX
  5
F7
  8
LIZARDETCH
 10
4.908848579083188
 20
2.429904457579652
 30
0.0
  0
VERTEX
  5
F8
  8
LIZARDETCH
 10
4.916014152340278
 20
2.425982769688209
 30
0.0
  0
VERTEX
  5
F9
  8
LIZARDETCH
 10
4.923067480542224
 20
2.421685234126743
 30
0.0
  0
VERTEX
  5
FA
  8
LIZARDETCH
 10
4.9299118514314
 20
2.417066566592859
 30
0.0
  0
VERTEX
  5
FB
  8
LIZARDETCH
 10
4.936461566293667
 20
2.412189078909867
 30
0.0
  0
VERTEX
  5
FC
  8
LIZARDETCH
 10
4.942713133164385
 20
2.407066007859639
 30
0.0
  0
VERTEX
  5
FD
  8
LIZARDETCH
 10
4.948663060078938
 20
2.401710590224008
 30
0.0
  0
VERTEX
  5
FE
  8
LIZARDETCH
 10
4.954307855072686
 20
2.396136062784852
 30
0.0
  0
VERTEX
  5
FF
  8
LIZARDETCH
 10
4.959644026180996
 20
2.390355662324007
 30
0.0
  0
VERTEX
  5
100
  8
LIZARDETCH
 10
4.964668081439261
 20
2.384382625623327
 30
0.0
  0
VERTEX
  5
101
  8
LIZARDETCH
 10
4.969376528882817
 20
2.378230189464674
 30
0.0
  0
VERTEX
  5
102
  8
LIZARDETCH
 10
4.973765876547068
 20
2.371911590629896
 30
0.0
  0
VERTEX
  5
103
  8
LIZARDETCH
 10
4.977832632467367
 20
2.365440065900853
 30
0.0
  0
VERTEX
  5
104
  8
LIZARDETCH
 10
4.981573304679078
 20
2.358828852059396
 30
0.0
  0
VERTEX
  5
105
  8
LIZARDETCH
 10
4.984984401217597
 20
2.352091185887373
 30
0.0
  0
VERTEX
  5
106
  8
LIZARDETCH
 10
4.988062430118273
 20
2.345240304166642
 30
0.0
  0
VERTEX
  5
107
  8
LIZARDETCH
 10
4.99080389941648
 20
2.338289443679066
 30
0.0
  0
VERTEX
  5
108
  8
LIZARDETCH
 10
4.99320531714759
 20
2.331251841206484
 30
0.0
  0
VERTEX
  5
109
  8
LIZARDETCH
 10
4.995263191346979
 20
2.324140733530756
 30
0.0
  0
VERTEX
  5
10A
  8
LIZARDETCH
 10
4.99697403005001
 20
2.316969357433738
 30
0.0
  0
VERTEX
  5
10B
  8
LIZARDETCH
 10
4.998334341292058
 20
2.309750949697284
 30
0.0
  0
VERTEX
  5
10C
  8
LIZARDETCH
 10
4.999340633108488
 20
2.302498747103247
 30
0.0
  0
VERTEX
  5
10D
  8
LIZARDETCH
 10
4.999989413534681
 20
2.295225986433474
 30
0.0
  0
VERTEX
  5
10E
  8
LIZARDETCH
 10
5.000277190606
 20
2.287945904469833
 30
0.0
  0
VERTEX
  5
10F
  8
LIZARDETCH
 10
5.000200472357818
 20
2.280671737994163
 30
0.0
  0
VERTEX
  5
110
  8
LIZARDETCH
 10
4.999755766825506
 20
2.273416723788327
 30
0.0
  0
VERTEX
  5
111
  8
LIZARDETCH
 10
4.99893958204443
 20
2.266194098634176
 30
0.0
  0
VERTEX
  5
112
  8
LIZARDETCH
 10
4.997748426049974
 20
2.25901709931356
 30
0.0
  0
VERTEX
  5
113
  8
LIZARDETCH
 10
4.99617880687749
 20
2.25189896260834
 30
0.0
  0
VERTEX
  5
114
  8
LIZARDETCH
 10
4.994227232562351
 20
2.244852925300368
 30
0.0
  0
VERTEX
  5
115
  8
LIZARDETCH
 10
4.991890211139946
 20
2.237892224171496
 30
0.0
  0
VERTEX
  5
116
  8
LIZARDETCH
 10
4.989164250645625
 20
2.231030096003578
 30
0.0
  0
VERTEX
  5
117
  8
LIZARDETCH
 10
4.986045859114776
 20
2.224279777578468
 30
0.0
  0
VERTEX
  5
118
  8
LIZARDETCH
 10
4.982531544582755
 20
2.217654505678024
 30
0.0
  0
VERTEX
  5
119
  8
LIZARDETCH
 10
4.978617815084935
 20
2.211167517084094
 30
0.0
  0
VERTEX
  5
11A
  8
LIZARDETCH
 10
4.974350421921246
 20
2.204909234618055
 30
0.0
  0
VERTEX
  5
11B
  8
LIZARDETCH
 10
4.969785895066881
 20
2.198956859535662
 30
0.0
  0
VERTEX
  5
11C
  8
LIZARDETCH
 10
4.964941102091657
 20
2.193310329601235
 30
0.0
  0
VERTEX
  5
11D
  8
LIZARDETCH
 10
4.960309000722619
 20
2.18462284197973
 30
0.0
  0
VERTEX
  5
11E
  8
LIZARDETCH
 10
5.03296437968463
 20
1.791572372825047
 30
0.0
  0
VERTEX
  5
11F
  8
LIZARDETCH
 10
5.096725204829323
 20
1.694692958779061
 30
0.0
  0
VERTEX
  5
120
  8
LIZARDETCH
 10
5.228980714054915
 20
1.557378680572355
 30
0.0
  0
VERTEX
  5
121
  8
LIZARDETCH
 10
5.263711873391244
 20
1.486140653080359
 30
0.0
  0
SEQEND
  5
122
  8
LIZARDETCH
  0
POLYLINE
  5
47
  8
LIZARDETCH
 66
     1
 10
0.0
 20
0.0
 30
0.0
  0
VERTEX
  5
123
  8
LIZARDETCH
 10
4.308184131526858
 20
4.052257298352456
 30
0.0
  0
VERTEX
  5
124
  8
LIZARDETCH
 10
4.19909418302666
 20
4.166315170705608
 30
0.0
  0
SEQEND
  5
125
  8
LIZARDETCH
  0
POLYLINE
  5
48
  8
LIZARDETCH
 66
     1
 10
0.0
 20
0.0
 30
0.0
  0
VERTEX
  5
126
  8
LIZARDETCH
 10
4.602674803707054
 20
2.113108951651018
 30
0.0
  0
VERTEX
  5
127
  8
LIZARDETCH
 10
4.584132539679716
 20
2.110069991977532
 30
0.0
  0
VERTEX
  5
128
  8
LIZARDETCH
 10
4.565607266751049
 20
2.107760918186762
 30
0.0
  0
VERTEX
  5
129
  8
LIZARDETCH
 10
4.547099317362706
 20
2.10616240570848
 30
0.0
  0
VERTEX
  5
12A
  8
LIZARDETCH
 10
4.528609023956344
 20
2.10525512997249
 30
0.0
  0
VERTEX
  5
12B
  8
LIZARDETCH
 10
4.510136718973635
 20
2.105019766408549
 30
0.0
  0
VERTEX
  5
12C
  8
LIZARDETCH
 10
4.49168273485625
 20
2.105436990446458
 30
0.0
  0
VERTEX
  5
12D
  8
LIZARDETCH
 10
4.47324740404583
 20
2.106487477515989
 30
0.0
  0
VERTEX
  5
12E
  8
LIZARDETCH
 10
4.454831058984057
 20
2.10815190304693
 30
0.0
  0
VERTEX
  5
12F
  8
LIZARDETCH
 10
4.436434032112583
 20
2.110410942469062
 30
0.0
  0
VERTEX
  5
130
  8
LIZARDETCH
 10
4.418056655873076
 20
2.113245271212167
 30
0.0
  0
VERTEX
  5
131
  8
LIZARDETCH
 10
4.3996992627072
 20
2.116635564706024
 30
0.0
  0
VERTEX
  5
132
  8
LIZARDETCH
 10
4.381362185056606
 20
2.120562498380432
 30
0.0
  0
VERTEX
  5
133
  8
LIZARDETCH
 10
4.363045755362978
 20
2.12500674766515
 30
0.0
  0
VERTEX
  5
134
  8
LIZARDETCH
 10
4.344750306067959
 20
2.129948987989975
 30
0.0
  0
VERTEX
  5
135
  8
LIZARDETCH
 10
4.326476169613215
 20
2.135369894784689
 30
0.0
  0
VERTEX
  5
136
  8
LIZARDETCH
 10
4.308223678440423
 20
2.141250143479066
 30
0.0
  0
VERTEX
  5
137
  8
LIZARDETCH
 10
4.28999316499123
 20
2.147570409502899
 30
0.0
  0
VERTEX
  5
138
  8
LIZARDETCH
 10
4.271784961707313
 20
2.154311368285962
 30
0.0
  0
VERTEX
  5
139
  8
LIZARDETCH
 10
4.253599401030312
 20
2.161453695258047
 30
0.0
  0
VERTEX
  5
13A
  8
LIZARDETCH
 10
4.23543681540192
 20
2.168978065848928
 30
0.0
  0
VERTEX
  5
13B
  8
LIZARDETCH
 10
4.217297537263772
 20
2.176865155488389
 30
0.0
  0
VERTEX
  5
13C
  8
LIZARDETCH
 10
4.199181899057551
 20
2.185095639606215
 30
0.0
  0
VERTEX
  5
13D
  8
LIZARDETCH
 10
4.181090233224908
 20
2.193650193632187
 30
0.0
  0
VERTEX
  5
13E
  8
LIZARDETCH
 10
4.163022872207514
 20
2.202509492996088
 30
0.0
  0
VERTEX
  5
13F
  8
LIZARDETCH
 10
4.144980148447028
 20
2.211654213127699
 30
0.0
  0
VERTEX
  5
140
  8
LIZARDETCH
 10
4.126962394385102
 20
2.221065029456808
 30
0.0
  0
VERTEX
  5
141
  8
LIZARDETCH
 10
4.091003125123636
 20
2.240607652426634
 30
0.0
  0
VERTEX
  5
142
  8
LIZARDETCH
 10
4.055147723956401
 20
2.260982765343822
 30
0.0
  0
VERTEX
  5
143
  8
LIZARDETCH
 10
4.019398850416698
 20
2.282035771646644
 30
0.0
  0
VERTEX
  5
144
  8
LIZARDETCH
 10
3.983759164037841
 20
2.303612074773348
 30
0.0
  0
VERTEX
  5
145
  8
LIZARDETCH
 10
3.948231324353126
 20
2.325557078162206
 30
0.0
  0
VERTEX
  5
146
  8
LIZARDETCH
 10
3.877521823199337
 20
2.369934799479396
 30
0.0
  0
VERTEX
  5
147
  8
LIZARDETCH
 10
3.807291623221755
 20
2.413932163104298
 30
0.0
  0
VERTEX
  5
148
  8
LIZARDETCH
 10
3.772362910007294
 20
2.43540171937779
 30
0.0
  0
VERTEX
  5
149
  8
LIZARDETCH
 10
3.737562000686799
 20
2.456312396542993
 30
0.0
  0
VERTEX
  5
14A
  8
LIZARDETCH
 10
3.702891554793561
 20
2.476509598038165
 30
0.0
  0
VERTEX
  5
14B
  8
LIZARDETCH
 10
3.668354231860887
 20
2.495838727301569
 30
0.0
  0
VERTEX
  5
14C
  8
LIZARDETCH
 10
3.633952691422078
 20
2.514145187771456
 30
0.0
  0
VERTEX
  5
14D
  8
LIZARDETCH
 10
3.616803670742033
 20
2.522866605783293
 30
0.0
  0
VERTEX
  5
14E
  8
LIZARDETCH
 10
3.599689593010441
 20
2.531274382886097
 30
0.0
  0
VERTEX
  5
14F
  8
LIZARDETCH
 10
3.582610790668966
 20
2.539349194509658
 30
0.0
  0
VERTEX
  5
150
  8
LIZARDETCH
 10
3.565567596159271
 20
2.547071716083749
 30
0.0
  0
VERTEX
  5
151
  8
LIZARDETCH
 10
3.548560341923024
 20
2.554422623038162
 30
0.0
  0
VERTEX
  5
152
  8
LIZARDETCH
 10
3.531589360401882
 20
2.561382590802672
 30
0.0
  0
VERTEX
  5
153
  8
LIZARDETCH
 10
3.514654984037509
 20
2.567932294807063
 30
0.0
  0
VERTEX
  5
154
  8
LIZARDETCH
 10
3.497757545271566
 20
2.574052410481122
 30
0.0
  0
VERTEX
  5
155
  8
LIZARDETCH
 10
3.480897376545718
 20
2.579723613254628
 30
0.0
  0
VERTEX
  5
156
  8
LIZARDETCH
 10
3.46407481030163
 20
2.584926578557363
 30
0.0
  0
VERTEX
  5
157
  8
LIZARDETCH
 10
3.403971246205647
 20
2.602268335891935
 30
0.0
  0
VERTEX
  5
158
  8
LIZARDETCH
 10
3.341001786127847
 20
2.61961547894086
 30
0.0
  0
VERTEX
  5
159
  8
LIZARDETCH
 10
3.275552538167747
 20
2.636766300092435
 30
0.0
  0
VERTEX
  5
15A
  8
LIZARDETCH
 10
3.208009610424851
 20
2.653519091734952
 30
0.0
  0
VERTEX
  5
15B
  8
LIZARDETCH
 10
3.173573675415954
 20
2.66168319286166
 30
0.0
  0
VERTEX
  5
15C
  8
LIZARDETCH
 10
3.138759110998674
 20
2.669672146256713
 30
0.0
  0
VERTEX
  5
15D
  8
LIZARDETCH
 10
3.103614180685446
 20
2.677460738468649
 30
0.0
  0
VERTEX
  5
15E
  8
LIZARDETCH
 10
3.068187147988712
 20
2.685023756046007
 30
0.0
  0
VERTEX
  5
15F
  8
LIZARDETCH
 10
3.032526276420909
 20
2.692335985537325
 30
0.0
  0
VERTEX
  5
160
  8
LIZARDETCH
 10
2.996679829494481
 20
2.699372213491138
 30
0.0
  0
VERTEX
  5
161
  8
LIZARDETCH
 10
2.960696070721861
 20
2.706107226455986
 30
0.0
  0
VERTEX
  5
162
  8
LIZARDETCH
 10
2.924623263615487
 20
2.712515810980402
 30
0.0
  0
VERTEX
  5
163
  8
LIZARDETCH
 10
2.888509671687799
 20
2.718572753612926
 30
0.0
  0
VERTEX
  5
164
  8
LIZARDETCH
 10
2.852403558451242
 20
2.724252840902092
 30
0.0
  0
VERTEX
  5
165
  8
LIZARDETCH
 10
2.816353187418241
 20
2.729530859396439
 30
0.0
  0
VERTEX
  5
166
  8
LIZARDETCH
 10
2.780406822101242
 20
2.734381595644507
 30
0.0
  0
VERTEX
  5
167
  8
LIZARDETCH
 10
2.744612726012689
 20
2.738779836194829
 30
0.0
  0
VERTEX
  5
168
  8
LIZARDETCH
 10
2.709019162665011
 20
2.742700367595941
 30
0.0
  0
VERTEX
  5
169
  8
LIZARDETCH
 10
2.67367439557065
 20
2.746117976396386
 30
0.0
  0
VERTEX
  5
16A
  8
LIZARDETCH
 10
2.638626688242044
 20
2.749007449144695
 30
0.0
  0
VERTEX
  5
16B
  8
LIZARDETCH
 10
2.603924304191632
 20
2.751343572389406
 30
0.0
  0
VERTEX
  5
16C
  8
LIZARDETCH
 10
2.569615506931856
 20
2.753101132679062
 30
0.0
  0
VERTEX
  5
16D
  8
LIZARDETCH
 10
2.535748559975147
 20
2.754254916562191
 30
0.0
  0
VERTEX
  5
16E
  8
LIZARDETCH
 10
2.50237172683395
 20
2.754779710587334
 30
0.0
  0
VERTEX
  5
16F
  8
LIZARDETCH
 10
2.469533271020704
 20
2.754650301303033
 30
0.0
  0
VERTEX
  5
170
  8
LIZARDETCH
 10
2.437281456047841
 20
2.753841475257816
 30
0.0
  0
VERTEX
  5
171
  8
LIZARDETCH
 10
2.405664545427806
 20
2.752328019000229
 30
0.0
  0
VERTEX
  5
172
  8
LIZARDETCH
 10
2.374730802673032
 20
2.750084719078803
 30
0.0
  0
VERTEX
  5
173
  8
LIZARDETCH
 10
2.335395080662215
 20
2.746954042880156
 30
0.0
  0
VERTEX
  5
174
  8
LIZARDETCH
 10
2.296314176081351
 20
2.744317165071864
 30
0.0
  0
VERTEX
  5
175
  8
LIZARDETCH
 10
2.257477158523533
 20
2.742175573617887
 30
0.0
  0
VERTEX
  5
176
  8
LIZARDETCH
 10
2.218873097581849
 20
2.740530756482184
 30
0.0
  0
VERTEX
  5
177
  8
LIZARDETCH
 10
2.180491062849395
 20
2.739384201628717
 30
0.0
  0
VERTEX
  5
178
  8
LIZARDETCH
 10
2.142320123919274
 20
2.738737397021439
 30
0.0
  0
VERTEX
  5
179
  8
LIZARDETCH
 10
2.104349350384566
 20
2.738591830624312
 30
0.0
  0
VERTEX
  5
17A
  8
LIZARDETCH
 10
2.066567811838374
 20
2.738948990401294
 30
0.0
  0
VERTEX
  5
17B
  8
LIZARDETCH
 10
2.028964577873786
 20
2.739810364316346
 30
0.0
  0
VERTEX
  5
17C
  8
LIZARDETCH
 10
1.991528718083897
 20
2.741177440333424
 30
0.0
  0
VERTEX
  5
17D
  8
LIZARDETCH
 10
1.954249302061799
 20
2.743051706416487
 30
0.0
  0
VERTEX
  5
17E
  8
LIZARDETCH
 10
1.917115399400588
 20
2.745434650529496
 30
0.0
  0
VERTEX
  5
17F
  8
LIZARDETCH
 10
1.880116079693356
 20
2.74832776063641
 30
0.0
  0
VERTEX
  5
180
  8
LIZARDETCH
 10
1.843240412533196
 20
2.751732524701185
 30
0.0
  0
VERTEX
  5
181
  8
LIZARDETCH
 10
1.806477467513204
 20
2.755650430687782
 30
0.0
  0
VERTEX
  5
182
  8
LIZARDETCH
 10
1.769816314226469
 20
2.760082966560158
 30
0.0
  0
VERTEX
  5
183
  8
LIZARDETCH
 10
1.733246022266085
 20
2.765031620282274
 30
0.0
  0
VERTEX
  5
184
  8
LIZARDETCH
 10
1.69675566122515
 20
2.77049787981809
 30
0.0
  0
VERTEX
  5
185
  8
LIZARDETCH
 10
1.660334300696753
 20
2.776483233131561
 30
0.0
  0
VERTEX
  5
186
  8
LIZARDETCH
 10
1.623971010273987
 20
2.782989168186649
 30
0.0
  0
VERTEX
  5
187
  8
LIZARDETCH
 10
1.587654859549948
 20
2.790017172947311
 30
0.0
  0
VERTEX
  5
188
  8
LIZARDETCH
 10
1.551374918117732
 20
2.797568735377506
 30
0.0
  0
VERTEX
  5
189
  8
LIZARDETCH
 10
1.515120255570426
 20
2.805645343441191
 30
0.0
  0
VERTEX
  5
18A
  8
LIZARDETCH
 10
1.478879941501126
 20
2.814248485102331
 30
0.0
  0
VERTEX
  5
18B
  8
LIZARDETCH
 10
1.442643045502926
 20
2.823379648324883
 30
0.0
  0
VERTEX
  5
18C
  8
LIZARDETCH
 10
1.406398637168919
 20
2.8330403210728
 30
0.0
  0
VERTEX
  5
18D
  8
LIZARDETCH
 10
1.370135786092199
 20
2.843231991310044
 30
0.0
  0
VERTEX
  5
18E
  8
LIZARDETCH
 10
1.333843561865861
 20
2.853956147000575
 30
0.0
  0
VERTEX
  5
18F
  8
LIZARDETCH
 10
1.297511034082991
 20
2.865214276108356
 30
0.0
  0
VERTEX
  5
190
  8
LIZARDETCH
 10
1.261127272336692
 20
2.877007866597337
 30
0.0
  0
VERTEX
  5
191
  8
LIZARDETCH
 10
1.224681346220052
 20
2.889338406431482
 30
0.0
  0
VERTEX
  5
192
  8
LIZARDETCH
 10
1.188162325326164
 20
2.902207383574748
 30
0.0
  0
VERTEX
  5
193
  8
LIZARDETCH
 10
1.173903387257145
 20
2.907497725714204
 30
0.0
  0
VERTEX
  5
194
  8
LIZARDETCH
 10
1.159374442845279
 20
2.913213280788964
 30
0.0
  0
VERTEX
  5
195
  8
LIZARDETCH
 10
1.144588056289996
 20
2.919343037316694
 30
0.0
  0
VERTEX
  5
196
  8
LIZARDETCH
 10
1.129556791790763
 20
2.925875983815068
 30
0.0
  0
VERTEX
  5
197
  8
LIZARDETCH
 10
1.114293213547021
 20
2.932801108801752
 30
0.0
  0
VERTEX
  5
198
  8
LIZARDETCH
 10
1.098809885758218
 20
2.940107400794418
 30
0.0
  0
VERTEX
  5
199
  8
LIZARDETCH
 10
1.067234238343217
 20
2.955819439868379
 30
0.0
  0
VERTEX
  5
19A
  8
LIZARDETCH
 10
1.034930363141354
 20
2.972924009178312
 30
0.0
  0
VERTEX
  5
19B
  8
LIZARDETCH
 10
1.001998773748218
 20
2.991333016865574
 30
0.0
  0
VERTEX
  5
19C
  8
LIZARDETCH
 10
0.9685399837593915
 20
3.010958371071525
 30
0.0
  0
VERTEX
  5
19D
  8
LIZARDETCH
 10
0.9346545067704672
 20
3.031711979937528
 30
0.0
  0
VERTEX
  5
19E
  8
LIZARDETCH
 10
0.9004428563770219
 20
3.053505751604948
 30
0.0
  0
VERTEX
  5
19F
  8
LIZARDETCH
 10
0.8660055461746567
 20
3.076251594215136
 30
0.0
  0
VERTEX
  5
1A0
  8
LIZARDETCH
 10
0.8314430897589469
 20
3.099861415909459
 30
0.0
  0
VERTEX
  5
1A1
  8
LIZARDETCH
 10
0.7968560007254897
 20
3.124247124829277
 30
0.0
  0
VERTEX
  5
1A2
  8
LIZARDETCH
 10
0.7623447926698603
 20
3.14932062911595
 30
0.0
  0
VERTEX
  5
1A3
  8
LIZARDETCH
 10
0.7280099791876578
 20
3.174993836910832
 30
0.0
  0
VERTEX
  5
1A4
  8
LIZARDETCH
 10
0.6939520738744629
 20
3.201178656355296
 30
0.0
  0
VERTEX
  5
1A5
  8
LIZARDETCH
 10
0.6602715903258622
 20
3.227786995590693
 30
0.0
  0
VERTEX
  5
1A6
  8
LIZARDETCH
 10
0.6270690421374501
 20
3.25473076275839
 30
0.0
  0
VERTEX
  5
1A7
  8
LIZARDETCH
 10
0.5944449429048055
 20
3.281921865999742
 30
0.0
  0
VERTEX
  5
1A8
  8
LIZARDETCH
 10
0.5624998062235191
 20
3.30927221345611
 30
0.0
  0
VERTEX
  5
1A9
  8
LIZARDETCH
 10
0.5313341456891787
 20
3.336693713268862
 30
0.0
  0
VERTEX
  5
1AA
  8
LIZARDETCH
 10
0.5010484748973698
 20
3.36409827357935
 30
0.0
  0
VERTEX
  5
1AB
  8
LIZARDETCH
 10
0.4717433074436813
 20
3.391397802528939
 30
0.0
  0
VERTEX
  5
1AC
  8
LIZARDETCH
 10
0.4435191569236995
 20
3.418504208258987
 30
0.0
  0
VERTEX
  5
1AD
  8
LIZARDETCH
 10
0.4164765369330084
 20
3.445329398910858
 30
0.0
  0
VERTEX
  5
1AE
  8
LIZARDETCH
 10
0.3907159610671984
 20
3.471785282625905
 30
0.0
  0
VERTEX
  5
1AF
  8
LIZARDETCH
 10
0.3663379429218588
 20
3.497783767545499
 30
0.0
  0
VERTEX
  5
1B0
  8
LIZARDETCH
 10
0.3434429960925798
 20
3.523236761810994
 30
0.0
  0
VERTEX
  5
1B1
  8
LIZARDETCH
 10
0.3221316341749364
 20
3.548056173563751
 30
0.0
  0
VERTEX
  5
1B2
  8
LIZARDETCH
 10
0.3025043707645258
 20
3.572153910945135
 30
0.0
  0
VERTEX
  5
1B3
  8
LIZARDETCH
 10
0.2846617194569286
 20
3.5954418820965
 30
0.0
  0
VERTEX
  5
1B4
  8
LIZARDETCH
 10
0.2764410338403075
 20
3.606754676630101
 30
0.0
  0
VERTEX
  5
1B5
  8
LIZARDETCH
 10
0.2687041938477421
 20
3.617831995159208
 30
0.0
  0
VERTEX
  5
1B6
  8
LIZARDETCH
 10
0.2614637636786626
 20
3.628662826201493
 30
0.0
  0
VERTEX
  5
1B7
  8
LIZARDETCH
 10
0.2533671807271266
 20
3.634199158162808
 30
0.0
  0
VERTEX
  5
1B8
  8
LIZARDETCH
 10
0.2559973507454386
 20
3.614854854492681
 30
0.0
  0
VERTEX
  5
1B9
  8
LIZARDETCH
 10
0.2603245055415618
 20
3.600644388880116
 30
0.0
  0
VERTEX
  5
1BA
  8
LIZARDETCH
 10
0.2649795607490184
 20
3.586530779979994
 30
0.0
  0
VERTEX
  5
1BB
  8
LIZARDETCH
 10
0.2699585588067505
 20
3.572514046559004
 30
0.0
  0
VERTEX
  5
1BC
  8
LIZARDETCH
 10
0.2752575421536896
 20
3.55859420738384
 30
0.0
  0
VERTEX
  5
1BD
  8
LIZARDETCH
 10
0.2808725532287714
 20
3.544771281221202
 30
0.0
  0
VERTEX
  5
1BE
  8
LIZARDETCH
 10
0.2867996344709372
 20
3.53104528683778
 30
0.0
  0
VERTEX
  5
1BF
  8
LIZARDETCH
 10
0.2930348283191226
 20
3.517416243000267
 30
0.0
  0
VERTEX
  5
1C0
  8
LIZARDETCH
 10
0.2995741772122625
 20
3.503884168475369
 30
0.0
  0
VERTEX
  5
1C1
  8
LIZARDETCH
 10
0.3064137235892891
 20
3.490449082029773
 30
0.0
  0
VERTEX
  5
1C2
  8
LIZARDETCH
 10
0.3135495098891442
 20
3.477111002430175
 30
0.0
  0
VERTEX
  5
1C3
  8
LIZARDETCH
 10
0.320977578550763
 20
3.463869948443271
 30
0.0
  0
VERTEX
  5
1C4
  8
LIZARDETCH
 10
0.3286939720130841
 20
3.450725938835749
 30
0.0
  0
VERTEX
  5
1C5
  8
LIZARDETCH
 10
0.3366947327150349
 20
3.437678992374316
 30
0.0
  0
VERTEX
  5
1C6
  8
LIZARDETCH
 10
0.3449759030955636
 20
3.424729127825655
 30
0.0
  0
VERTEX
  5
1C7
  8
LIZARDETCH
 10
0.3535335255936019
 20
3.411876363956472
 30
0.0
  0
VERTEX
  5
1C8
  8
LIZARDETCH
 10
0.3623636426480887
 20
3.399120719533451
 30
0.0
  0
VERTEX
  5
1C9
  8
LIZARDETCH
 10
0.3714622966979528
 20
3.386462213323295
 30
0.0
  0
VERTEX
  5
1CA
  8
LIZARDETCH
 10
0.3808255301821337
 20
3.373900864092699
 30
0.0
  0
VERTEX
  5
1CB
  8
LIZARDETCH
 10
0.3904493855395756
 20
3.361436690608353
 30
0.0
  0
VERTEX
  5
1CC
  8
LIZARDETCH
 10
0.4003299052092047
 20
3.349069711636952
 30
0.0
  0
VERTEX
  5
1CD
  8
LIZARDETCH
 10
0.4104631316299638
 20
3.3367999459452
 30
0.0
  0
VERTEX
  5
1CE
  8
LIZARDETCH
 10
0.4208451072407852
 20
3.324627412299777
 30
0.0
  0
VERTEX
  5
1CF
  8
LIZARDETCH
 10
0.4314718744806101
 20
3.312552129467388
 30
0.0
  0
VERTEX
  5
1D0
  8
LIZARDETCH
 10
0.4423394757883719
 20
3.300574116214726
 30
0.0
  0
VERTEX
  5
1D1
  8
LIZARDETCH
 10
0.4534439536030055
 20
3.288693391308488
 30
0.0
  0
VERTEX
  5
1D2
  8
LIZARDETCH
 10
0.4763477085086409
 20
3.265223881602056
 30
0.0
  0
VERTEX
  5
1D3
  8
LIZARDETCH
 10
0.5001514787090036
 20
3.242143750481649
 30
0.0
  0
VERTEX
  5
1D4
  8
LIZARDETCH
 10
0.5248236037155962
 20
3.219453148080824
 30
0.0
  0
VERTEX
  5
1D5
  8
LIZARDETCH
 10
0.5503324230399023
 20
3.197152224533147
 30
0.0
  0
VERTEX
  5
1D6
  8
LIZARDETCH
 10
0.5766462761934092
 20
3.175241129972174
 30
0.0
  0
VERTEX
  5
1D7
  8
LIZARDETCH
 10
0.6037335026876174
 20
3.153720014531463
 30
0.0
  0
VERTEX
  5
1D8
  8
LIZARDETCH
 10
0.6315624420340145
 20
3.132589028344575
 30
0.0
  0
VERTEX
  5
1D9
  8
LIZARDETCH
 10
0.6601014337440936
 20
3.111848321545068
 30
0.0
  0
VERTEX
  5
1DA
  8
LIZARDETCH
 10
0.6893188173293441
 20
3.091498044266503
 30
0.0
  0
VERTEX
  5
1DB
  8
LIZARDETCH
 10
0.7191829323012553
 20
3.07153834664244
 30
0.0
  0
VERTEX
  5
1DC
  8
LIZARDETCH
 10
0.7496621181713237
 20
3.051969378806437
 30
0.0
  0
VERTEX
  5
1DD
  8
LIZARDETCH
 10
0.780724714451041
 20
3.032791290892052
 30
0.0
  0
VERTEX
  5
1DE
  8
LIZARDETCH
 10
0.8123390606518912
 20
3.014004233032847
 30
0.0
  0
VERTEX
  5
1DF
  8
LIZARDETCH
 10
0.8444734962853735
 20
2.995608355362379
 30
0.0
  0
VERTEX
  5
1E0
  8
LIZARDETCH
 10
0.8770963608629778
 20
2.977603808014209
 30
0.0
  0
VERTEX
  5
1E1
  8
LIZARDETCH
 10
0.9101759938961924
 20
2.959990741121895
 30
0.0
  0
VERTEX
  5
1E2
  8
LIZARDETCH
 10
0.9436807348965099
 20
2.942769304818999
 30
0.0
  0
VERTEX
  5
1E3
  8
LIZARDETCH
 10
0.9775789233754255
 20
2.925939649239078
 30
0.0
  0
VERTEX
  5
1E4
  8
LIZARDETCH
 10
1.011838898844425
 20
2.909501924515692
 30
0.0
  0
VERTEX
  5
1E5
  8
LIZARDETCH
 10
1.046429000815007
 20
2.893456280782397
 30
0.0
  0
VERTEX
  5
1E6
  8
LIZARDETCH
 10
1.081317568798654
 20
2.877802868172759
 30
0.0
  0
VERTEX
  5
1E7
  8
LIZARDETCH
 10
1.116472942306864
 20
2.862541836820335
 30
0.0
  0
VERTEX
  5
1E8
  8
LIZARDETCH
 10
1.151863460851126
 20
2.847673336858682
 30
0.0
  0
VERTEX
  5
1E9
  8
LIZARDETCH
 10
1.187457463942935
 20
2.833197518421358
 30
0.0
  0
VERTEX
  5
1EA
  8
LIZARDETCH
 10
1.223223291093778
 20
2.819114531641928
 30
0.0
  0
VERTEX
  5
1EB
  8
LIZARDETCH
 10
1.259129281815143
 20
2.805424526653951
 30
0.0
  0
VERTEX
  5
1EC
  8
LIZARDETCH
 10
1.295143775618533
 20
2.792127653590976
 30
0.0
  0
VERTEX
  5
1ED
  8
LIZARDETCH
 10
1.331235112015431
 20
2.779224062586573
 30
0.0
  0
VERTEX
  5
1EE
  8
LIZARDETCH
 10
1.367371630517331
 20
2.766713903774301
 30
0.0
  0
VERTEX
  5
1EF
  8
LIZARDETCH
 10
1.403521670635724
 20
2.754597327287716
 30
0.0
  0
VERTEX
  5
1F0
  8
LIZARDETCH
 10
1.439653571882104
 20
2.742874483260377
 30
0.0
  0
VERTEX
  5
1F1
  8
LIZARDETCH
 10
1.475735673767953
 20
2.731545521825843
 30
0.0
  0
VERTEX
  5
1F2
  8
LIZARDETCH
 10
1.511736315804774
 20
2.720610593117677
 30
0.0
  0
VERTEX
  5
1F3
  8
LIZARDETCH
 10
1.547623837504054
 20
2.710069847269438
 30
0.0
  0
VERTEX
  5
1F4
  8
LIZARDETCH
 10
1.583366578377285
 20
2.699923434414681
 30
0.0
  0
VERTEX
  5
1F5
  8
LIZARDETCH
 10
1.618932877935956
 20
2.690171504686965
 30
0.0
  0
VERTEX
  5
1F6
  8
LIZARDETCH
 10
1.654291075691558
 20
2.680814208219858
 30
0.0
  0
VERTEX
  5
1F7
  8
LIZARDETCH
 10
1.689409511155587
 20
2.671851695146909
 30
0.0
  0
VERTEX
  5
1F8
  8
LIZARDETCH
 10
1.724256523839534
 20
2.663284115601685
 30
0.0
  0
VERTEX
  5
1F9
  8
LIZARDETCH
 10
1.758800453254888
 20
2.655111619717738
 30
0.0
  0
VERTEX
  5
1FA
  8
LIZARDETCH
 10
1.793009638913139
 20
2.647334357628636
 30
0.0
  0
VERTEX
  5
1FB
  8
LIZARDETCH
 10
1.826852420325784
 20
2.639952479467935
 30
0.0
  0
VERTEX
  5
1FC
  8
LIZARDETCH
 10
1.860297137004308
 20
2.632966135369186
 30
0.0
  0
VERTEX
  5
1FD
  8
LIZARDETCH
 10
1.893312128460207
 20
2.626375475465963
 30
0.0
  0
VERTEX
  5
1FE
  8
LIZARDETCH
 10
1.925865734204972
 20
2.620180649891814
 30
0.0
  0
VERTEX
  5
1FF
  8
LIZARDETCH
 10
1.957926293750093
 20
2.614381808780303
 30
0.0
  0
VERTEX
  5
200
  8
LIZARDETCH
 10
1.98946214660706
 20
2.608979102264991
 30
0.0
  0
VERTEX
  5
201
  8
LIZARDETCH
 10
2.020441632287369
 20
2.603972680479429
 30
0.0
  0
VERTEX
  5
202
  8
LIZARDETCH
 10
2.050833090302509
 20
2.599362693557191
 30
0.0
  0
VERTEX
  5
203
  8
LIZARDETCH
 10
2.08060486016397
 20
2.595149291631822
 30
0.0
  0
VERTEX
  5
204
  8
LIZARDETCH
 10
2.109725281383243
 20
2.591332624836888
 30
0.0
  0
VERTEX
  5
205
  8
LIZARDETCH
 10
2.18473336774403
 20
2.582263013042777
 30
0.0
  0
VERTEX
  5
206
  8
LIZARDETCH
 10
2.260900863047334
 20
2.573644202244499
 30
0.0
  0
VERTEX
  5
207
  8
LIZARDETCH
 10
2.416189983038357
 20
2.557132927663043
 30
0.0
  0
VERTEX
  5
208
  8
LIZARDETCH
 10
2.574544446470037
 20
2.540546689147657
 30
0.0
  0
VERTEX
  5
209
  8
LIZARDETCH
 10
2.654543621074167
 20
2.531834173431971
 30
0.0
  0
VERTEX
  5
20A
  8
LIZARDETCH
 10
2.734916058456111
 20
2.522633374753482
 30
0.0
  0
VERTEX
  5
20B
  8
LIZARDETCH
 10
2.815530734255081
 20
2.512787779119077
 30
0.0
  0
VERTEX
  5
20C
  8
LIZARDETCH
 10
2.8962566241103
 20
2.502140872535654
 30
0.0
  0
VERTEX
  5
20D
  8
LIZARDETCH
 10
2.936620329196255
 20
2.496468017015216
 30
0.0
  0
VERTEX
  5
20E
  8
LIZARDETCH
 10
2.976962703660978
 20
2.490536141010106
 30
0.0
  0
VERTEX
  5
20F
  8
LIZARDETCH
 10
3.01726736945937
 20
2.484325680271184
 30
0.0
  0
VERTEX
  5
210
  8
LIZARDETCH
 10
3.057517948546337
 20
2.477817070549317
 30
0.0
  0
VERTEX
  5
211
  8
LIZARDETCH
 10
3.097698062876773
 20
2.470990747595368
 30
0.0
  0
VERTEX
  5
212
  8
LIZARDETCH
 10
3.137791334405584
 20
2.463827147160187
 30
0.0
  0
VERTEX
  5
213
  8
LIZARDETCH
 10
3.177781385087676
 20
2.456306704994648
 30
0.0
  0
VERTEX
  5
214
  8
LIZARDETCH
 10
3.217651836877947
 20
2.448409856849608
 30
0.0
  0
VERTEX
  5
215
  8
LIZARDETCH
 10
3.257386311731299
 20
2.44011703847593
 30
0.0
  0
VERTEX
  5
216
  8
LIZARDETCH
 10
3.296968431602637
 20
2.431408685624469
 30
0.0
  0
VERTEX
  5
217
  8
LIZARDETCH
 10
3.336381818446858
 20
2.422265234046096
 30
0.0
  0
VERTEX
  5
218
  8
LIZARDETCH
 10
3.375610094218867
 20
2.412667119491667
 30
0.0
  0
VERTEX
  5
219
  8
LIZARDETCH
 10
3.414636880873564
 20
2.402594777712044
 30
0.0
  0
VERTEX
  5
21A
  8
LIZARDETCH
 10
3.453445800365856
 20
2.392028644458088
 30
0.0
  0
VERTEX
  5
21B
  8
LIZARDETCH
 10
3.492020474650641
 20
2.380949155480662
 30
0.0
  0
VERTEX
  5
21C
  8
LIZARDETCH
 10
3.53034452568282
 20
2.36933674653063
 30
0.0
  0
VERTEX
  5
21D
  8
LIZARDETCH
 10
3.568401575417297
 20
2.357171853358851
 30
0.0
  0
VERTEX
  5
21E
  8
LIZARDETCH
 10
3.606175245808979
 20
2.344434911716184
 30
0.0
  0
VERTEX
  5
21F
  8
LIZARDETCH
 10
3.643649158812756
 20
2.331106357353493
 30
0.0
  0
VERTEX
  5
220
  8
LIZARDETCH
 10
3.680806936383539
 20
2.317166626021644
 30
0.0
  0
VERTEX
  5
221
  8
LIZARDETCH
 10
3.717632200476231
 20
2.30259615347149
 30
0.0
  0
VERTEX
  5
222
  8
LIZARDETCH
 10
3.754108573045728
 20
2.287375375453897
 30
0.0
  0
VERTEX
  5
223
  8
LIZARDETCH
 10
3.790219676046938
 20
2.271484727719725
 30
0.0
  0
VERTEX
  5
224
  8
LIZARDETCH
 10
3.825949131434756
 20
2.254904646019837
 30
0.0
  0
VERTEX
  5
225
  8
LIZARDETCH
 10
3.861280561164091
 20
2.237615566105096
 30
0.0
  0
VERTEX
  5
226
  8
LIZARDETCH
 10
3.896197587189838
 20
2.219597923726362
 30
0.0
  0
VERTEX
  5
227
  8
LIZARDETCH
 10
3.930683831466906
 20
2.200832154634495
 30
0.0
  0
VERTEX
  5
228
  8
LIZARDETCH
 10
3.964722915950198
 20
2.181298694580358
 30
0.0
  0
VERTEX
  5
229
  8
LIZARDETCH
 10
3.998298462594608
 20
2.160977979314811
 30
0.0
  0
VERTEX
  5
22A
  8
LIZARDETCH
 10
4.014907291088137
 20
2.150516287149907
 30
0.0
  0
VERTEX
  5
22B
  8
LIZARDETCH
 10
4.031394093355041
 20
2.139850444588723
 30
0.0
  0
VERTEX
  5
22C
  8
LIZARDETCH
 10
4.047756822139671
 20
2.128978006100118
 30
0.0
  0
VERTEX
  5
22D
  8
LIZARDETCH
 10
4.063993430186399
 20
2.117896526152947
 30
0.0
  0
VERTEX
  5
22E
  8
LIZARDETCH
 10
4.080101870239579
 20
2.10660355921607
 30
0.0
  0
VERTEX
  5
22F
  8
LIZARDETCH
 10
4.096080095043585
 20
2.095096659758346
 30
0.0
  0
VERTEX
  5
230
  8
LIZARDETCH
 10
4.111926057342774
 20
2.083373382248634
 30
0.0
  0
VERTEX
  5
231
  8
LIZARDETCH
 10
4.127637709881506
 20
2.07143128115578
 30
0.0
  0
VERTEX
  5
232
  8
LIZARDETCH
 10
4.143213005404144
 20
2.05926791094866
 30
0.0
  0
VERTEX
  5
233
  8
LIZARDETCH
 10
4.158649896655052
 20
2.046880826096121
 30
0.0
  0
VERTEX
  5
234
  8
LIZARDETCH
 10
4.1739463363786
 20
2.034267581067021
 30
0.0
  0
VERTEX
  5
235
  8
LIZARDETCH
 10
4.189100277319143
 20
2.021425730330215
 30
0.0
  0
VERTEX
  5
236
  8
LIZARDETCH
 10
4.204109672221042
 20
2.008352828354569
 30
0.0
  0
VERTEX
  5
237
  8
LIZARDETCH
 10
4.218972473828662
 20
1.995046429608935
 30
0.0
  0
VERTEX
  5
238
  8
LIZARDETCH
 10
4.233686634886363
 20
1.981504088562174
 30
0.0
  0
VERTEX
  5
239
  8
LIZARDETCH
 10
4.248250108138522
 20
1.967723359683139
 30
0.0
  0
VERTEX
  5
23A
  8
LIZARDETCH
 10
4.262660846329486
 20
1.95370179744069
 30
0.0
  0
VERTEX
  5
23B
  8
LIZARDETCH
 10
4.276916802203626
 20
1.939436956303685
 30
0.0
  0
VERTEX
  5
23C
  8
LIZARDETCH
 10
4.291015928505296
 20
1.924926390740984
 30
0.0
  0
VERTEX
  5
23D
  8
LIZARDETCH
 10
4.304956177978862
 20
1.910167655221445
 30
0.0
  0
VERTEX
  5
23E
  8
LIZARDETCH
 10
4.318735503368698
 20
1.895158304213918
 30
0.0
  0
VERTEX
  5
23F
  8
LIZARDETCH
 10
4.332351857419147
 20
1.87989589218727
 30
0.0
  0
VERTEX
  5
240
  8
LIZARDETCH
 10
4.345803192874595
 20
1.86437797361035
 30
0.0
  0
VERTEX
  5
241
  8
LIZARDETCH
 10
4.359087462479384
 20
1.848602102952023
 30
0.0
  0
VERTEX
  5
242
  8
LIZARDETCH
 10
4.372202618977883
 20
1.832565834681145
 30
0.0
  0
VERTEX
  5
243
  8
LIZARDETCH
 10
4.385146615114466
 20
1.816266723266573
 30
0.0
  0
VERTEX
  5
244
  8
LIZARDETCH
 10
4.397917403633482
 20
1.799702323177156
 30
0.0
  0
VERTEX
  5
245
  8
LIZARDETCH
 10
4.410512937279299
 20
1.782870188881766
 30
0.0
  0
VERTEX
  5
246
  8
LIZARDETCH
 10
4.422931168796275
 20
1.765767874849258
 30
0.0
  0
VERTEX
  5
247
  8
LIZARDETCH
 10
4.435170050928773
 20
1.748392935548485
 30
0.0
  0
SEQEND
  5
248
  8
LIZARDETCH
  0
POLYLINE
  5
49
  8
LIZARDETCH
 66
     1
 10
0.0
 20
0.0
 30
0.0
  0
VERTEX
  5
249
  8
LIZARDETCH
 10
4.515399951315478
 20
1.413505913643207
 30
0.0
  0
VERTEX
  5
24A
  8
LIZARDETCH
 10
4.512710290377447
 20
1.406706910410197
 30
0.0
  0
VERTEX
  5
24B
  8
LIZARDETCH
 10
4.509636500602221
 20
1.400018320236194
 30
0.0
  0
VERTEX
  5
24C
  8
LIZARDETCH
 10
4.506169357726503
 20
1.393454514785439
 30
0.0
  0
VERTEX
  5
24D
  8
LIZARDETCH
 10
4.50229963748699
 20
1.387029865722184
 30
0.0
  0
VERTEX
  5
24E
  8
LIZARDETCH
 10
4.498073381427986
 20
1.38083061188385
 30
0.0
  0
VERTEX
  5
24F
  8
LIZARDETCH
 10
4.493553144025291
 20
1.374937083263426
 30
0.0
  0
VERTEX
  5
250
  8
LIZARDETCH
 10
4.488752374690714
 20
1.369351521653321
 30
0.0
  0
VERTEX
  5
251
  8
LIZARDETCH
 10
4.483684522836104
 20
1.364076168845923
 30
0.0
  0
VERTEX
  5
252
  8
LIZARDETCH
 10
4.478363037873278
 20
1.35911326663364
 30
0.0
  0
VERTEX
  5
253
  8
LIZARDETCH
 10
4.472801369214068
 20
1.354465056808866
 30
0.0
  0
VERTEX
  5
254
  8
LIZARDETCH
 10
4.467012966270296
 20
1.350133781164003
 30
0.0
  0
VERTEX
  5
255
  8
LIZARDETCH
 10
4.461011278453801
 20
1.346121681491437
 30
0.0
  0
VERTEX
  5
256
  8
LIZARDETCH
 10
4.454809755176409
 20
1.342430999583582
 30
0.0
  0
VERTEX
  5
257
  8
LIZARDETCH
 10
4.448421845849936
 20
1.33906397723283
 30
0.0
  0
VERTEX
  5
258
  8
LIZARDETCH
 10
4.441860999886227
 20
1.336022856231575
 30
0.0
  0
VERTEX
  5
259
  8
LIZARDETCH
 10
4.435140666697103
 20
1.333309878372221
 30
0.0
  0
VERTEX
  5
25A
  8
LIZARDETCH
 10
4.428274295694404
 20
1.330927285447162
 30
0.0
  0
VERTEX
  5
25B
  8
LIZARDETCH
 10
4.421275336289939
 20
1.328877319248798
 30
0.0
  0
VERTEX
  5
25C
  8
LIZARDETCH
 10
4.41415723789555
 20
1.327162221569533
 30
0.0
  0
VERTEX
  5
25D
  8
LIZARDETCH
 10
4.406933449923057
 20
1.325784234201758
 30
0.0
  0
VERTEX
  5
25E
  8
LIZARDETCH
 10
4.399617421784299
 20
1.324745598937871
 30
0.0
  0
VERTEX
  5
25F
  8
LIZARDETCH
 10
4.392222602891095
 20
1.324048557570273
 30
0.0
  0
VERTEX
  5
260
  8
LIZARDETCH
 10
4.38476244265528
 20
1.323695351891367
 30
0.0
  0
VERTEX
  5
261
  8
LIZARDETCH
 10
4.377250390488683
 20
1.323688223693539
 30
0.0
  0
VERTEX
  5
262
  8
LIZARDETCH
 10
4.369699895803132
 20
1.324029414769196
 30
0.0
  0
VERTEX
  5
263
  8
LIZARDETCH
 10
4.362124408010445
 20
1.324721166910741
 30
0.0
  0
VERTEX
  5
264
  8
LIZARDETCH
 10
4.354537376522464
 20
1.325765721910564
 30
0.0
  0
VERTEX
  5
265
  8
LIZARDETCH
 10
4.346952250751015
 20
1.327165321561065
 30
0.0
  0
VERTEX
  5
266
  8
LIZARDETCH
 10
4.339382480107918
 20
1.328922207654646
 30
0.0
  0
VERTEX
  5
267
  8
LIZARDETCH
 10
4.331841514005013
 20
1.331038621983696
 30
0.0
  0
VERTEX
  5
268
  8
LIZARDETCH
 10
4.32434280185412
 20
1.333516806340622
 30
0.0
  0
VERTEX
  5
269
  8
LIZARDETCH
 10
4.316899793067079
 20
1.336359002517818
 30
0.0
  0
VERTEX
  5
26A
  8
LIZARDETCH
 10
4.309525937055706
 20
1.339567452307685
 30
0.0
  0
VERTEX
  5
26B
  8
LIZARDETCH
 10
4.302234683231836
 20
1.343144397502622
 30
0.0
  0
VERTEX
  5
26C
  8
LIZARDETCH
 10
4.295039481007301
 20
1.347092079895025
 30
0.0
  0
VERTEX
  5
26D
  8
LIZARDETCH
 10
4.287953779793916
 20
1.351412741277292
 30
0.0
  0
VERTEX
  5
26E
  8
LIZARDETCH
 10
4.281079047970208
 20
1.356048530556558
 30
0.0
  0
VERTEX
  5
26F
  8
LIZARDETCH
 10
4.274497117084672
 20
1.360939700981427
 30
0.0
  0
VERTEX
  5
270
  8
LIZARDETCH
 10
4.268211581067386
 20
1.366073076439083
 30
0.0
  0
VERTEX
  5
271
  8
LIZARDETCH
 10
4.262226033848417
 20
1.371435480816705
 30
0.0
  0
VERTEX
  5
272
  8
LIZARDETCH
 10
4.256544069357847
 20
1.377013738001473
 30
0.0
  0
VERTEX
  5
273
  8
LIZARDETCH
 10
4.25116928152576
 20
1.382794671880563
 30
0.0
  0
VERTEX
  5
274
  8
LIZARDETCH
 10
4.246105264282218
 20
1.388765106341159
 30
0.0
  0
VERTEX
  5
275
  8
LIZARDETCH
 10
4.241355611557323
 20
1.394911865270429
 30
0.0
  0
VERTEX
  5
276
  8
LIZARDETCH
 10
4.236923917281139
 20
1.401221772555558
 30
0.0
  0
VERTEX
  5
277
  8
LIZARDETCH
 10
4.232813775383746
 20
1.407681652083721
 30
0.0
  0
VERTEX
  5
278
  8
LIZARDETCH
 10
4.229028779795214
 20
1.414278327742105
 30
0.0
  0
VERTEX
  5
279
  8
LIZARDETCH
 10
4.225572524445639
 20
1.420998623417879
 30
0.0
  0
VERTEX
  5
27A
  8
LIZARDETCH
 10
4.222448603265088
 20
1.427829362998223
 30
0.0
  0
VERTEX
  5
27B
  8
LIZARDETCH
 10
4.219660610183634
 20
1.43475737037032
 30
0.0
  0
VERTEX
  5
27C
  8
LIZARDETCH
 10
4.217212139131363
 20
1.441769469421347
 30
0.0
  0
VERTEX
  5
27D
  8
LIZARDETCH
 10
4.215106784038358
 20
1.44885248403848
 30
0.0
  0
VERTEX
  5
27E
  8
LIZARDETCH
 10
4.213348138834688
 20
1.455993238108901
 30
0.0
  0
VERTEX
  5
27F
  8
LIZARDETCH
 10
4.211939797450428
 20
1.463178555519788
 30
0.0
  0
VERTEX
  5
280
  8
LIZARDETCH
 10
4.210885353815666
 20
1.470395260158313
 30
0.0
  0
VERTEX
  5
281
  8
LIZARDETCH
 10
4.21018840186048
 20
1.477630175911665
 30
0.0
  0
VERTEX
  5
282
  8
LIZARDETCH
 10
4.209852535514935
 20
1.484870126667016
 30
0.0
  0
VERTEX
  5
283
  8
LIZARDETCH
 10
4.209881348709122
 20
1.492101936311546
 30
0.0
  0
VERTEX
  5
284
  8
LIZARDETCH
 10
4.210278435373119
 20
1.499312428732428
 30
0.0
  0
VERTEX
  5
285
  8
LIZARDETCH
 10
4.211047389436994
 20
1.506488427816852
 30
0.0
  0
VERTEX
  5
286
  8
LIZARDETCH
 10
4.212191804830839
 20
1.513616757451983
 30
0.0
  0
VERTEX
  5
287
  8
LIZARDETCH
 10
4.213715275484722
 20
1.520684241525015
 30
0.0
  0
VERTEX
  5
288
  8
LIZARDETCH
 10
4.21562139532872
 20
1.527677703923114
 30
0.0
  0
VERTEX
  5
289
  8
LIZARDETCH
 10
4.217913758292913
 20
1.534583968533466
 30
0.0
  0
VERTEX
  5
28A
  8
LIZARDETCH
 10
4.220595958307388
 20
1.541389859243242
 30
0.0
  0
VERTEX
  5
28B
  8
LIZARDETCH
 10
4.223671589302207
 20
1.548082199939632
 30
0.0
  0
VERTEX
  5
28C
  8
LIZARDETCH
 10
4.227144245207457
 20
1.554647814509801
 30
0.0
  0
VERTEX
  5
28D
  8
LIZARDETCH
 10
4.231017519953216
 20
1.561073526840936
 30
0.0
  0
SEQEND
  5
28E
  8
LIZARDETCH
  0
POLYLINE
  5
4A
  8
LIZARDETCH
 66
     1
 10
0.0
 20
0.0
 30
0.0
  0
VERTEX
  5
28F
  8
LIZARDETCH
 10
3.911000695414383
 20
3.217583686336555
 30
0.0
  0
VERTEX
  5
290
  8
LIZARDETCH
 10
3.837195453295075
 20
3.013432557283017
 30
0.0
  0
VERTEX
  5
291
  8
LIZARDETCH
 10
3.764066862178585
 20
2.899446913012012
 30
0.0
  0
SEQEND
  5
292
  8
LIZARDETCH
  0
POLYLINE
  5
4B
  8
LIZARDETCH
 66
     1
 10
0.0
 20
0.0
 30
0.0
  0
VERTEX
  5
293
  8
LIZARDETCH
 10
3.972914344301278
 20
1.981975581438416
 30
0.0
  0
VERTEX
  5
294
  8
LIZARDETCH
 10
4.09053992146039
 20
1.794590267400117
 30
0.0
  0
VERTEX
  5
295
  8
LIZARDETCH
 10
4.172441701604074
 20
1.595144848698103
 30
0.0
  0
VERTEX
  5
296
  8
LIZARDETCH
 10
4.513031334918736
 20
1.405622904070725
 30
0.0
  0
VERTEX
  5
297
  8
LIZARDETCH
 10
4.553825520604986
 20
1.360957271428521
 30
0.0
  0
VERTEX
  5
298
  8
LIZARDETCH
 10
4.841351262172271
 20
1.449307644149145
 30
0.0
  0
VERTEX
  5
299
  8
LIZARDETCH
 10
5.114245297783215
 20
1.30223275514716
 30
0.0
  0
SEQEND
  5
29A
  8
LIZARDETCH
  0
POLYLINE
  5
4C
  8
LIZARDETCH
 66
     1
 10
0.0
 20
0.0
 30
0.0
  0
VERTEX
  5
29B
  8
LIZARDETCH
 10
3.482980989025884
 20
3.555665882677565
 30
0.0
  0
VERTEX
  5
29C
  8
LIZARDETCH
 10
3.641700029082656
 20
3.635496407104941
 30
0.0
  0
VERTEX
  5
29D
  8
LIZARDETCH
 10
3.833011694984341
 20
3.715632141174428
 30
0.0
  0
SEQEND
  5
29E
  8
LIZARDETCH
  0
POLYLINE
  5
4D
  8
LIZARDETCH
 66
     1
 10
0.0
 20
0.0
 30
0.0
  0
VERTEX
  5
29F
  8
LIZARDETCH
 10
3.983244690213482
 20
0.6553335651133729
 30
0.0
  0
VERTEX
  5
2A0
  8
LIZARDETCH
 10
3.760225652301755
 20
0.516498985538878
 30
0.0
  0
SEQEND
  5
2A1
  8
LIZARDETCH
  0
POLYLINE
  5
4E
  8
LIZARDETCH
 66
     1
 10
0.0
 20
0.0
 30
0.0
  0
VERTEX
  5
2A2
  8
LIZARDETCH
 10
3.876970473594979
 20
0.8280338941097971
 30
0.0
  0
VERTEX
  5
2A3
  8
LIZARDETCH
 10
3.686103141487094
 20
0.7389564543950373
 30
0.0
  0
VERTEX
  5
2A4
  8
LIZARDETCH
 10
3.584435500186137
 20
0.7167469788477037
 30
0.0
  0
SEQEND
  5
2A5
  8
LIZARDETCH
  0
POLYLINE
  5
4F
  8
LIZARDETCH
 66
     1
 10
0.0
 20
0.0
 30
0.0
  0
VERTEX
  5
2A6
  8
LIZARDETCH
 10
3.453493659255314
 20
1.706635183204532
 30
0.0
  0
VERTEX
  5
2A7
  8
LIZARDETCH
 10
3.512782840916336
 20
1.864470488432913
 30
0.0
  0
VERTEX
  5
2A8
  8
LIZARDETCH
 10
3.535602001329172
 20
2.052679624217423
 30
0.0
  0
SEQEND
  5
2A9
  8
LIZARDETCH
  0
POLYLINE
  5
50
  8
LIZARDETCH
 66
     1
 10
0.0
 20
0.0
 30
0.0
  0
VERTEX
  5
2AA
  8
LIZARDETCH
 10
2.571531781794926
 20
4.4288056073104
 30
0.0
  0
VERTEX
  5
2AB
  8
LIZARDETCH
 10
2.618555895793169
 20
4.479038646439205
 30
0.0
  0
VERTEX
  5
2AC
  8
LIZARDETCH
 10
2.70053508198194
 20
4.484155034309593
 30
0.0
  0
VERTEX
  5
2AD
  8
LIZARDETCH
 10
2.754219322837527
 20
4.531033333102602
 30
0.0
  0
VERTEX
  5
2AE
  8
LIZARDETCH
 10
2.778063982660894
 20
4.568200040019468
 30
0.0
  0
SEQEND
  5
2AF
  8
LIZARDETCH
  0
POLYLINE
  5
51
  8
LIZARDETCH
 66
     1
 10
0.0
 20
0.0
 30
0.0
  0
VERTEX
  5
2B0
  8
LIZARDETCH
 10
3.195121609199509
 20
1.07493619053203
 30
0.0
  0
VERTEX
  5
2B1
  8
LIZARDETCH
 10
3.048048056667477
 20
0.987421254145316
 30
0.0
  0
VERTEX
  5
2B2
  8
LIZARDETCH
 10
2.899558778418412
 20
0.8868131325240824
 30
0.0
  0
SEQEND
  5
2B3
  8
LIZARDETCH
  0
POLYLINE
  5
52
  8
LIZARDETCH
 66
     1
 10
0.0
 20
0.0
 30
0.0
  0
VERTEX
  5
2B4
  8
LIZARDETCH
 10
2.545291519005173
 20
3.175696605155478
 30
0.0
  0
VERTEX
  5
2B5
  8
LIZARDETCH
 10
2.469800897175754
 20
3.081859432039259
 30
0.0
  0
VERTEX
  5
2B6
  8
LIZARDETCH
 10
2.392132024772792
 20
3.005773898340327
 30
0.0
  0
VERTEX
  5
2B7
  8
LIZARDETCH
 10
2.341358380542479
 20
2.967521173918829
 30
0.0
  0
SEQEND
  5
2B8
  8
LIZARDETCH
  0
POLYLINE
  5
53
  8
LIZARDETCH
 66
     1
 10
0.0
 20
0.0
 30
0.0
  0
VERTEX
  5
2B9
  8
LIZARDETCH
 10
2.779265967111488
 20
1.746102364649648
 30
0.0
  0
VERTEX
  5
2BA
  8
LIZARDETCH
 10
2.994108817490742
 20
1.546671281637284
 30
0.0
  0
SEQEND
  5
2BB
  8
LIZARDETCH
  0
POLYLINE
  5
54
  8
LIZARDETCH
 66
     1
 10
0.0
 20
0.0
 30
0.0
  0
VERTEX
  5
2BC
  8
LIZARDETCH
 10
1.667774960923626
 20
4.730869295906221
 30
0.0
  0
VERTEX
  5
2BD
  8
LIZARDETCH
 10
2.019747052465512
 20
4.747788390739195
 30
0.0
  0
SEQEND
  5
2BE
  8
LIZARDETCH
  0
POLYLINE
  5
55
  8
LIZARDETCH
 66
     1
 10
0.0
 20
0.0
 30
0.0
  0
VERTEX
  5
2BF
  8
LIZARDETCH
 10
2.03351159180471
 20
1.983834701070241
 30
0.0
  0
VERTEX
  5
2C0
  8
LIZARDETCH
 10
2.013846690871537
 20
2.308450605324618
 30
0.0
  0
SEQEND
  5
2C1
  8
LIZARDETCH
  0
POLYLINE
  5
56
  8
LIZARDETCH
 66
     1
 10
0.0
 20
0.0
 30
0.0
  0
VERTEX
  5
2C2
  8
LIZARDETCH
 10
1.55264822866694
 20
4.989257371926419
 30
0.0
  0
VERTEX
  5
2C3
  8
LIZARDETCH
 10
1.896262036130997
 20
5.013260295357662
 30
0.0
  0
SEQEND
  5
2C4
  8
LIZARDETCH
  0
POLYLINE
  5
57
  8
LIZARDETCH
 66
     1
 10
0.0
 20
0.0
 30
0.0
  0
VERTEX
  5
2C5
  8
LIZARDETCH
 10
1.436681755071547
 20
3.213054270798048
 30
0.0
  0
VERTEX
  5
2C6
  8
LIZARDETCH
 10
1.576906557440649
 20
3.182524111688656
 30
0.0
  0
VERTEX
  5
2C7
  8
LIZARDETCH
 10
1.719723382437762
 20
3.245668810434719
 30
0.0
  0
VERTEX
  5
2C8
  8
LIZARDETCH
 10
1.809348340981572
 20
3.303590905822233
 30
0.0
  0
VERTEX
  5
2C9
  8
LIZARDETCH
 10
1.890951044007389
 20
3.321409143795568
 30
0.0
  0
VERTEX
  5
2CA
  8
LIZARDETCH
 10
1.932915710161075
 20
3.38170850280799
 30
0.0
  0
VERTEX
  5
2CB
  8
LIZARDETCH
 10
1.991083781601417
 20
3.417840484971387
 30
0.0
  0
SEQEND
  5
2CC
  8
LIZARDETCH
  0
POLYLINE
  5
58
  8
LIZARDETCH
 66
     1
 10
0.0
 20
0.0
 30
0.0
  0
VERTEX
  5
2CD
  8
LIZARDETCH
 10
1.223465957399599
 20
2.395843959717233
 30
0.0
  0
VERTEX
  5
2CE
  8
LIZARDETCH
 10
1.445712523238249
 20
2.29519832134888
 30
0.0
  0
VERTEX
  5
2CF
  8
LIZARDETCH
 10
1.524066433515542
 20
2.112046925751592
 30
0.0
  0
VERTEX
  5
2D0
  8
LIZARDETCH
 10
1.597738672112213
 20
2.00879235352207
 30
0.0
  0
SEQEND
  5
2D1
  8
LIZARDETCH
  0
POLYLINE
  5
59
  8
LIZARDETCH
 66
     1
 10
0.0
 20
0.0
 30
0.0
  0
VERTEX
  5
2D2
  8
LIZARDETCH
 10
0.3078109250315885
 20
0.5978953928013999
 30
0.0
  0
VERTEX
  5
2D3
  8
LIZARDETCH
 10
0.5408351752843239
 20
0.7212117237256856
 30
0.0
  0
SEQEND
  5
2D4
  8
LIZARDETCH
  0
POLYLINE
  5
5A
  8
LIZARDETCH
 66
     1
 10
0.0
 20
0.0
 30
0.0
  0
VERTEX
  5
2D5
  8
LIZARDETCH
 10
0.3903333128308151
 20
0.3168588197160685
 30
0.0
  0
VERTEX
  5
2D6
  8
LIZARDETCH
 10
0.6411664109579522
 20
0.4959576471985577
 30
0.0
  0
SEQEND
  5
2D7
  8
LIZARDETCH
  0
ENDSEC
  0
EOF
