  0
SECTION
  2
HEADER
  9
$ACADVER
  1
AC1009
  9
$DWGCODEPAGE
  3
ansi_1252
  9
$INSBASE
 10
0.0
 20
0.0
 30
0.0
  9
$EXTMIN
 10
-98.8
 20
-47.85
 30
0.0
  9
$EXTMAX
 10
98.8
 20
47.75
 30
0.0
  9
$LIMMIN
 10
0.0
 20
0.0
  9
$LIMMAX
 10
420.0
 20
297.0
  9
$ORTHOMODE
 70
     0
  9
$REGENMODE
 70
     1
  9
$FILLMODE
 70
     1
  9
$QTEXTMODE
 70
     0
  9
$MIRRTEXT
 70
     1
  9
$DRAGMODE
 70
     2
  9
$LTSCALE
 40
1.0
  9
$OSMODE
 70
    37
  9
$ATTMODE
 70
     1
  9
$TEXTSIZE
 40
3.5
  9
$TRACEWID
 40
1.0
  9
$TEXTSTYLE
  7
STANDARD
  9
$CLAYER
  8
0
  9
$CELTYPE
  6
BYLAYER
  9
$CECOLOR
 62
   256
  9
$DIMSCALE
 40
1.0
  9
$DIMASZ
 40
3.302
  9
$DIMEXO
 40
1.0
  9
$DIMDLI
 40
3.75
  9
$DIMRND
 40
0.0
  9
$DIMDLE
 40
0.0
  9
$DIMEXE
 40
1.0
  9
$DIMTP
 40
0.0
  9
$DIMTM
 40
0.0
  9
$DIMTXT
 40
3.5
  9
$DIMCEN
 40
2.5
  9
$DIMTSZ
 40
0.0
  9
$DIMTOL
 70
     0
  9
$DIMLIM
 70
     0
  9
$DIMTIH
 70
     1
  9
$DIMTOH
 70
     1
  9
$DIMSE1
 70
     0
  9
$DIMSE2
 70
     0
  9
$DIMTAD
 70
     1
  9
$DIMZIN
 70
     0
  9
$DIMBLK
  1

  9
$DIMASO
 70
     1
  9
$DIMSHO
 70
     1
  9
$DIMPOST
  1

  9
$DIMAPOST
  1

  9
$DIMALT
 70
     0
  9
$DIMALTD
 70
     3
  9
$DIMALTF
 40
0.0393700787
  9
$DIMLFAC
 40
1.0
  9
$DIMTOFL
 70
     1
  9
$DIMTVP
 40
0.0
  9
$DIMTIX
 70
     0
  9
$DIMSOXD
 70
     0
  9
$DIMSAH
 70
     0
  9
$DIMBLK1
  1

  9
$DIMBLK2
  1

  9
$DIMSTYLE
  2
ISO-25
  9
$DIMCLRD
 70
     0
  9
$DIMCLRE
 70
     0
  9
$DIMCLRT
 70
     0
  9
$DIMTFAC
 40
1.0
  9
$DIMGAP
 40
1.524
  9
$LUNITS
 70
     2
  9
$LUPREC
 70
     2
  9
$SKETCHINC
 40
1.0
  9
$FILLETRAD
 40
10.0
  9
$AUNITS
 70
     0
  9
$AUPREC
 70
     2
  9
$MENU
  1
.
  9
$ELEVATION
 40
0.0
  9
$PELEVATION
 40
0.0
  9
$THICKNESS
 40
0.0
  9
$LIMCHECK
 70
     0
  9
$CHAMFERA
 40
0.0
  9
$CHAMFERB
 40
0.0
  9
$SKPOLY
 70
     0
  9
$TDCREATE
 40
2457840.476872002
  9
$TDUPDATE
 40
2457840.476921887
  9
$TDINDWG
 40
0.0000000116
  9
$TDUSRTIMER
 40
0.0000000116
  9
$USRTIMER
 70
     1
  9
$ANGBASE
 50
0.0
  9
$ANGDIR
 70
     0
  9
$PDMODE
 70
     0
  9
$PDSIZE
 40
-1.0
  9
$PLINEWID
 40
0.0
  9
$COORDS
 70
     1
  9
$SPLFRAME
 70
     0
  9
$SPLINETYPE
 70
     6
  9
$SPLINESEGS
 70
     8
  9
$ATTDIA
 70
     0
  9
$ATTREQ
 70
     1
  9
$HANDLING
 70
     1
  9
$HANDSEED
  5
175
  9
$SURFTAB1
 70
     6
  9
$SURFTAB2
 70
     6
  9
$SURFTYPE
 70
     6
  9
$SURFU
 70
     6
  9
$SURFV
 70
     6
  9
$UCSNAME
  2

  9
$UCSORG
 10
0.0
 20
0.0
 30
0.0
  9
$UCSXDIR
 10
1.0
 20
0.0
 30
0.0
  9
$UCSYDIR
 10
0.0
 20
1.0
 30
0.0
  9
$PUCSNAME
  2

  9
$PUCSORG
 10
0.0
 20
0.0
 30
0.0
  9
$PUCSXDIR
 10
1.0
 20
0.0
 30
0.0
  9
$PUCSYDIR
 10
0.0
 20
1.0
 30
0.0
  9
$USERI1
 70
     0
  9
$USERI2
 70
     0
  9
$USERI3
 70
     0
  9
$USERI4
 70
     0
  9
$USERI5
 70
     0
  9
$USERR1
 40
0.0
  9
$USERR2
 40
0.0
  9
$USERR3
 40
0.0
  9
$USERR4
 40
0.0
  9
$USERR5
 40
0.0
  9
$WORLDVIEW
 70
     1
  9
$SHADEDGE
 70
     3
  9
$SHADEDIF
 70
    70
  9
$TILEMODE
 70
     1
  9
$MAXACTVP
 70
    64
  9
$PLIMCHECK
 70
     0
  9
$PEXTMIN
 10
1.0000000000E+20
 20
1.0000000000E+20
 30
1.0000000000E+20
  9
$PEXTMAX
 10
-1.0000000000E+20
 20
-1.0000000000E+20
 30
-1.0000000000E+20
  9
$PLIMMIN
 10
0.0
 20
0.0
  9
$PLIMMAX
 10
420.0
 20
297.0
  9
$UNITMODE
 70
     0
  9
$VISRETAIN
 70
     1
  9
$PLINEGEN
 70
     0
  9
$PSLTSCALE
 70
     1
  0
ENDSEC
  0
SECTION
  2
TABLES
  0
TABLE
  2
VPORT
 70
     1
  0
VPORT
  2
*ACTIVE
 70
     0
 10
0.0
 20
0.0
 11
1.0
 21
1.0
 12
0.0
 22
-0.05
 13
0.0
 23
0.0
 14
10.0
 24
10.0
 15
10.0
 25
10.0
 16
0.0
 26
0.0
 36
1.0
 17
0.0
 27
0.0
 37
0.0
 40
97.512
 41
2.0669456067
 42
50.0
 43
0.0
 44
0.0
 50
0.0
 51
0.0
 71
     0
 72
   100
 73
     1
 74
     3
 75
     0
 76
     0
 77
     0
 78
     0
  0
ENDTAB
  0
TABLE
  2
LTYPE
 70
     6
  0
LTYPE
  2
CONTINUOUS
 70
     0
  3
Solid line
 72
    65
 73
     0
 40
0.0
  0
LTYPE
  2
HIDDEN
 70
     0
  3
Hidden __ __ __ __ __ __ __ __ __ __ __ __ __ __
 72
    65
 73
     2
 40
1.905
 49
1.27
 49
-0.635
  0
LTYPE
  2
PHANTOM
 70
     0
  3
Phantom ______  __  __  ______  __  __  ______
 72
    65
 73
     6
 40
12.7
 49
6.35
 49
-1.27
 49
1.27
 49
-1.27
 49
1.27
 49
-1.27
  0
LTYPE
  2
CENTER
 70
     0
  3
Center ____ _ ____ _ ____ _ ____ _ ____ _ ____
 72
    65
 73
     4
 40
10.16
 49
6.35
 49
-1.27
 49
1.27
 49
-1.27
  0
LTYPE
  2
CENTERX2
 70
     0
  3
Center (2x) ________  __  ________  __  _____
 72
    65
 73
     4
 40
20.32
 49
12.7
 49
-2.54
 49
2.54
 49
-2.54
  0
LTYPE
  2
DOT2
 70
     0
  3
Dot (.5x) ........................................
 72
    65
 73
     2
 40
0.635
 49
0.0
 49
-0.635
  0
ENDTAB
  0
TABLE
  2
LAYER
 70
     1
  0
LAYER
  2
0
 70
     0
 62
     7
  6
CONTINUOUS
  0
ENDTAB
  0
TABLE
  2
STYLE
 70
     1
  0
STYLE
  2
STANDARD
 70
     0
 40
0.0
 41
1.0
 50
0.0
 71
     0
 42
3.5
  3
txt
  4

  0
ENDTAB
  0
TABLE
  2
VIEW
 70
     0
  0
ENDTAB
  0
TABLE
  2
UCS
 70
     0
  0
ENDTAB
  0
TABLE
  2
APPID
 70
     1
  0
APPID
  2
ACAD
 70
     0
  0
ENDTAB
  0
TABLE
  2
DIMSTYLE
 70
     1
  0
DIMSTYLE
  2
ISO-25
 70
     0
  3

  4

  5

  6

  7

 40
1.0
 41
2.5
 42
0.625
 43
3.75
 44
1.25
 45
0.0
 46
0.0
 47
0.0
 48
0.0
140
2.5
141
2.5
142
0.0
143
0.0393700787
144
1.0
145
0.0
146
1.0
147
0.625
 71
     0
 72
     0
 73
     0
 74
     0
 75
     0
 76
     0
 77
     1
 78
     8
170
     0
171
     3
172
     1
173
     0
174
     0
175
     0
176
     0
177
     0
178
     0
  0
ENDTAB
  0
ENDSEC
  0
SECTION
  2
BLOCKS
  0
BLOCK
  8
0
  2
$MODEL_SPACE
 70
     0
 10
0.0
 20
0.0
 30
0.0
  3
$MODEL_SPACE
  1

  0
ENDBLK
  5
21
  8
0
  0
BLOCK
 67
     1
  8
0
  2
$PAPER_SPACE
 70
     0
 10
0.0
 20
0.0
 30
0.0
  3
$PAPER_SPACE
  1

  0
ENDBLK
  5
1D
 67
     1
  8
0
  0
ENDSEC
  0
SECTION
  2
ENTITIES
  0
LINE
  5
F4
  8
0
  6
CONTINUOUS
 62
     7
 10
-51.0
 20
-47.85
 30
0.0
 11
51.0
 21
-47.85
 31
0.0
  0
LINE
  5
F5
  8
0
  6
CONTINUOUS
 62
     7
 10
51.0
 20
47.75
 30
0.0
 11
-51.0
 21
47.75
 31
0.0
  0
LINE
  5
F6
  8
0
  6
CONTINUOUS
 62
     7
 10
-39.0352068495
 20
-28.4697671228
 30
0.0
 11
-37.44
 21
-32.35
 31
0.0
  0
LINE
  5
F7
  8
0
  6
CONTINUOUS
 62
     7
 10
-37.44
 20
-32.35
 30
0.0
 11
-35.64
 21
-32.35
 31
0.0
  0
LINE
  5
F8
  8
0
  6
CONTINUOUS
 62
     7
 10
-35.64
 20
-32.35
 30
0.0
 11
-34.0447931505
 21
-28.4697671228
 31
0.0
  0
LINE
  5
F9
  8
0
  6
CONTINUOUS
 62
     7
 10
-32.3052068495
 20
-28.4697671228
 30
0.0
 11
-30.71
 21
-32.35
 31
0.0
  0
LINE
  5
FA
  8
0
  6
CONTINUOUS
 62
     7
 10
-30.71
 20
-32.35
 30
0.0
 11
-28.91
 21
-32.35
 31
0.0
  0
LINE
  5
FB
  8
0
  6
CONTINUOUS
 62
     7
 10
-28.91
 20
-32.35
 30
0.0
 11
-27.3147931505
 21
-28.4697671228
 31
0.0
  0
LINE
  5
FC
  8
0
  6
CONTINUOUS
 62
     7
 10
-25.5752068495
 20
-28.4697671228
 30
0.0
 11
-23.98
 21
-32.35
 31
0.0
  0
LINE
  5
FD
  8
0
  6
CONTINUOUS
 62
     7
 10
-23.98
 20
-32.35
 30
0.0
 11
-22.18
 21
-32.35
 31
0.0
  0
LINE
  5
FE
  8
0
  6
CONTINUOUS
 62
     7
 10
-22.18
 20
-32.35
 30
0.0
 11
-20.5847931505
 21
-28.4697671228
 31
0.0
  0
LINE
  5
FF
  8
0
  6
CONTINUOUS
 62
     7
 10
-18.8452068495
 20
-28.4697671228
 30
0.0
 11
-17.25
 21
-32.35
 31
0.0
  0
LINE
  5
100
  8
0
  6
CONTINUOUS
 62
     7
 10
-17.25
 20
-32.35
 30
0.0
 11
-15.45
 21
-32.35
 31
0.0
  0
LINE
  5
101
  8
0
  6
CONTINUOUS
 62
     7
 10
-15.45
 20
-32.35
 30
0.0
 11
-13.8547931505
 21
-28.4697671228
 31
0.0
  0
LINE
  5
102
  8
0
  6
CONTINUOUS
 62
     7
 10
-12.1152068495
 20
-28.4697671228
 30
0.0
 11
-10.52
 21
-32.35
 31
0.0
  0
LINE
  5
103
  8
0
  6
CONTINUOUS
 62
     7
 10
-10.52
 20
-32.35
 30
0.0
 11
-8.72
 21
-32.35
 31
0.0
  0
LINE
  5
104
  8
0
  6
CONTINUOUS
 62
     7
 10
-8.72
 20
-32.35
 30
0.0
 11
-7.1247931505
 21
-28.4697671228
 31
0.0
  0
LINE
  5
105
  8
0
  6
CONTINUOUS
 62
     7
 10
-5.3852068495
 20
-28.4697671228
 30
0.0
 11
-3.79
 21
-32.35
 31
0.0
  0
LINE
  5
106
  8
0
  6
CONTINUOUS
 62
     7
 10
-3.79
 20
-32.35
 30
0.0
 11
-1.99
 21
-32.35
 31
0.0
  0
LINE
  5
107
  8
0
  6
CONTINUOUS
 62
     7
 10
-1.99
 20
-32.35
 30
0.0
 11
-0.3947931505
 21
-28.4697671228
 31
0.0
  0
LINE
  5
108
  8
0
  6
CONTINUOUS
 62
     7
 10
1.3447931505
 20
-28.4697671228
 30
0.0
 11
2.94
 21
-32.35
 31
0.0
  0
LINE
  5
109
  8
0
  6
CONTINUOUS
 62
     7
 10
2.94
 20
-32.35
 30
0.0
 11
4.74
 21
-32.35
 31
0.0
  0
LINE
  5
10A
  8
0
  6
CONTINUOUS
 62
     7
 10
4.74
 20
-32.35
 30
0.0
 11
6.3352068495
 21
-28.4697671228
 31
0.0
  0
LINE
  5
10B
  8
0
  6
CONTINUOUS
 62
     7
 10
8.0747931505
 20
-28.4697671228
 30
0.0
 11
9.67
 21
-32.35
 31
0.0
  0
LINE
  5
10C
  8
0
  6
CONTINUOUS
 62
     7
 10
9.67
 20
-32.35
 30
0.0
 11
11.47
 21
-32.35
 31
0.0
  0
LINE
  5
10D
  8
0
  6
CONTINUOUS
 62
     7
 10
11.47
 20
-32.35
 30
0.0
 11
13.0652068495
 21
-28.4697671228
 31
0.0
  0
LINE
  5
10E
  8
0
  6
CONTINUOUS
 62
     7
 10
14.8047931505
 20
-28.4697671228
 30
0.0
 11
16.4
 21
-32.35
 31
0.0
  0
LINE
  5
10F
  8
0
  6
CONTINUOUS
 62
     7
 10
16.4
 20
-32.35
 30
0.0
 11
18.2
 21
-32.35
 31
0.0
  0
LINE
  5
110
  8
0
  6
CONTINUOUS
 62
     7
 10
18.2
 20
-32.35
 30
0.0
 11
19.7952068495
 21
-28.4697671228
 31
0.0
  0
LINE
  5
111
  8
0
  6
CONTINUOUS
 62
     7
 10
21.5347931505
 20
-28.4697671228
 30
0.0
 11
23.13
 21
-32.35
 31
0.0
  0
LINE
  5
112
  8
0
  6
CONTINUOUS
 62
     7
 10
23.13
 20
-32.35
 30
0.0
 11
24.93
 21
-32.35
 31
0.0
  0
LINE
  5
113
  8
0
  6
CONTINUOUS
 62
     7
 10
24.93
 20
-32.35
 30
0.0
 11
26.5252068495
 21
-28.4697671228
 31
0.0
  0
LINE
  5
114
  8
0
  6
CONTINUOUS
 62
     7
 10
28.2647931505
 20
-28.4697671228
 30
0.0
 11
29.86
 21
-32.35
 31
0.0
  0
LINE
  5
115
  8
0
  6
CONTINUOUS
 62
     7
 10
29.86
 20
-32.35
 30
0.0
 11
31.66
 21
-32.35
 31
0.0
  0
LINE
  5
116
  8
0
  6
CONTINUOUS
 62
     7
 10
31.66
 20
-32.35
 30
0.0
 11
33.2552068495
 21
-28.4697671228
 31
0.0
  0
LINE
  5
117
  8
0
  6
CONTINUOUS
 62
     7
 10
34.9947931505
 20
-28.4697671228
 30
0.0
 11
36.59
 21
-32.35
 31
0.0
  0
LINE
  5
118
  8
0
  6
CONTINUOUS
 62
     7
 10
36.59
 20
-32.35
 30
0.0
 11
51.0000002634
 21
-32.35
 31
0.0
  0
LINE
  5
119
  8
0
  6
CONTINUOUS
 62
     7
 10
51.0
 20
32.25
 30
0.0
 11
34.11
 21
32.25
 31
0.0
  0
LINE
  5
11A
  8
0
  6
CONTINUOUS
 62
     7
 10
34.11
 20
32.25
 30
0.0
 11
32.5147931505
 21
28.3697671228
 31
0.0
  0
LINE
  5
11B
  8
0
  6
CONTINUOUS
 62
     7
 10
30.7752068495
 20
28.3697671228
 30
0.0
 11
29.18
 21
32.25
 31
0.0
  0
LINE
  5
11C
  8
0
  6
CONTINUOUS
 62
     7
 10
29.18
 20
32.25
 30
0.0
 11
27.38
 21
32.25
 31
0.0
  0
LINE
  5
11D
  8
0
  6
CONTINUOUS
 62
     7
 10
27.38
 20
32.25
 30
0.0
 11
25.7847931505
 21
28.3697671228
 31
0.0
  0
LINE
  5
11E
  8
0
  6
CONTINUOUS
 62
     7
 10
24.0452068495
 20
28.3697671228
 30
0.0
 11
22.45
 21
32.25
 31
0.0
  0
LINE
  5
11F
  8
0
  6
CONTINUOUS
 62
     7
 10
22.45
 20
32.25
 30
0.0
 11
20.65
 21
32.25
 31
0.0
  0
LINE
  5
120
  8
0
  6
CONTINUOUS
 62
     7
 10
20.65
 20
32.25
 30
0.0
 11
19.0547931505
 21
28.3697671228
 31
0.0
  0
LINE
  5
121
  8
0
  6
CONTINUOUS
 62
     7
 10
17.3152068495
 20
28.3697671228
 30
0.0
 11
15.72
 21
32.25
 31
0.0
  0
LINE
  5
122
  8
0
  6
CONTINUOUS
 62
     7
 10
15.72
 20
32.25
 30
0.0
 11
13.92
 21
32.25
 31
0.0
  0
LINE
  5
123
  8
0
  6
CONTINUOUS
 62
     7
 10
13.92
 20
32.25
 30
0.0
 11
12.3247931505
 21
28.3697671228
 31
0.0
  0
LINE
  5
124
  8
0
  6
CONTINUOUS
 62
     7
 10
10.5852068495
 20
28.3697671228
 30
0.0
 11
8.99
 21
32.25
 31
0.0
  0
LINE
  5
125
  8
0
  6
CONTINUOUS
 62
     7
 10
8.99
 20
32.25
 30
0.0
 11
7.19
 21
32.25
 31
0.0
  0
LINE
  5
126
  8
0
  6
CONTINUOUS
 62
     7
 10
7.19
 20
32.25
 30
0.0
 11
5.5947931505
 21
28.3697671228
 31
0.0
  0
LINE
  5
127
  8
0
  6
CONTINUOUS
 62
     7
 10
3.8552068495
 20
28.3697671228
 30
0.0
 11
2.26
 21
32.25
 31
0.0
  0
LINE
  5
128
  8
0
  6
CONTINUOUS
 62
     7
 10
2.26
 20
32.25
 30
0.0
 11
0.46
 21
32.25
 31
0.0
  0
LINE
  5
129
  8
0
  6
CONTINUOUS
 62
     7
 10
0.46
 20
32.25
 30
0.0
 11
-1.1352068495
 21
28.3697671228
 31
0.0
  0
LINE
  5
12A
  8
0
  6
CONTINUOUS
 62
     7
 10
-2.8747931505
 20
28.3697671228
 30
0.0
 11
-4.47
 21
32.25
 31
0.0
  0
LINE
  5
12B
  8
0
  6
CONTINUOUS
 62
     7
 10
-4.47
 20
32.25
 30
0.0
 11
-6.27
 21
32.25
 31
0.0
  0
LINE
  5
12C
  8
0
  6
CONTINUOUS
 62
     7
 10
-6.27
 20
32.25
 30
0.0
 11
-7.8652068495
 21
28.3697671228
 31
0.0
  0
LINE
  5
12D
  8
0
  6
CONTINUOUS
 62
     7
 10
-9.6047931505
 20
28.3697671228
 30
0.0
 11
-11.2
 21
32.25
 31
0.0
  0
LINE
  5
12E
  8
0
  6
CONTINUOUS
 62
     7
 10
-11.2
 20
32.25
 30
0.0
 11
-13.0
 21
32.25
 31
0.0
  0
LINE
  5
12F
  8
0
  6
CONTINUOUS
 62
     7
 10
-13.0
 20
32.25
 30
0.0
 11
-14.5952068495
 21
28.3697671228
 31
0.0
  0
LINE
  5
130
  8
0
  6
CONTINUOUS
 62
     7
 10
-16.3347931505
 20
28.3697671228
 30
0.0
 11
-17.93
 21
32.25
 31
0.0
  0
LINE
  5
131
  8
0
  6
CONTINUOUS
 62
     7
 10
-17.93
 20
32.25
 30
0.0
 11
-19.73
 21
32.25
 31
0.0
  0
LINE
  5
132
  8
0
  6
CONTINUOUS
 62
     7
 10
-19.73
 20
32.25
 30
0.0
 11
-21.3252068495
 21
28.3697671228
 31
0.0
  0
LINE
  5
133
  8
0
  6
CONTINUOUS
 62
     7
 10
-23.0647931505
 20
28.3697671228
 30
0.0
 11
-24.66
 21
32.25
 31
0.0
  0
LINE
  5
134
  8
0
  6
CONTINUOUS
 62
     7
 10
-24.66
 20
32.25
 30
0.0
 11
-26.46
 21
32.25
 31
0.0
  0
LINE
  5
135
  8
0
  6
CONTINUOUS
 62
     7
 10
-26.46
 20
32.25
 30
0.0
 11
-28.0552068495
 21
28.3697671228
 31
0.0
  0
LINE
  5
136
  8
0
  6
CONTINUOUS
 62
     7
 10
-29.7947931505
 20
28.3697671228
 30
0.0
 11
-31.39
 21
32.25
 31
0.0
  0
LINE
  5
137
  8
0
  6
CONTINUOUS
 62
     7
 10
-31.39
 20
32.25
 30
0.0
 11
-33.19
 21
32.25
 31
0.0
  0
LINE
  5
138
  8
0
  6
CONTINUOUS
 62
     7
 10
-33.19
 20
32.25
 30
0.0
 11
-34.7852068495
 21
28.3697671228
 31
0.0
  0
LINE
  5
139
  8
0
  6
CONTINUOUS
 62
     7
 10
-36.5247931505
 20
28.3697671228
 30
0.0
 11
-38.12
 21
32.25
 31
0.0
  0
LINE
  5
13A
  8
0
  6
CONTINUOUS
 62
     7
 10
-38.12
 20
32.25
 30
0.0
 11
-39.92
 21
32.25
 31
0.0
  0
LINE
  5
13B
  8
0
  6
CONTINUOUS
 62
     7
 10
-39.92
 20
32.25
 30
0.0
 11
-41.5152068495
 21
28.3697671228
 31
0.0
  0
LINE
  5
13C
  8
0
  6
CONTINUOUS
 62
     7
 10
-43.2547931505
 20
28.3697671228
 30
0.0
 11
-44.85
 21
32.25
 31
0.0
  0
LINE
  5
13D
  8
0
  6
CONTINUOUS
 62
     7
 10
-44.85
 20
32.25
 30
0.0
 11
-51.0
 21
32.25
 31
0.0
  0
LINE
  5
13E
  8
0
  6
CONTINUOUS
 62
     7
 10
-53.4359248227
 20
-32.2580156212
 30
0.0
 11
-53.4359248227
 21
-32.35
 31
0.0
  0
LINE
  5
13F
  8
0
  6
CONTINUOUS
 62
     7
 10
-42.37
 20
-32.35
 30
0.0
 11
-53.4359248227
 21
-32.35
 31
0.0
  0
LINE
  5
140
  8
0
  6
CONTINUOUS
 62
     7
 10
-42.37
 20
-32.35
 30
0.0
 11
-40.7747931505
 21
-28.4697671228
 31
0.0
  0
ARC
  5
141
  8
0
  6
CONTINUOUS
 62
     7
 10
-51.0
 20
-0.05
 30
0.0
 40
47.8
 50
90.0
 51
270.0
  0
ARC
  5
142
  8
0
  6
CONTINUOUS
 62
     7
 10
51.0
 20
-0.05
 30
0.0
 40
47.8
 50
270.0
 51
90.0
  0
ARC
  5
143
  8
0
  6
CONTINUOUS
 62
     7
 10
-33.1199023682
 20
-28.85
 30
0.0
 40
0.9999999999999891
 50
93.1584611874
 51
157.6518916521
  0
ARC
  5
144
  8
0
  6
CONTINUOUS
 62
     7
 10
-33.2300976318
 20
-28.85
 30
0.0
 40
1.0
 50
22.3481083479
 51
86.8415388126
  0
ARC
  5
145
  8
0
  6
CONTINUOUS
 62
     7
 10
-26.3899023682
 20
-28.85
 30
0.0
 40
0.9999999999999869
 50
93.1584611874
 51
157.6518916521
  0
ARC
  5
146
  8
0
  6
CONTINUOUS
 62
     7
 10
-26.5000976318
 20
-28.85
 30
0.0
 40
1.000000000000008
 50
22.3481083479
 51
86.8415388126
  0
ARC
  5
147
  8
0
  6
CONTINUOUS
 62
     7
 10
-19.6599023682
 20
-28.85
 30
0.0
 40
1.000000000000004
 50
93.1584611874
 51
157.6518916521
  0
ARC
  5
148
  8
0
  6
CONTINUOUS
 62
     7
 10
-19.7700976318
 20
-28.85
 30
0.0
 40
1.000000000000018
 50
22.3481083479
 51
86.8415388126
  0
ARC
  5
149
  8
0
  6
CONTINUOUS
 62
     7
 10
-12.9299023682
 20
-28.85
 30
0.0
 40
1.000000000000002
 50
93.1584611874
 51
157.6518916521
  0
ARC
  5
14A
  8
0
  6
CONTINUOUS
 62
     7
 10
-13.0400976318
 20
-28.85
 30
0.0
 40
1.000000000000011
 50
22.3481083479
 51
86.8415388126
  0
ARC
  5
14B
  8
0
  6
CONTINUOUS
 62
     7
 10
-6.1999023682
 20
-28.85
 30
0.0
 40
1.0
 50
93.1584611874
 51
157.6518916521
  0
ARC
  5
14C
  8
0
  6
CONTINUOUS
 62
     7
 10
-6.3100976318
 20
-28.85
 30
0.0
 40
1.0
 50
22.3481083479
 51
86.8415388126
  0
ARC
  5
14D
  8
0
  6
CONTINUOUS
 62
     7
 10
0.5300976318
 20
-28.85
 30
0.0
 40
1.0
 50
93.1584611874
 51
157.6518916521
  0
ARC
  5
14E
  8
0
  6
CONTINUOUS
 62
     7
 10
0.4199023682
 20
-28.85
 30
0.0
 40
1.0
 50
22.3481083479
 51
86.8415388126
  0
ARC
  5
14F
  8
0
  6
CONTINUOUS
 62
     7
 10
7.2600976318
 20
-28.85
 30
0.0
 40
1.000000000000001
 50
93.1584611874
 51
157.6518916521
  0
ARC
  5
150
  8
0
  6
CONTINUOUS
 62
     7
 10
7.1499023682
 20
-28.85
 30
0.0
 40
1.000000000000011
 50
22.3481083479
 51
86.8415388126
  0
ARC
  5
151
  8
0
  6
CONTINUOUS
 62
     7
 10
13.9900976318
 20
-28.85
 30
0.0
 40
1.0
 50
93.1584611874
 51
157.6518916521
  0
ARC
  5
152
  8
0
  6
CONTINUOUS
 62
     7
 10
13.8799023682
 20
-28.85
 30
0.0
 40
1.00000000000001
 50
22.3481083479
 51
86.8415388126
  0
ARC
  5
153
  8
0
  6
CONTINUOUS
 62
     7
 10
20.7200976318
 20
-28.85
 30
0.0
 40
1.000000000000088
 50
93.1584611874
 51
157.6518916521
  0
ARC
  5
154
  8
0
  6
CONTINUOUS
 62
     7
 10
20.6099023682
 20
-28.85
 30
0.0
 40
1.000000000000026
 50
22.3481083479
 51
86.8415388126
  0
ARC
  5
155
  8
0
  6
CONTINUOUS
 62
     7
 10
27.4500976318
 20
-28.85
 30
0.0
 40
1.000000000000022
 50
93.1584611874
 51
157.6518916521
  0
ARC
  5
156
  8
0
  6
CONTINUOUS
 62
     7
 10
27.3399023682
 20
-28.85
 30
0.0
 40
1.000000000000004
 50
22.3481083479
 51
86.8415388126
  0
ARC
  5
157
  8
0
  6
CONTINUOUS
 62
     7
 10
34.1800976318
 20
-28.85
 30
0.0
 40
1.000000000000025
 50
93.1584611874
 51
157.6518916521
  0
ARC
  5
158
  8
0
  6
CONTINUOUS
 62
     7
 10
34.0699023682
 20
-28.85
 30
0.0
 40
1.000000000000033
 50
22.3481083479
 51
86.8415388126
  0
ARC
  5
159
  8
0
  6
CONTINUOUS
 62
     7
 10
51.0
 20
-0.05
 30
0.0
 40
32.3
 50
270.0000004672
 51
90.0
  0
ARC
  5
15A
  8
0
  6
CONTINUOUS
 62
     7
 10
31.5899023682
 20
28.75
 30
0.0
 40
0.99999999999999
 50
273.1584611874
 51
337.6518916521
  0
ARC
  5
15B
  8
0
  6
CONTINUOUS
 62
     7
 10
31.7000976318
 20
28.75
 30
0.0
 40
1.00000000000001
 50
202.3481083479
 51
266.8415388126
  0
ARC
  5
15C
  8
0
  6
CONTINUOUS
 62
     7
 10
24.8599023682
 20
28.75
 30
0.0
 40
1.000000000000023
 50
273.1584611874
 51
337.6518916521
  0
ARC
  5
15D
  8
0
  6
CONTINUOUS
 62
     7
 10
24.9700976318
 20
28.75
 30
0.0
 40
1.000000000000015
 50
202.3481083479
 51
266.8415388126
  0
ARC
  5
15E
  8
0
  6
CONTINUOUS
 62
     7
 10
18.1299023682
 20
28.75
 30
0.0
 40
0.9999999999999787
 50
273.1584611874
 51
337.6518916521
  0
ARC
  5
15F
  8
0
  6
CONTINUOUS
 62
     7
 10
18.2400976318
 20
28.75
 30
0.0
 40
0.9999999999999997
 50
202.3481083479
 51
266.8415388126
  0
ARC
  5
160
  8
0
  6
CONTINUOUS
 62
     7
 10
11.3999023682
 20
28.75
 30
0.0
 40
0.9999999999999976
 50
273.1584611874
 51
337.6518916521
  0
ARC
  5
161
  8
0
  6
CONTINUOUS
 62
     7
 10
11.5100976318
 20
28.75
 30
0.0
 40
1.000000000000003
 50
202.3481083479
 51
266.8415388126
  0
ARC
  5
162
  8
0
  6
CONTINUOUS
 62
     7
 10
4.6699023682
 20
28.75
 30
0.0
 40
1.000000000000001
 50
273.1584611874
 51
337.6518916521
  0
ARC
  5
163
  8
0
  6
CONTINUOUS
 62
     7
 10
4.7800976318
 20
28.75
 30
0.0
 40
1.000000000000004
 50
202.3481083479
 51
266.8415388126
  0
ARC
  5
164
  8
0
  6
CONTINUOUS
 62
     7
 10
-2.0600976318
 20
28.75
 30
0.0
 40
1.000000000000001
 50
273.1584611874
 51
337.6518916521
  0
ARC
  5
165
  8
0
  6
CONTINUOUS
 62
     7
 10
-1.9499023682
 20
28.75
 30
0.0
 40
1.000000000000001
 50
202.3481083479
 51
266.8415388126
  0
ARC
  5
166
  8
0
  6
CONTINUOUS
 62
     7
 10
-8.7900976318
 20
28.75
 30
0.0
 40
0.9999999999999974
 50
273.1584611874
 51
337.6518916521
  0
ARC
  5
167
  8
0
  6
CONTINUOUS
 62
     7
 10
-8.6799023682
 20
28.75
 30
0.0
 40
1.000000000000014
 50
202.3481083479
 51
266.8415388126
  0
ARC
  5
168
  8
0
  6
CONTINUOUS
 62
     7
 10
-15.5200976318
 20
28.75
 30
0.0
 40
0.9999999999999868
 50
273.1584611874
 51
337.6518916521
  0
ARC
  5
169
  8
0
  6
CONTINUOUS
 62
     7
 10
-15.4099023682
 20
28.75
 30
0.0
 40
1.000000000000012
 50
202.3481083479
 51
266.8415388126
  0
ARC
  5
16A
  8
0
  6
CONTINUOUS
 62
     7
 10
-22.2500976318
 20
28.75
 30
0.0
 40
0.9999999999999974
 50
273.1584611874
 51
337.6518916521
  0
ARC
  5
16B
  8
0
  6
CONTINUOUS
 62
     7
 10
-22.1399023682
 20
28.75
 30
0.0
 40
1.000000000000004
 50
202.3481083479
 51
266.8415388126
  0
ARC
  5
16C
  8
0
  6
CONTINUOUS
 62
     7
 10
-28.9800976318
 20
28.75
 30
0.0
 40
0.9999999999999896
 50
273.1584611874
 51
337.6518916521
  0
ARC
  5
16D
  8
0
  6
CONTINUOUS
 62
     7
 10
-28.8699023682
 20
28.75
 30
0.0
 40
1.000000000000008
 50
202.3481083479
 51
266.8415388126
  0
ARC
  5
16E
  8
0
  6
CONTINUOUS
 62
     7
 10
-35.7100976318
 20
28.75
 30
0.0
 40
1.000000000000013
 50
273.1584611874
 51
337.6518916521
  0
ARC
  5
16F
  8
0
  6
CONTINUOUS
 62
     7
 10
-35.5999023682
 20
28.75
 30
0.0
 40
0.9999999999999998
 50
202.3481083479
 51
266.8415388126
  0
ARC
  5
170
  8
0
  6
CONTINUOUS
 62
     7
 10
-42.4400976318
 20
28.75
 30
0.0
 40
0.9999999999999887
 50
273.1584611874
 51
337.6518916521
  0
ARC
  5
171
  8
0
  6
CONTINUOUS
 62
     7
 10
-42.3299023682
 20
28.75
 30
0.0
 40
0.999999999999989
 50
202.3481083479
 51
266.8415388126
  0
ARC
  5
172
  8
0
  6
CONTINUOUS
 62
     7
 10
-39.8499023682
 20
-28.85
 30
0.0
 40
1.000000000000018
 50
93.1584611874
 51
157.6518916521
  0
ARC
  5
173
  8
0
  6
CONTINUOUS
 62
     7
 10
-39.9600976318
 20
-28.85
 30
0.0
 40
1.000000000000004
 50
22.3481083479
 51
86.8415388126
  0
ARC
  5
174
  8
0
  6
CONTINUOUS
 62
     7
 10
-51.0
 20
-0.05
 30
0.0
 40
32.3
 50
90.0
 51
265.674896262
  0
ENDSEC
  0
EOF
