  0
SECTION
  2
HEADER
  9
$ACADVER
  1
AC1027
  9
$ACADMAINTVER
 70
     8
  9
$DWGCODEPAGE
  3
ANSI_1252
  9
$REQUIREDVERSIONS
160
                 0
  9
$LASTSAVEDBY
  1
Trevor
  9
$INSBASE
 10
0.0
 20
0.0
 30
0.0
  9
$EXTMIN
 10
-339.7559613993577
 20
-277.305609241146
 30
-0.0000000000000001
  9
$EXTMAX
 10
860.2440386006423
 20
322.694390758854
 30
0.0000000000000002
  9
$LIMMIN
 10
0.0
 20
0.0
  9
$LIMMAX
 10
420.0
 20
297.0
  9
$ORTHOMODE
 70
     0
  9
$REGENMODE
 70
     1
  9
$FILLMODE
 70
     1
  9
$QTEXTMODE
 70
     0
  9
$MIRRTEXT
 70
     1
  9
$LTSCALE
 40
1.0
  9
$ATTMODE
 70
     1
  9
$TEXTSIZE
 40
100.0
  9
$TRACEWID
 40
1.0
  9
$TEXTSTYLE
  7
STANDARD
  9
$CLAYER
  8
VBORE_T2Z5F0.8
  9
$CELTYPE
  6
ByLayer
  9
$CECOLOR
 62
   256
  9
$CELTSCALE
 40
1.0
  9
$DISPSILH
 70
     0
  9
$DIMSCALE
 40
0.0
  9
$DIMASZ
 40
50.0
  9
$DIMEXO
 40
100.0
  9
$DIMDLI
 40
3.75
  9
$DIMRND
 40
0.0
  9
$DIMDLE
 40
0.0
  9
$DIMEXE
 40
1.25
  9
$DIMTP
 40
0.0
  9
$DIMTM
 40
0.0
  9
$DIMTXT
 40
2.5
  9
$DIMCEN
 40
2.5
  9
$DIMTSZ
 40
0.0
  9
$DIMTOL
 70
     0
  9
$DIMLIM
 70
     0
  9
$DIMTIH
 70
     0
  9
$DIMTOH
 70
     0
  9
$DIMSE1
 70
     0
  9
$DIMSE2
 70
     0
  9
$DIMTAD
 70
     1
  9
$DIMZIN
 70
     8
  9
$DIMBLK
  1

  9
$DIMASO
 70
     1
  9
$DIMSHO
 70
     1
  9
$DIMPOST
  1

  9
$DIMAPOST
  1

  9
$DIMALT
 70
     0
  9
$DIMALTD
 70
     4
  9
$DIMALTF
 40
0.0394
  9
$DIMLFAC
 40
1.0
  9
$DIMTOFL
 70
     1
  9
$DIMTVP
 40
0.0
  9
$DIMTIX
 70
     0
  9
$DIMSOXD
 70
     0
  9
$DIMSAH
 70
     0
  9
$DIMBLK1
  1

  9
$DIMBLK2
  1

  9
$DIMSTYLE
  2
STANDARD
  9
$DIMCLRD
 70
     0
  9
$DIMCLRE
 70
     0
  9
$DIMCLRT
 70
     0
  9
$DIMTFAC
 40
1.0
  9
$DIMGAP
 40
20.0
  9
$DIMJUST
 70
     0
  9
$DIMSD1
 70
     0
  9
$DIMSD2
 70
     0
  9
$DIMTOLJ
 70
     1
  9
$DIMTZIN
 70
     0
  9
$DIMALTZ
 70
     0
  9
$DIMALTTZ
 70
     0
  9
$DIMUPT
 70
     0
  9
$DIMDEC
 70
     4
  9
$DIMTDEC
 70
     4
  9
$DIMALTU
 70
     2
  9
$DIMALTTD
 70
     2
  9
$DIMTXSTY
  7
STANDARD
  9
$DIMAUNIT
 70
     0
  9
$DIMADEC
 70
     0
  9
$DIMALTRND
 40
0.0
  9
$DIMAZIN
 70
     0
  9
$DIMDSEP
 70
    46
  9
$DIMATFIT
 70
     3
  9
$DIMFRAC
 70
     0
  9
$DIMLDRBLK
  1

  9
$DIMLUNIT
 70
     2
  9
$DIMLWD
 70
    -2
  9
$DIMLWE
 70
    -2
  9
$DIMTMOVE
 70
     2
  9
$DIMFXL
 40
1.0
  9
$DIMFXLON
 70
     0
  9
$DIMJOGANG
 40
0.7853981633974483
  9
$DIMTFILL
 70
     0
  9
$DIMTFILLCLR
 70
     0
  9
$DIMARCSYM
 70
     0
  9
$DIMLTYPE
  6

  9
$DIMLTEX1
  6

  9
$DIMLTEX2
  6

  9
$DIMTXTDIRECTION
 70
     0
  9
$LUNITS
 70
     2
  9
$LUPREC
 70
     4
  9
$SKETCHINC
 40
1.0
  9
$FILLETRAD
 40
10.0
  9
$AUNITS
 70
     0
  9
$AUPREC
 70
     0
  9
$MENU
  1
.
  9
$ELEVATION
 40
0.0
  9
$PELEVATION
 40
0.0
  9
$THICKNESS
 40
0.0
  9
$LIMCHECK
 70
     0
  9
$CHAMFERA
 40
10.0
  9
$CHAMFERB
 40
10.0
  9
$CHAMFERC
 40
0.0
  9
$CHAMFERD
 40
0.0
  9
$SKPOLY
 70
     0
  9
$TDCREATE
 40
2455512.669131678
  9
$TDUCREATE
 40
2455512.585798345
  9
$TDUPDATE
 40
2457234.827965984
  9
$TDUUPDATE
 40
2457234.744632651
  9
$TDINDWG
 40
0.1551351852
  9
$TDUSRTIMER
 40
2457234.744627893
  9
$USRTIMER
 70
     1
  9
$ANGBASE
 50
0.0
  9
$ANGDIR
 70
     0
  9
$PDMODE
 70
     0
  9
$PDSIZE
 40
0.0
  9
$PLINEWID
 40
0.0
  9
$SPLFRAME
 70
     0
  9
$SPLINETYPE
 70
     6
  9
$SPLINESEGS
 70
     8
  9
$HANDSEED
  5
A65A
  9
$SURFTAB1
 70
     6
  9
$SURFTAB2
 70
     6
  9
$SURFTYPE
 70
     6
  9
$SURFU
 70
     6
  9
$SURFV
 70
     6
  9
$UCSBASE
  2

  9
$UCSNAME
  2

  9
$UCSORG
 10
0.0
 20
0.0
 30
0.0
  9
$UCSXDIR
 10
1.0
 20
0.0
 30
0.0
  9
$UCSYDIR
 10
0.0
 20
1.0
 30
0.0
  9
$UCSORTHOREF
  2

  9
$UCSORTHOVIEW
 70
     0
  9
$UCSORGTOP
 10
0.0
 20
0.0
 30
0.0
  9
$UCSORGBOTTOM
 10
0.0
 20
0.0
 30
0.0
  9
$UCSORGLEFT
 10
0.0
 20
0.0
 30
0.0
  9
$UCSORGRIGHT
 10
0.0
 20
0.0
 30
0.0
  9
$UCSORGFRONT
 10
0.0
 20
0.0
 30
0.0
  9
$UCSORGBACK
 10
0.0
 20
0.0
 30
0.0
  9
$PUCSBASE
  2

  9
$PUCSNAME
  2

  9
$PUCSORG
 10
0.0
 20
0.0
 30
0.0
  9
$PUCSXDIR
 10
1.0
 20
0.0
 30
0.0
  9
$PUCSYDIR
 10
0.0
 20
1.0
 30
0.0
  9
$PUCSORTHOREF
  2

  9
$PUCSORTHOVIEW
 70
     0
  9
$PUCSORGTOP
 10
0.0
 20
0.0
 30
0.0
  9
$PUCSORGBOTTOM
 10
0.0
 20
0.0
 30
0.0
  9
$PUCSORGLEFT
 10
0.0
 20
0.0
 30
0.0
  9
$PUCSORGRIGHT
 10
0.0
 20
0.0
 30
0.0
  9
$PUCSORGFRONT
 10
0.0
 20
0.0
 30
0.0
  9
$PUCSORGBACK
 10
0.0
 20
0.0
 30
0.0
  9
$USERI1
 70
     0
  9
$USERI2
 70
     0
  9
$USERI3
 70
     0
  9
$USERI4
 70
     0
  9
$USERI5
 70
     0
  9
$USERR1
 40
0.0
  9
$USERR2
 40
0.0
  9
$USERR3
 40
0.0
  9
$USERR4
 40
0.0
  9
$USERR5
 40
0.0
  9
$WORLDVIEW
 70
     1
  9
$SHADEDGE
 70
     3
  9
$SHADEDIF
 70
    70
  9
$TILEMODE
 70
     1
  9
$MAXACTVP
 70
    48
  9
$PINSBASE
 10
0.0
 20
0.0
 30
0.0
  9
$PLIMCHECK
 70
     0
  9
$PEXTMIN
 10
1.000000000000000E+20
 20
1.000000000000000E+20
 30
1.000000000000000E+20
  9
$PEXTMAX
 10
-1.000000000000000E+20
 20
-1.000000000000000E+20
 30
-1.000000000000000E+20
  9
$PLIMMIN
 10
0.0
 20
0.0
  9
$PLIMMAX
 10
0.0
 20
0.0
  9
$UNITMODE
 70
     0
  9
$VISRETAIN
 70
     1
  9
$PLINEGEN
 70
     0
  9
$PSLTSCALE
 70
     1
  9
$TREEDEPTH
 70
  3020
  9
$CMLSTYLE
  2
Standard
  9
$CMLJUST
 70
     0
  9
$CMLSCALE
 40
1.0
  9
$PROXYGRAPHICS
 70
     1
  9
$MEASUREMENT
 70
     0
  9
$CELWEIGHT
370
    -1
  9
$ENDCAPS
280
     0
  9
$JOINSTYLE
280
     0
  9
$LWDISPLAY
290
     0
  9
$INSUNITS
 70
     0
  9
$HYPERLINKBASE
  1

  9
$STYLESHEET
  1

  9
$XEDIT
290
     1
  9
$CEPSNTYPE
380
     0
  9
$PSTYLEMODE
290
     0
  9
$FINGERPRINTGUID
  2
{5C6D04E4-0062-4B3C-9110-84759BA7103B}
  9
$VERSIONGUID
  2
{FAEB1C32-E019-11D5-929B-00C0DF256EC4}
  9
$EXTNAMES
290
     1
  9
$PSVPSCALE
 40
0.0
  9
$OLESTARTUP
290
     0
  9
$SORTENTS
280
   127
  9
$INDEXCTL
280
     0
  9
$HIDETEXT
280
     1
  9
$XCLIPFRAME
280
     2
  9
$HALOGAP
280
     0
  9
$OBSCOLOR
 70
   257
  9
$OBSLTYPE
280
     0
  9
$INTERSECTIONDISPLAY
280
     0
  9
$INTERSECTIONCOLOR
 70
   257
  9
$DIMASSOC
280
     2
  9
$PROJECTNAME
  1

  9
$CAMERADISPLAY
290
     0
  9
$LENSLENGTH
 40
50.0
  9
$CAMERAHEIGHT
 40
0.0
  9
$STEPSPERSEC
 40
2.0
  9
$STEPSIZE
 40
6.0
  9
$3DDWFPREC
 40
2.0
  9
$PSOLWIDTH
 40
0.25
  9
$PSOLHEIGHT
 40
4.0
  9
$LOFTANG1
 40
1.570796326794897
  9
$LOFTANG2
 40
1.570796326794897
  9
$LOFTMAG1
 40
0.0
  9
$LOFTMAG2
 40
0.0
  9
$LOFTPARAM
 70
     7
  9
$LOFTNORMALS
280
     1
  9
$LATITUDE
 40
37.795
  9
$LONGITUDE
 40
-122.394
  9
$NORTHDIRECTION
 40
0.0
  9
$TIMEZONE
 70
 -8000
  9
$LIGHTGLYPHDISPLAY
280
     1
  9
$TILEMODELIGHTSYNCH
280
     1
  9
$SOLIDHIST
280
     0
  9
$SHOWHIST
280
     1
  9
$DWFFRAME
280
     2
  9
$DGNFRAME
280
     2
  9
$REALWORLDSCALE
290
     1
  9
$INTERFERECOLOR
 62
   256
  9
$CSHADOW
280
     0
  9
$SHADOWPLANELOCATION
 40
0.0
  0
ENDSEC
  0
SECTION
  2
CLASSES
  0
CLASS
  1
ACDBDICTIONARYWDFLT
  2
AcDbDictionaryWithDefault
  3
ObjectDBX Classes
 90
        0
 91
        7
280
     0
281
     0
  0
CLASS
  1
MATERIAL
  2
AcDbMaterial
  3
ObjectDBX Classes
 90
     1153
 91
        7
280
     0
281
     0
  0
CLASS
  1
SCALE
  2
AcDbScale
  3
ObjectDBX Classes
 90
     1153
 91
        7
280
     0
281
     0
  0
CLASS
  1
VISUALSTYLE
  2
AcDbVisualStyle
  3
ObjectDBX Classes
 90
     4095
 91
        7
280
     0
281
     0
  0
CLASS
  1
TABLESTYLE
  2
AcDbTableStyle
  3
ObjectDBX Classes
 90
     4095
 91
        7
280
     0
281
     0
  0
CLASS
  1
MLEADERSTYLE
  2
AcDbMLeaderStyle
  3
ACDB_MLEADERSTYLE_CLASS
 90
     4095
 91
        7
280
     0
281
     0
  0
CLASS
  1
SUN
  2
AcDbSun
  3
SCENEOE
 90
     1153
 91
        7
280
     0
281
     0
  0
CLASS
  1
RASTERVARIABLES
  2
AcDbRasterVariables
  3
ISM
 90
        0
 91
        7
280
     0
281
     0
  0
CLASS
  1
DICTIONARYVAR
  2
AcDbDictionaryVar
  3
ObjectDBX Classes
 90
        0
 91
        7
280
     0
281
     0
  0
CLASS
  1
CELLSTYLEMAP
  2
AcDbCellStyleMap
  3
ObjectDBX Classes
 90
     1152
 91
        7
280
     0
281
     0
  0
CLASS
  1
SORTENTSTABLE
  2
AcDbSortentsTable
  3
ObjectDBX Classes
 90
        0
 91
        7
280
     0
281
     0
  0
ENDSEC
  0
SECTION
  2
TABLES
  0
TABLE
  2
VPORT
  5
4D68
330
0
100
AcDbSymbolTable
 70
     1
  0
VPORT
  5
4D7F
330
4D68
100
AcDbSymbolTableRecord
100
AcDbViewportTableRecord
  2
*ACTIVE
 70
     0
 10
0.0
 20
0.0
 11
1.0
 21
1.0
 12
308.2695993027644
 22
-482.4896018304579
 13
0.0
 23
0.0
 14
10.0
 24
10.0
 15
10.0
 25
10.0
 16
0.0
 26
0.0
 36
1.0
 17
-65.23356873579235
 27
480.1809574906463
 37
-32.31753224278349
 40
779.8563356311078
 41
2.509615384615385
 42
50.0
 43
0.0
 44
0.0
 50
0.0
 51
0.0
 71
    16
 72
   100
 73
     1
 74
     0
 75
     0
 76
     0
 77
     0
 78
     0
281
     0
 65
     1
110
0.0
120
0.0
130
0.0
111
1.0
121
0.0
131
0.0
112
0.0
122
1.0
132
0.0
 79
     0
146
0.0
348
4DC6
 60
     3
 61
     5
292
     1
282
     1
141
0.0
142
0.0
 63
   256
361
4DDF
  0
ENDTAB
  0
TABLE
  2
LTYPE
  5
4D65
330
0
100
AcDbSymbolTable
 70
     2
  0
LTYPE
  5
4D73
330
4D65
100
AcDbSymbolTableRecord
100
AcDbLinetypeTableRecord
  2
ByBlock
 70
     0
  3

 72
    65
 73
     0
 40
0.0
  0
LTYPE
  5
4D74
330
4D65
100
AcDbSymbolTableRecord
100
AcDbLinetypeTableRecord
  2
ByLayer
 70
     0
  3

 72
    65
 73
     0
 40
0.0
  0
LTYPE
  5
4D75
330
4D65
100
AcDbSymbolTableRecord
100
AcDbLinetypeTableRecord
  2
CONTINUOUS
 70
     0
  3
Solid line
 72
    65
 73
     0
 40
0.0
  0
LTYPE
  5
4D81
330
4D65
100
AcDbSymbolTableRecord
100
AcDbLinetypeTableRecord
  2
CENTERX2
 70
     0
  3
Center (2x) ________  __  ________  __  _____
 72
    65
 73
     4
 40
20.32
 49
12.7
 74
     0
 49
-2.54
 74
     0
 49
2.54
 74
     0
 49
-2.54
 74
     0
  0
ENDTAB
  0
TABLE
  2
LAYER
  5
4D62
102
{ACAD_XDICTIONARY
360
4FAF
102
}
330
0
100
AcDbSymbolTable
 70
     5
  0
LAYER
  5
4D70
330
4D62
100
AcDbSymbolTableRecord
100
AcDbLayerTableRecord
  2
0
 70
     0
 62
     7
  6
CONTINUOUS
370
    -3
390
4D6F
347
4D86
348
0
  0
LAYER
  5
4D88
330
4D62
100
AcDbSymbolTableRecord
100
AcDbLayerTableRecord
  2
BORDER_Z16_3
 70
     0
 62
   150
  6
CONTINUOUS
370
    -3
390
4D6F
347
4D86
348
0
  0
LAYER
  5
4D8A
330
4D62
100
AcDbSymbolTableRecord
100
AcDbLayerTableRecord
  2
VBORE_T2Z5F0.8
 70
     0
 62
   150
  6
CONTINUOUS
370
    -3
390
4D6F
347
4D86
348
0
  0
LAYER
  5
4D90
330
4D62
100
AcDbSymbolTableRecord
100
AcDbLayerTableRecord
  2
ROUTE_T57CF3E1Z4N4
 70
     0
 62
     6
  6
CONTINUOUS
370
    -3
390
4D6F
347
4D86
348
0
  0
LAYER
  5
4D94
330
4D62
100
AcDbSymbolTableRecord
100
AcDbLayerTableRecord
  2
ROUTE_T58CF3E1Z4
 70
     0
 62
     3
  6
CONTINUOUS
370
    -3
390
4D6F
347
4D86
348
0
  0
ENDTAB
  0
TABLE
  2
STYLE
  5
4D63
330
0
100
AcDbSymbolTable
 70
     2
  0
STYLE
  5
4D71
330
4D63
100
AcDbSymbolTableRecord
100
AcDbTextStyleTableRecord
  2
STANDARD
 70
     0
 40
100.0
 41
1.0
 50
0.0
 71
     0
 42
100.0
  3
txt.shx
  4

  0
STYLE
  5
4D98
330
4D63
100
AcDbSymbolTableRecord
100
AcDbTextStyleTableRecord
  2
SLDTEXTSTYLE0
 70
     0
 40
0.0
 41
0.75
 50
0.0
 71
     0
 42
100.0
  3
TXT
  4

  0
ENDTAB
  0
TABLE
  2
VIEW
  5
4D66
330
0
100
AcDbSymbolTable
 70
     0
  0
ENDTAB
  0
TABLE
  2
UCS
  5
4D67
330
0
100
AcDbSymbolTable
 70
     0
  0
ENDTAB
  0
TABLE
  2
APPID
  5
4D69
330
0
100
AcDbSymbolTable
 70
     2
  0
APPID
  5
4D72
330
4D69
100
AcDbSymbolTableRecord
100
AcDbRegAppTableRecord
  2
ACAD
 70
     0
  0
APPID
  5
4D9A
330
4D69
100
AcDbSymbolTableRecord
100
AcDbRegAppTableRecord
  2
ACAECLAYERSTANDARD
 70
     0
  0
ENDTAB
  0
TABLE
  2
DIMSTYLE
  5
4D6A
330
0
100
AcDbSymbolTable
 70
     2
100
AcDbDimStyleTable
  0
DIMSTYLE
105
4D9B
330
4D6A
100
AcDbSymbolTableRecord
100
AcDbDimStyleTableRecord
  2
STANDARD
 70
     0
178
     0
340
4D71
  0
DIMSTYLE
105
4D9C
330
4D6A
100
AcDbSymbolTableRecord
100
AcDbDimStyleTableRecord
  2
ISO-25
 70
     0
 41
2.5
 42
0.625
 43
3.75
 44
1.25
 73
     0
 74
     0
 77
     1
 78
     8
140
2.5
141
2.5
143
0.0393700787
147
0.625
171
     3
172
     1
178
     0
340
4D71
  0
ENDTAB
  0
TABLE
  2
BLOCK_RECORD
  5
4D61
330
0
100
AcDbSymbolTable
 70
     1
  0
BLOCK_RECORD
  5
4D7C
102
{ACAD_XDICTIONARY
360
6731
102
}
330
4D61
100
AcDbSymbolTableRecord
100
AcDbBlockTableRecord
  2
*Model_Space
340
4D7D
 70
     0
280
     1
281
     0
  0
BLOCK_RECORD
  5
4D7A
330
4D61
100
AcDbSymbolTableRecord
100
AcDbBlockTableRecord
  2
*Paper_Space
340
4D7B
 70
     0
280
     1
281
     0
  0
ENDTAB
  0
ENDSEC
  0
SECTION
  2
BLOCKS
  0
BLOCK
  5
4D9D
330
4D7C
100
AcDbEntity
  8
0
100
AcDbBlockBegin
  2
*Model_Space
 70
     0
 10
0.0
 20
0.0
 30
0.0
  3
*Model_Space
  1
*Model_Space
  0
ENDBLK
  5
1A
330
4D7C
100
AcDbEntity
  8
0
100
AcDbBlockEnd
  0
BLOCK
  5
4D9E
330
4D7A
100
AcDbEntity
 67
     1
  8
0
100
AcDbBlockBegin
  2
*Paper_Space
 70
     0
 10
0.0
 20
0.0
 30
0.0
  3
*Paper_Space
  1
*Paper_Space
  0
ENDBLK
  5
17
330
4D7A
100
AcDbEntity
 67
     1
  8
0
100
AcDbBlockEnd
  0
ENDSEC
  0
SECTION
  2
ENTITIES
  0
LINE
  5
C83
330
4D7C
100
AcDbEntity
  8
0
  6
Continuous
100
AcDbLine
 10
420.1729057999759
 20
204.0427217606244
 30
0.0
 11
420.1729057999759
 21
188.2178294863244
 31
0.0
  0
LINE
  5
C84
330
4D7C
100
AcDbEntity
  8
0
  6
Continuous
100
AcDbLine
 10
416.7262377028759
 20
204.0427217606244
 30
0.0
 11
420.1729057999759
 21
204.0427217606244
 31
0.0
  0
LINE
  5
C85
330
4D7C
100
AcDbEntity
  8
0
  6
Continuous
100
AcDbLine
 10
416.7262377028759
 20
188.2192445704244
 30
0.0
 11
416.7262377028759
 21
204.0427217606244
 31
0.0
  0
LINE
  5
C87
330
4D7C
100
AcDbEntity
  8
0
  6
Continuous
100
AcDbLine
 10
362.3226279648759
 20
204.0427217606244
 30
0.0
 11
362.3226279647758
 21
188.4986235266244
 31
0.0
  0
LINE
  5
C88
330
4D7C
100
AcDbEntity
  8
0
  6
Continuous
100
AcDbLine
 10
359.3041095750759
 20
204.0427217606244
 30
0.0
 11
362.3226279648759
 21
204.0427217606244
 31
0.0
  0
LINE
  5
C89
330
4D7C
100
AcDbEntity
  8
0
  6
Continuous
100
AcDbLine
 10
359.3041095750759
 20
188.5281929795244
 30
0.0
 11
359.3041095750759
 21
204.0427217606244
 31
0.0
  0
LINE
  5
C8B
330
4D7C
100
AcDbEntity
  8
0
  6
Continuous
100
AcDbLine
 10
294.4316426159759
 20
204.0427217606244
 30
0.0
 11
294.4316427186759
 21
189.5257850360244
 31
0.0
  0
LINE
  5
C8C
330
4D7C
100
AcDbEntity
  8
0
  6
Continuous
100
AcDbLine
 10
291.4051530637759
 20
204.0427217606244
 30
0.0
 11
294.4316426159759
 21
204.0427217606244
 31
0.0
  0
LINE
  5
C8D
330
4D7C
100
AcDbEntity
  8
0
  6
Continuous
100
AcDbLine
 10
291.4051530637759
 20
189.5891272980244
 30
0.0
 11
291.4051530637759
 21
204.0427217606244
 31
0.0
  0
LINE
  5
C8F
330
4D7C
100
AcDbEntity
  8
0
  6
Continuous
100
AcDbLine
 10
224.6334145938758
 20
204.0427217606244
 30
0.0
 11
224.6334146053759
 21
191.3680542669244
 31
0.0
  0
LINE
  5
C90
330
4D7C
100
AcDbEntity
  8
0
  6
Continuous
100
AcDbLine
 10
221.6069250417759
 20
204.0427217606244
 30
0.0
 11
224.6334145938758
 21
204.0427217606244
 31
0.0
  0
LINE
  5
C91
330
4D7C
100
AcDbEntity
  8
0
  6
Continuous
100
AcDbLine
 10
221.6069250417759
 20
191.4659654962244
 30
0.0
 11
221.6069250417759
 21
204.0427217606244
 31
0.0
  0
LINE
  5
C93
330
4D7C
100
AcDbEntity
  8
0
  6
Continuous
100
AcDbLine
 10
159.1085474711759
 20
204.0427217606244
 30
0.0
 11
159.1085474852759
 21
193.8230382115244
 31
0.0
  0
LINE
  5
C94
330
4D7C
100
AcDbEntity
  8
0
  6
Continuous
100
AcDbLine
 10
156.082057918976
 20
204.0427217606244
 30
0.0
 11
159.1085474711759
 21
204.0427217606244
 31
0.0
  0
LINE
  5
C95
330
4D7C
100
AcDbEntity
  8
0
  6
Continuous
100
AcDbLine
 10
156.0820579210759
 20
193.9534138433244
 30
0.0
 11
156.082057918976
 21
204.0427217606244
 31
0.0
  0
LINE
  5
C97
330
4D7C
100
AcDbEntity
  8
0
  6
Continuous
100
AcDbLine
 10
95.48295185917596
 20
204.0427217606244
 30
0.0
 11
95.48295176687594
 21
196.8798232984244
 31
0.0
  0
LINE
  5
C98
330
4D7C
100
AcDbEntity
  8
0
  6
Continuous
100
AcDbLine
 10
92.45646230697594
 20
204.0427217606244
 30
0.0
 11
95.48295185917596
 21
204.0427217606244
 31
0.0
  0
LINE
  5
C99
330
4D7C
100
AcDbEntity
  8
0
  6
Continuous
100
AcDbLine
 10
92.45646230697594
 20
197.0417656807244
 30
0.0
 11
92.45646230697594
 21
204.0427217606244
 31
0.0
  0
LINE
  5
C9B
330
4D7C
100
AcDbEntity
  8
0
  6
Continuous
100
AcDbLine
 10
31.85735624717597
 20
204.0427217606244
 30
0.0
 11
31.85735624607594
 21
200.6007113712244
 31
0.0
  0
LINE
  5
C9C
330
4D7C
100
AcDbEntity
  8
0
  6
Continuous
100
AcDbLine
 10
28.83086669507594
 20
204.0427217606244
 30
0.0
 11
31.85735624717597
 21
204.0427217606244
 31
0.0
  0
LINE
  5
C9D
330
4D7C
100
AcDbEntity
  8
0
  6
Continuous
100
AcDbLine
 10
28.83086669987597
 20
200.7942727551244
 30
0.0
 11
28.83086669507594
 21
204.0427217606244
 31
0.0
  0
LWPOLYLINE
  5
CA3
330
4D7C
100
AcDbEntity
  8
0
  6
Continuous
100
AcDbPolyline
 90
      777
 70
     0
 43
0.0
 10
458.042770666999
 20
65.0772340605198
 10
458.3701354675882
 20
65.08046380637737
 10
458.6974993386904
 20
65.08376760928924
 10
459.0248613508189
 20
65.08721952630968
 10
459.3522205744868
 20
65.09089361449298
 10
459.6795760802071
 20
65.09486393089341
 10
460.0069269523663
 20
65.09920285138097
 10
460.3342726345511
 20
65.10393922333093
 10
460.6616129533583
 20
65.1090554803336
 10
460.9889477540256
 20
65.11453179699167
 10
461.3162768817912
 20
65.12034834790788
 10
461.643600181893
 20
65.12648530768493
 10
461.9709174697185
 20
65.13292646265334
 10
462.2982284225473
 20
65.13967230935043
 10
462.6255326777452
 20
65.14672817361902
 10
462.952829872674
 20
65.15409938177872
 10
463.2801196446959
 20
65.16179126014904
 10
463.6074016319008
 20
65.16980904667845
 10
463.9346754964735
 20
65.17815505526714
 10
464.2619409296582
 20
65.1868280732731
 10
464.5891976244309
 20
65.195826677857
 10
464.916445273768
 20
65.20514944617948
 10
465.2436835706454
 20
65.21479495540117
 10
465.5709122062034
 20
65.22476200535473
 10
465.8981308618141
 20
65.23505058041651
 10
466.2253392156141
 20
65.24566105730393
 10
466.5525369457383
 20
65.25659381298806
 10
466.8797237303215
 20
65.26784922443986
 10
467.2068992475377
 20
65.27942766403694
 10
467.5340631772526
 20
65.29132930608579
 10
467.8612152016318
 20
65.30355405570569
 10
468.1883550030046
 20
65.31610179877816
 10
468.5154822637007
 20
65.32897242118477
 10
468.8425966660496
 20
65.3421658088071
 10
469.1696978923016
 20
65.35568186056035
 10
469.4967856242199
 20
65.36952055499215
 10
469.8238595433841
 20
65.38368190071684
 10
470.1509193313736
 20
65.39816590640453
 10
470.4779646697681
 20
65.41297258072537
 10
470.8049952401512
 20
65.42810193208152
 10
471.13201072438
 20
65.44355395331003
 10
471.459010804729
 20
65.45932861340857
 10
471.7859951635078
 20
65.47542587935718
 10
472.1129634830264
 20
65.49184571813595
 10
472.4399154455945
 20
65.50858809672499
 10
472.7668507335663
 20
65.52565298232055
 10
473.0937690296062
 20
65.54304034364144
 10
473.4206700165129
 20
65.56075015006063
 10
473.7475533770851
 20
65.57878237095375
 10
474.0744187941214
 20
65.59713697569626
 10
474.4012659504239
 20
65.61581393362482
 10
474.728094529037
 20
65.63481321085601
 10
475.054904213426
 20
65.65413476792614
 10
475.381694687098
 20
65.6737785648155
 10
475.7084656335603
 20
65.69374456150432
 10
476.0352167363204
 20
65.71403271797287
 10
476.3619476789457
 20
65.7346429937324
 10
476.6886581455019
 20
65.75557534444943
 10
477.015347820298
 20
65.77682972390701
 10
477.342016387645
 20
65.79840608587536
 10
477.6686635318536
 20
65.82030438412458
 10
477.9952889372369
 20
65.84252457240792
 10
478.3218922883975
 20
65.86506660229243
 10
478.64847327051
 20
65.88793042102377
 10
478.9750315688167
 20
65.91111597534035
 10
479.3015668685595
 20
65.93462321198068
 10
479.6280788549803
 20
65.95845207768319
 10
479.9545672133862
 20
65.98260251876805
 10
480.2810316297117
 20
66.00707447750116
 10
480.6074717902438
 20
66.0318678938717
 10
480.9338873812739
 20
66.05698270784363
 10
481.2602780890929
 20
66.08241885938081
 10
481.5866435999936
 20
66.10817628843918
 10
481.9129836005926
 20
66.13425493308789
 10
482.2392977782464
 20
66.1606547270882
 10
482.5655858204148
 20
66.18737560360294
 10
482.8918474145573
 20
66.21441749579503
 10
483.2180822481334
 20
66.24178033682732
 10
483.5442900086658
 20
66.26946405953329
 10
483.8704703844132
 20
66.29746859288203
 10
484.1966230641133
 20
66.32579386333262
 10
484.5227477365118
 20
66.3544397973017
 10
484.8488440903544
 20
66.38340632120574
 10
485.1749118143871
 20
66.4126933614586
 10
485.500950597696
 20
66.44230084284973
 10
485.8269601302782
 20
66.4722286858109
 10
486.152940102282
 20
66.50247681005042
 10
486.4788902038559
 20
66.53304513527672
 10
486.8048101251481
 20
66.56393358119814
 10
487.1306995563631
 20
66.59514206727782
 10
487.4565581885265
 20
66.62667050937408
 10
487.7823857132892
 20
66.65851882060355
 10
488.1081818223175
 20
66.69068691401415
 10
488.433946207278
 20
66.72317470265384
 10
488.7596785598367
 20
66.75598209957015
 10
489.0853785719954
 20
66.78910901645389
 10
489.4110459368351
 20
66.82255536062247
 10
489.736680347654
 20
66.85632103851361
 10
490.0622814977505
 20
66.890405956565
 10
490.3878490804227
 20
66.92481002121437
 10
490.7133827890144
 20
66.9595331387292
 10
491.0388823177456
 20
66.99457521208187
 10
491.3643473616303
 20
67.02993614126201
 10
491.6897776157111
 20
67.06561582615169
 10
492.0151727750305
 20
67.10161416663288
 10
492.3405325346312
 20
67.13793106258763
 10
492.6658565898664
 20
67.1745664128086
 10
492.9911446373266
 20
67.21152011175688
 10
493.3163963739092
 20
67.24879205281701
 10
493.6416114965118
 20
67.28638212937359
 10
493.9667897020323
 20
67.3242902348112
 10
494.2919306874003
 20
67.36251626240747
 10
494.6170341504424
 20
67.4010601025049
 10
494.9420997899692
 20
67.43992164221808
 10
495.2671273048427
 20
67.47910076849612
 10
495.5921163939245
 20
67.51859736828814
 10
495.9170667560763
 20
67.55841132854329
 10
496.2419780904309
 20
67.5985425353762
 10
496.5668500974904
 20
67.6389908706917
 10
496.8916824781876
 20
67.67975621506983
 10
497.2164749334555
 20
67.72083844909014
 10
497.5412271642268
 20
67.76223745333226
 10
497.8659388714544
 20
67.80395310831828
 10
498.1906097569644
 20
67.84598529204251
 10
498.5152395237795
 20
67.88833387903428
 10
498.8398278750097
 20
67.9309987435722
 10
499.1643745137645
 20
67.97397975993486
 10
499.4888791431536
 20
68.01727680240087
 10
499.8133414665066
 20
68.06088974464762
 10
500.1377611886155
 20
68.1048184563602
 10
500.4621380148671
 20
68.1490628055967
 10
500.7864716506509
 20
68.19362266041043
 10
501.1107618013558
 20
68.23849788885468
 10
501.4350081723801
 20
68.28368835895908
 10
501.7592104699278
 20
68.3291939366703
 10
502.0833684016256
 20
68.37501448425736
 10
502.4074816752454
 20
68.42114986361386
 10
502.7315499985589
 20
68.46759993663346
 10
503.0555730793383
 20
68.51436456520972
 10
503.3795506255176
 20
68.56144361083959
 10
503.7034823465278
 20
68.60883693136596
 10
504.0273679526067
 20
68.65654438266132
 10
504.3512071539999
 20
68.70456582057895
 10
504.6749996609531
 20
68.75290110097224
 10
504.9987451837144
 20
68.80155007968871
 10
505.3224434332308
 20
68.85051261093469
 10
505.646094122108
 20
68.8997885450224
 10
505.9696969631918
 20
68.94937773169914
 10
506.2932516693286
 20
68.99928002071232
 10
506.6167579533644
 20
69.04949526180917
 10
506.9402155282477
 20
69.10002330452006
 10
507.2636241083473
 20
69.15086399537086
 10
507.5869834090685
 20
69.20201717869267
 10
507.9102931458409
 20
69.25348269876658
 10
508.2335530340935
 20
69.30526039987365
 10
508.5567627892559
 20
69.35735012629473
 10
508.8799221273674
 20
69.40975172084224
 10
509.2030307665182
 20
69.46246502139157
 10
509.526088425229
 20
69.51548986478169
 10
509.8490948220207
 20
69.56882608785155
 10
510.1720496754139
 20
69.62247352744009
 10
510.4949527039618
 20
69.67643202039324
 10
510.8178036269907
 20
69.73070140372207
 10
511.140602164615
 20
69.78528151460607
 10
511.463348036984
 20
69.84017219023228
 10
511.7860409642473
 20
69.8953732677878
 10
512.1086806665548
 20
69.95088458445967
 10
512.4312668650405
 20
70.00670597372616
 10
512.7537992857979
 20
70.06283725038628
 10
513.0762776564779
 20
70.11927822337142
 10
513.3987017047325
 20
70.17602870161087
 10
513.7210711582131
 20
70.23308849403382
 10
514.0433857444716
 20
70.29045741013411
 10
514.365645185722
 20
70.34813528949242
 10
514.6878491962707
 20
70.40612201626875
 10
515.0099974897846
 20
70.46441747822742
 10
515.3320897799306
 20
70.52302156313269
 10
515.6541257803754
 20
70.58193415874881
 10
515.9761052099043
 20
70.64115512822
 10
516.2980278286026
 20
70.70068413603153
 10
516.6198934165177
 20
70.76052075064611
 10
516.9417017538268
 20
70.82066453990194
 10
517.2634526207074
 20
70.88111507163737
 10
517.5851457970651
 20
70.94187191505206
 10
517.9067809981929
 20
71.00293496272901
 10
518.2283577916554
 20
71.06430484663393
 10
518.5498757244637
 20
71.12598230160556
 10
518.8713343436283
 20
71.18796806248267
 10
519.1927331961597
 20
71.25026286410402
 10
519.5140718617391
 20
71.31286727966283
 10
519.8353503989404
 20
71.37577951292207
 10
520.1565692299624
 20
71.43899596852471
 10
520.4777287860719
 20
71.50251300624824
 10
520.7988294985356
 20
71.56632698587009
 10
521.11987179862
 20
71.63043426716925
 10
521.4408560245105
 20
71.69483170096477
 10
521.761782157952
 20
71.75951801843857
 10
522.0826500953822
 20
71.82449240080037
 10
522.4034597332391
 20
71.88975402925992
 10
522.7242109679606
 20
71.95530208502691
 10
523.0449036959848
 20
72.02113574931106
 10
523.3655377729145
 20
72.08725440786485
 10
523.6861127885162
 20
72.15365877802411
 10
524.0066282261545
 20
72.22035011009658
 10
524.327083568911
 20
72.2873296558029
 10
524.6474782998686
 20
72.35459866686391
 10
524.9678119021088
 20
72.42215839500028
 10
525.2880837816291
 20
72.49001042397195
 10
525.6082926513741
 20
72.55815932282455
 10
525.9284368578377
 20
72.626611239069
 10
526.2485147441872
 20
72.69537233454749
 10
526.5685246535892
 20
72.76444877110217
 10
526.888464929211
 20
72.83384671057522
 10
527.2083342039656
 20
72.90357100033624
 10
527.5281339477641
 20
72.97361361734566
 10
527.8478672365494
 20
73.04395925258649
 10
528.1675371645466
 20
73.11459251410439
 10
528.4871468259804
 20
73.18549800994505
 10
528.8066993150761
 20
73.25666034815414
 10
529.1261980485336
 20
73.32806280416335
 10
529.4456491168454
 20
73.39967760408923
 10
529.7650599328343
 20
73.47147150957751
 10
530.0844377544371
 20
73.54341197668123
 10
530.4037850368037
 20
73.6154878974383
 10
530.7230987833765
 20
73.687712496163
 10
531.042374106409
 20
73.7601072559251
 10
531.3615804881971
 20
73.83280512942812
 10
531.6806668780331
 20
73.90602836454254
 10
531.9996317505578
 20
73.97978113788234
 10
532.3185984019642
 20
74.0535180285168
 10
532.6373538095858
 20
74.12815708339807
 10
532.9547463505646
 20
74.2085096208182
 10
533.2683780376977
 20
74.30232168117824
 10
533.5761560024044
 20
74.41397573453327
 10
533.876656994025
 20
74.54388408901441
 10
534.1678895210031
 20
74.6934326084349
 10
534.4476667830174
 20
74.86343727079553
 10
534.7135947098815
 20
75.0543763708822
 10
534.9632379988419
 20
75.26615739903491
 10
535.194317375938
 20
75.4980519626496
 10
535.4049118783925
 20
75.74868926260989
 10
535.5937255370644
 20
76.0161427209868
 10
535.7598817568421
 20
76.29816475064688
 10
535.9043236250128
 20
76.59217861944073
 10
536.0270948571532
 20
76.89616516227885
 10
536.1254660389433
 20
77.20893401267666
 10
536.1966428693567
 20
77.52910894258588
 10
536.2380413192551
 20
77.85438236388
 10
536.2472453900698
 20
78.18216207440923
 10
536.2234336754838
 20
78.50932086138278
 10
536.1669828727469
 20
78.83234119747995
 10
536.0792946538123
 20
79.14826603080002
 10
535.9634614547687
 20
79.45510496961377
 10
535.8226052312899
 20
79.75110439006464
 10
535.6591539582436
 20
80.0352493927811
 10
535.4752917589766
 20
80.30674514782334
 10
535.2720732322949
 20
80.563822622691
 10
535.0488887773432
 20
80.80328550271156
 10
534.806598528566
 20
81.02364115748836
 10
534.5483935369183
 20
81.22601497576711
 10
534.2759892070484
 20
81.40857984769077
 10
533.9886630978971
 20
81.5648868814815
 10
533.687992667947
 20
81.69431502068633
 10
533.3799802881879
 20
81.80723321854734
 10
533.0697879803257
 20
81.91300882206413
 10
532.7584761212119
 20
82.01426393044139
 10
532.4462941008541
 20
82.11228695666522
 10
532.1334911084966
 20
82.20836443216525
 10
531.8202847118463
 20
82.30348653134435
 10
531.5068266649047
 20
82.39802662261368
 10
531.1932605075317
 20
82.49228109144691
 10
530.8797082889041
 20
82.58650202777304
 10
530.5661736981565
 20
82.68069756358479
 10
530.2526198954255
 20
82.77479229448481
 10
529.9390111073225
 20
82.86871301320473
 10
529.6253347929667
 20
82.96243437634185
 10
529.311600524764
 20
83.05597659852512
 10
528.997818751272
 20
83.14936169944495
 10
528.6839971729257
 20
83.24260604289887
 10
528.3701353115121
 20
83.33570916025683
 10
528.0562311742055
 20
83.42866746567489
 10
527.7422828990196
 20
83.52147763283868
 10
527.4282903297253
 20
83.61413971894247
 10
527.1142545051799
 20
83.70665615173104
 10
526.8001764887917
 20
83.79902940790757
 10
526.4860572866718
 20
83.89126202877041
 10
526.1718977477946
 20
83.98335673276887
 10
525.8576986944371
 20
84.07531626845105
 10
525.5434608791032
 20
84.16714314829628
 10
525.2291838998668
 20
84.2588359788687
 10
524.914866406021
 20
84.3503901566153
 10
524.6005070187133
 20
84.44180098275487
 10
524.2861045750718
 20
84.5330644441862
 10
523.9716588343616
 20
84.62417945534308
 10
523.6571698019028
 20
84.71514571181885
 10
523.3426374830185
 20
84.80596290921437
 10
523.0280618830313
 20
84.89663074313044
 10
522.7134430072641
 20
84.9871489091679
 10
522.3987808610394
 20
85.07751710292757
 10
522.0840754496802
 20
85.16773502001028
 10
521.7693267785094
 20
85.2578023560169
 10
521.4545348528494
 20
85.34771880654819
 10
521.1396996780232
 20
85.43748406720503
 10
520.8248212593536
 20
85.52709783358826
 10
520.5098996021633
 20
85.61655980129864
 10
520.1949347117751
 20
85.70586966593707
 10
519.8799265935118
 20
85.79502712310432
 10
519.564875252696
 20
85.88403186840127
 10
519.2497806946507
 20
85.97288359742872
 10
518.9346429246986
 20
86.06158200578751
 10
518.6194619481624
 20
86.1501267890785
 10
518.3042377703649
 20
86.23851764290245
 10
517.988970396629
 20
86.32675426286026
 10
517.6736598322774
 20
86.41483634455268
 10
517.3583060826328
 20
86.50276358358062
 10
517.042909153018
 20
86.59053567554486
 10
516.7274690492834
 20
86.6781523184172
 10
516.411985793408
 20
86.76561328264162
 10
516.0964594260892
 20
86.85291842277222
 10
515.7808899890736
 20
86.9400675980779
 10
515.465277524108
 20
87.02706066782751
 10
515.1496220729391
 20
87.11389749128988
 10
514.8339236773136
 20
87.20057792773386
 10
514.518182378978
 20
87.28710183642839
 10
514.2023982196791
 20
87.37346907664227
 10
513.8865712411637
 20
87.45967950764438
 10
513.5707014851782
 20
87.54573298870358
 10
513.2547889934697
 20
87.63162937908875
 10
512.9388338077844
 20
87.71736853806868
 10
512.6228359698694
 20
87.80295032491233
 10
512.3067955214713
 20
87.88837459888852
 10
511.9907125043363
 20
87.97364121926607
 10
511.6745869602116
 20
88.05875004531389
 10
511.3584189308439
 20
88.14370093630083
 10
511.0422084579798
 20
88.22849375149576
 10
510.7259555833658
 20
88.31312835016753
 10
510.4096603487487
 20
88.39760459158501
 10
510.0933227958752
 20
88.48192233501703
 10
509.7769429664921
 20
88.56608143973253
 10
509.4605209023458
 20
88.65008176500028
 10
509.1440566451844
 20
88.73392317008417
 10
508.8275502384044
 20
88.81760550772144
 10
508.5110017302902
 20
88.90112861129359
 10
508.1944111700288
 20
88.98449231061092
 10
507.8777786068066
 20
89.06769643548361
 10
507.5611040898103
 20
89.15074081572193
 10
507.244387668227
 20
89.23362528113607
 10
506.9276293912432
 20
89.3163496615363
 10
506.6108293080453
 20
89.39891378673279
 10
506.2939874678203
 20
89.48131748653581
 10
505.977103919755
 20
89.56356059075563
 10
505.6601787130358
 20
89.64564292920238
 10
505.3432118968496
 20
89.72756433168638
 10
505.026203520383
 20
89.80932462801778
 10
504.7091536328227
 20
89.89092364800685
 10
504.3920622833555
 20
89.97236122146383
 10
504.074929521168
 20
90.05363717819891
 10
503.757755395447
 20
90.13475134802239
 10
503.4405399553791
 20
90.2157035607444
 10
503.1232832501509
 20
90.29649364617525
 10
502.8059853289494
 20
90.37712143412514
 10
502.4886462409611
 20
90.45758675440429
 10
502.1712660353728
 20
90.53788943682294
 10
501.8538447613709
 20
90.6180293111913
 10
501.5363824681425
 20
90.69800620731962
 10
501.218879199678
 20
90.77781994506569
 10
500.9013349756532
 20
90.85747029771564
 10
500.5837498086375
 20
90.93695702494456
 10
500.2661237111994
 20
91.0162798864259
 10
499.9484566959079
 20
91.09543864183317
 10
499.6307487753313
 20
91.17443305083978
 10
499.3129999620382
 20
91.25326287311916
 10
498.9952102685976
 20
91.33192786834479
 10
498.6773797075778
 20
91.41042779619013
 10
498.3595082915474
 20
91.48876241632857
 10
498.0415960330752
 20
91.56693148843367
 10
497.7236429447296
 20
91.64493477217877
 10
497.4056490390795
 20
91.72277202723738
 10
497.0876143286935
 20
91.80044301328296
 10
496.7695388261399
 20
91.87794748998893
 10
496.4514225439875
 20
91.95528521702875
 10
496.1332654948051
 20
92.03245595407589
 10
495.815067691161
 20
92.10945946080375
 10
495.4968291456241
 20
92.18629549688583
 10
495.1785498707628
 20
92.2629638219956
 10
494.8602298791461
 20
92.33946419580646
 10
494.5418691833421
 20
92.41579637799185
 10
494.2234677959198
 20
92.49196012822529
 10
493.9050257294477
 20
92.56795520618017
 10
493.5865430052033
 20
92.64378138179158
 10
493.2680196813758
 20
92.7194384684878
 10
492.9494558259321
 20
92.79492629121805
 10
492.6308515068394
 20
92.87024467493175
 10
492.3122067920647
 20
92.94539344457823
 10
491.993521749575
 20
93.02037242510686
 10
491.6747964473373
 20
93.09518144146698
 10
491.3560309533184
 20
93.16982031860795
 10
491.0372253354859
 20
93.24428888147915
 10
490.7183796618062
 20
93.3185869550299
 10
490.3994940002468
 20
93.39271436420958
 10
490.0805684187744
 20
93.46667093396754
 10
489.761602985356
 20
93.54045648925315
 10
489.4425977679591
 20
93.61407085501575
 10
489.1235528345501
 20
93.68751385620473
 10
488.8044682530965
 20
93.7607853177694
 10
488.485344091565
 20
93.83388506465914
 10
488.1661804179228
 20
93.90681292182332
 10
487.8469773001368
 20
93.97956871421125
 10
487.5277348061742
 20
94.05215226677237
 10
487.208453004002
 20
94.12456340445598
 10
486.8891319615869
 20
94.19680195221143
 10
486.5697717468965
 20
94.26886773498812
 10
486.2503724278972
 20
94.34076057773535
 10
485.9309340725565
 20
94.41248030540253
 10
485.6114567488411
 20
94.48402674293898
 10
485.2919405247183
 20
94.5553997152941
 10
484.9723854681549
 20
94.6265990474172
 10
484.652791647118
 20
94.69762456425764
 10
484.3331591295747
 20
94.76847609076484
 10
484.0134879834919
 20
94.83915345188808
 10
483.6937782768366
 20
94.90965647257674
 10
483.374030077576
 20
94.9799849777802
 10
483.054243453677
 20
95.0501387924478
 10
482.7344184731068
 20
95.12011774152894
 10
482.414555203832
 20
95.1899216499729
 10
482.09465371382
 20
95.25955034272906
 10
481.7747140710378
 20
95.32900364474685
 10
481.4547363434522
 20
95.39828138097552
 10
481.1347205990305
 20
95.46738337636451
 10
480.8146669057395
 20
95.5363094558631
 10
480.4945753315464
 20
95.60505944442075
 10
480.174445944418
 20
95.67363316698672
 10
479.8542788123216
 20
95.74203044851043
 10
479.534074003224
 20
95.81025111394119
 10
479.2138315850923
 20
95.8782949882284
 10
478.8935516258936
 20
95.9461618963214
 10
478.5732341935946
 20
96.01385166316953
 10
478.2528793561629
 20
96.08136411372217
 10
477.9324871817977
 20
96.14869907360007
 10
477.6120577423468
 20
96.21585637894091
 10
477.2915911125511
 20
96.28283587422649
 10
476.9710873672312
 20
96.34963740416792
 10
476.6505465812077
 20
96.41626081347643
 10
476.3299688293012
 20
96.4827059468631
 10
476.0093541863324
 20
96.54897264903916
 10
475.688702727122
 20
96.6150607647158
 10
475.3680145264905
 20
96.68097013860414
 10
475.0472896592586
 20
96.7467006154154
 10
474.7265282002469
 20
96.81225203986074
 10
474.4057302242762
 20
96.8776242566513
 10
474.0848958061669
 20
96.9428171104983
 10
473.7640250207396
 20
97.00783044611288
 10
473.4431179428153
 20
97.07266410820621
 10
473.1221746472142
 20
97.13731794148946
 10
472.8011952087571
 20
97.20179179067381
 10
472.4801797022648
 20
97.26608550047045
 10
472.1591282025577
 20
97.33019891559054
 10
471.8380407844567
 20
97.39413188074523
 10
471.516917522782
 20
97.45788424064573
 10
471.1957584923547
 20
97.52145584000318
 10
470.874563767995
 20
97.58484652352875
 10
470.5533334245239
 20
97.64805613593363
 10
470.2320675367619
 20
97.711084521929
 10
469.9107661795294
 20
97.77393152622598
 10
469.5894294276474
 20
97.8365969935358
 10
469.2680573559365
 20
97.89908076856965
 10
468.9466500392171
 20
97.96138269603861
 10
468.6252075523099
 20
98.0235026206539
 10
468.3037299700357
 20
98.08544038712675
 10
467.982217367215
 20
98.14719584016824
 10
467.6606698186683
 20
98.20876882448957
 10
467.3390873992166
 20
98.27015918480197
 10
467.0174701836801
 20
98.33136676581648
 10
466.6958182468796
 20
98.39239141224441
 10
466.374131663636
 20
98.45323296879688
 10
466.0524105087695
 20
98.51389128018505
 10
465.7306548571011
 20
98.57436619112008
 10
465.4088647834513
 20
98.63465754631319
 10
465.0870403626406
 20
98.69476519047552
 10
464.7651816694897
 20
98.75468896831823
 10
464.4432887788194
 20
98.81442872455251
 10
464.1213617654502
 20
98.87398430388954
 10
463.7994007042026
 20
98.93335555104048
 10
463.4774056698975
 20
98.99254231071647
 10
463.1553767373554
 20
99.05154442762876
 10
462.8333139813969
 20
99.11036174648844
 10
462.5112174768426
 20
99.16899411200674
 10
462.1890872993921
 20
99.22744136938894
 10
461.8669235308809
 20
99.28570336729065
 10
461.5447262557601
 20
99.34377995583803
 10
461.2224955584903
 20
99.40167098516288
 10
460.9002315235326
 20
99.4593763053969
 10
460.5779342353479
 20
99.51689576667184
 10
460.2556037783968
 20
99.57422921911939
 10
459.9332402371404
 20
99.63137651287128
 10
459.6108436960393
 20
99.68833749805928
 10
459.2884142395545
 20
99.74511202481504
 10
458.9659519521468
 20
99.80169994327036
 10
458.643456918277
 20
99.85810110355692
 10
458.3209292224061
 20
99.91431535580651
 10
457.9983689489947
 20
99.97034255015072
 10
457.6757761825037
 20
100.0261825367214
 10
457.353151007394
 20
100.0818351656503
 10
457.0304935081265
 20
100.137300287069
 10
456.7078037691619
 20
100.1925777511093
 10
456.3850818749612
 20
100.247667407903
 10
456.0623279099852
 20
100.3025691075818
 10
455.7395419586945
 20
100.3572827002773
 10
455.4167241055504
 20
100.4118080361213
 10
455.0938744350133
 20
100.4661449652456
 10
454.7709930315443
 20
100.5202933377819
 10
454.4480799796041
 20
100.5742530038618
 10
454.1251353636537
 20
100.6280238136172
 10
453.8021592681537
 20
100.6816056171797
 10
453.4791517775652
 20
100.734998264681
 10
453.1561129763489
 20
100.788201606253
 10
452.8330429489657
 20
100.8412154920273
 10
452.5099417798763
 20
100.8940397721356
 10
452.1868095535417
 20
100.9466742967097
 10
451.8636463544228
 20
100.9991189158814
 10
451.5404522669802
 20
101.0513734797822
 10
451.217227375675
 20
101.103437838544
 10
450.8939717649678
 20
101.1553118422984
 10
450.5706855193196
 20
101.2069953411773
 10
450.2473687231911
 20
101.2584881853123
 10
449.9240214610434
 20
101.3097902248351
 10
449.6006438173371
 20
101.3609013098776
 10
449.277235876533
 20
101.4118212905713
 10
448.9537977230923
 20
101.4625500170481
 10
448.6303294414754
 20
101.5130873394396
 10
448.3068311161434
 20
101.5634331078776
 10
447.9833028315571
 20
101.6135871724939
 10
447.6597446721773
 20
101.66354938342
 10
447.3361567224649
 20
101.7133195907878
 10
447.0125390668807
 20
101.762897644729
 10
446.6888917910565
 20
101.8122833939586
 10
446.3652149961225
 20
101.861476668441
 10
446.0415087941825
 20
101.9104772848639
 10
445.7177732975726
 20
101.9592850596343
 10
445.3940086186289
 20
102.0078998091591
 10
445.0702148696873
 20
102.0563213498452
 10
444.7463921630838
 20
102.1045494980995
 10
444.4225406111545
 20
102.152584070329
 10
444.0986603262355
 20
102.2004248829405
 10
443.7747514206627
 20
102.2480717523411
 10
443.4508140067724
 20
102.2955244949375
 10
443.1268481969002
 20
102.3427829271368
 10
442.8028541033825
 20
102.3898468653458
 10
442.478831838555
 20
102.4367161259715
 10
442.1547815147539
 20
102.4833905254208
 10
441.8307032443155
 20
102.5298698801006
 10
441.5065971395755
 20
102.5761540064179
 10
441.1824633128699
 20
102.6222427207795
 10
440.8583018765348
 20
102.6681358395923
 10
440.5341129429063
 20
102.7138331792633
 10
440.2098966243204
 20
102.7593345561995
 10
439.8856530331132
 20
102.8046397868077
 10
439.5613822816206
 20
102.8497486874949
 10
439.2370844821787
 20
102.8946610746679
 10
438.9127597471234
 20
102.9393767647337
 10
438.588408188791
 20
102.9838955740992
 10
438.2640299195173
 20
103.0282173191713
 10
437.9396250516384
 20
103.072341816357
 10
437.6151936974903
 20
103.1162688820631
 10
437.2907359694091
 20
103.1599983326967
 10
436.9662519797308
 20
103.2035299846646
 10
436.6417418407914
 20
103.2468636543737
 10
436.317205664927
 20
103.2899991582309
 10
435.9926435644736
 20
103.3329363126432
 10
435.6680556517671
 20
103.3756749340175
 10
435.3434420391438
 20
103.4182148387607
 10
435.0188028389395
 20
103.4605558432798
 10
434.6941381634903
 20
103.5026977639816
 10
434.3694481251323
 20
103.544640417273
 10
434.0447328362013
 20
103.5863836195611
 10
433.7199924090336
 20
103.6279271872527
 10
433.3952269559651
 20
103.6692709367547
 10
433.070436589332
 20
103.710414684474
 10
432.74562142147
 20
103.7513582468176
 10
432.4207815647153
 20
103.7921014401924
 10
432.095917131404
 20
103.8326440810054
 10
431.7710282338721
 20
103.8729859856633
 10
431.4461149844557
 20
103.9131269705732
 10
431.1211774832911
 20
103.953066825219
 10
430.7962157805034
 20
103.9928052287122
 10
430.4712299134023
 20
104.0323418318846
 10
430.1462199192987
 20
104.0716762855676
 10
429.8211858355027
 20
104.1108082405931
 10
429.4961276993245
 20
104.1497373477926
 10
429.1710455480746
 20
104.1884632579978
 10
428.8459394190632
 20
104.2269856220403
 10
428.5208093496007
 20
104.2653040907517
 10
428.1956553769973
 20
104.3034183149638
 10
427.8704775385635
 20
104.3413279455082
 10
427.5452758716094
 20
104.3790326332165
 10
427.2200504134457
 20
104.4165320289204
 10
426.8948012014877
 20
104.4538257838407
 10
426.569528304508
 20
104.4909136649906
 10
426.2442318662876
 20
104.5277957163741
 10
425.9189120415886
 20
104.5644720225444
 10
425.593568985173
 20
104.6009426680552
 10
425.268202851803
 20
104.6372077374597
 10
424.9428137962406
 20
104.6732673153115
 10
424.6174019732476
 20
104.7091214861639
 10
424.2919675375865
 20
104.7447703345703
 10
423.9665106440189
 20
104.7802139450842
 10
423.641031447307
 20
104.815452402259
 10
423.3155301022129
 20
104.8504857906481
 10
422.9900067634986
 20
104.8853141948049
 10
422.6644615859261
 20
104.9199376992828
 10
422.3388947240218
 20
104.9543563877992
 10
422.0133063202879
 20
104.9885703014283
 10
421.6876964997169
 20
105.0225794191455
 10
421.3620653859194
 20
105.0563837150258
 10
421.0364131025062
 20
105.0899831631444
 10
420.7107397730878
 20
105.1233777375761
 10
420.3850455212749
 20
105.1565674123961
 10
420.0593304706783
 20
105.1895521616792
 10
419.7335947449087
 20
105.2223319595006
 10
419.4078384675765
 20
105.2549067799353
 10
419.0820617622927
 20
105.2872765970582
 10
418.7562647526677
 20
105.3194413849444
 10
418.4304475623125
 20
105.3514011176688
 10
418.1046103148373
 20
105.3831557693066
 10
417.7787531340701
 20
105.4147053148358
 10
417.4528761480925
 20
105.4460497469371
 10
417.1269794888657
 20
105.4771890744384
 10
416.8010632884937
 20
105.5081233067594
 10
416.4751276790802
 20
105.5388524533197
 10
416.1491727927286
 20
105.5693765235387
 10
415.8231987615431
 20
105.599695526836
 10
415.497205717627
 20
105.6298094726312
 10
415.1711937930842
 20
105.6597183703438
 10
414.8451631200184
 20
105.6894222293933
 10
414.5191138305333
 20
105.7189210591994
 10
414.1930460567327
 20
105.7482148691816
 10
413.8669599307201
 20
105.7773036687593
 10
413.5408555845993
 20
105.8061874673522
 10
413.2147331503378
 20
105.834866274146
 10
412.8885927585426
 20
105.8633400959913
 10
412.5624345390382
 20
105.8916089383967
 10
412.2362586216402
 20
105.9196728068547
 10
411.9100651361639
 20
105.9475317068577
 10
411.5838542124246
 20
105.9751856438982
 10
411.2576259802382
 20
106.0026346234687
 10
410.9313805694197
 20
106.0298786510617
 10
410.6051181097846
 20
106.0569177321696
 10
410.2788387311485
 20
106.083751872285
 10
409.9525425633266
 20
106.1103810769003
 10
409.6262297361343
 20
106.1368053515079
 10
409.2999003793873
 20
106.1630247016005
 10
408.9735546229009
 20
106.1890391326704
 10
408.64719259654
 20
106.2148486510359
 10
408.320814430456
 20
106.2404532677802
 10
407.9944202549028
 20
106.265852995692
 10
407.668010200134
 20
106.2910478475621
 10
407.3415843964037
 20
106.3160378361815
 10
407.0151429739658
 20
106.340822974341
 10
406.688686063074
 20
106.3654032748314
 10
406.3622137939823
 20
106.3897787504437
 10
406.0357262969447
 20
106.4139494139688
 10
405.709223702215
 20
106.4379152781974
 10
405.382706140047
 20
106.4616763559205
 10
405.0561737406948
 20
106.4852326599289
 10
404.7296266344121
 20
106.5085842030136
 10
404.4030649514527
 20
106.5317309979653
 10
404.0764888219848
 20
106.5546730578618
 10
403.7498983758728
 20
106.577410396792
 10
403.4232937429142
 20
106.5999430290679
 10
403.096675052907
 20
106.6222709690014
 10
402.7700424356487
 20
106.6443942309045
 10
402.4433960209369
 20
106.6663128290892
 10
402.1167359385694
 20
106.6880267778673
 10
401.7900623183438
 20
106.709536091551
 10
401.4633752900578
 20
106.730840784452
 10
401.1366749835091
 20
106.7519408708824
 10
400.8099615284955
 20
106.7728363651542
 10
400.4832350548144
 20
106.7935272815792
 10
400.1564956922638
 20
106.8140136344695
 10
399.8297435706406
 20
106.834295438154
 10
399.5029788196406
 20
106.8543727106829
 10
399.1762015687319
 20
106.8742454784594
 10
398.849411947351
 20
106.8939137690242
 10
398.522610084935
 20
106.9133776099183
 10
398.1957961109205
 20
106.9326370286828
 10
397.8689701547445
 20
106.9516920528586
 10
397.542132345844
 20
106.9705427099867
 10
397.2152828136554
 20
106.9891890276081
 10
396.8884216876158
 20
107.0076310332637
 10
396.5615490971621
 20
107.0258687544944
 10
396.234665171731
 20
107.0439022188414
 10
395.9077700407593
 20
107.0617314538455
 10
395.580863833684
 20
107.0793564870478
 10
395.2539466799377
 20
107.0967773457967
 10
394.9270187087266
 20
107.1139940468416
 10
394.6000800489172
 20
107.1310065910271
 10
394.2731308293477
 20
107.147814977889
 10
393.9461711788567
 20
107.164419206963
 10
393.6192012262824
 20
107.180819277785
 10
393.2922211004632
 20
107.1970151898907
 10
392.9652309302376
 20
107.2130069428159
 10
392.6382308444439
 20
107.2287945360963
 10
392.3112209719205
 20
107.2443779692678
 10
391.9842014415058
 20
107.2597572418661
 10
391.6571723820381
 20
107.2749323534271
 10
391.3301339223559
 20
107.2899033034864
 10
391.0030861912976
 20
107.30467009158
 10
390.6760293176924
 20
107.3192327195996
 10
390.3489634301424
 20
107.3335912479763
 10
390.0218886570131
 20
107.347745798203
 10
389.6948051266588
 20
107.3616964946335
 10
389.3677129674336
 20
107.3754434616217
 10
389.040612307692
 20
107.3889868235214
 10
388.7135032757881
 20
107.4023267046866
 10
388.3863860000763
 20
107.4154632294711
 10
388.0592606089106
 20
107.4283965222286
 10
387.7321272306456
 20
107.4411267073131
 10
387.4049859936355
 20
107.4536539090785
 10
387.0778370262344
 20
107.4659782518785
 10
386.7506804567968
 20
107.4780998600672
 10
386.4235164136768
 20
107.4900188579981
 10
386.0963450251741
 20
107.501735353041
 10
385.7691664188074
 20
107.51324920998
 10
385.4419807215127
 20
107.5245601125938
 10
385.1147880602123
 20
107.5356677403249
 10
384.7875885618279
 20
107.5465717726156
 10
384.460382353282
 20
107.5572718889084
 10
384.1331695614965
 20
107.5677677686456
 10
383.8059503133935
 20
107.5780590912696
 10
383.4787247358953
 20
107.5881455362228
 10
383.1514929559236
 20
107.5980267829475
 10
382.8242551004009
 20
107.6077025108861
 10
382.4970112962491
 20
107.6171723994811
 10
382.1697616703905
 20
107.6264361281748
 10
381.8425063497467
 20
107.6354933764096
 10
381.5152454613388
 20
107.6443439317756
 10
381.1879791331069
 20
107.6529885938205
 10
380.8607074934945
 20
107.6614287146972
 10
380.5334306709497
 20
107.6696656521559
 10
380.2061487939205
 20
107.6777007639471
 10
379.8788619908555
 20
107.6855354078214
 10
379.5515703902027
 20
107.6931709415292
 10
379.2242741204103
 20
107.7006087228208
 10
378.8969733099266
 20
107.7078501094467
 10
378.5696680871998
 20
107.7148964591574
 10
378.2423585806782
 20
107.7217491297034
 10
377.9150449188098
 20
107.728409478835
 10
377.5877272300431
 20
107.7348788643027
 10
377.260405642826
 20
107.7411586438569
 10
376.9330802846401
 20
107.747249575107
 10
376.6057512765274
 20
107.753148418834
 10
376.2784187368986
 20
107.7588503027242
 10
375.9510827841569
 20
107.764350349604
 10
375.6237435367054
 20
107.7696436823001
 10
375.296401112947
 20
107.7747254236388
 10
374.9690556312848
 20
107.7795906964466
 10
374.641707210122
 20
107.7842346235499
 10
374.3143559678616
 20
107.7886523277754
 10
373.9870020229066
 20
107.7928389319494
 10
373.65964549366
 20
107.7967895588984
 10
373.332286498525
 20
107.8004993314489
 10
373.0049251559048
 20
107.8039633724273
 10
372.6775615842022
 20
107.8071768046601
 10
372.3501959060929
 20
107.8101378044451
 10
372.0228282657616
 20
107.8128599196007
 10
371.6954588141462
 20
107.8153615242731
 10
371.3680877021871
 20
107.8176609943357
 10
371.0407150808246
 20
107.8197767056623
 10
370.7133411009989
 20
107.8217270341264
 10
370.3859659136505
 20
107.8235303556016
 10
370.0585896697197
 20
107.8252050459616
 10
369.7312125201469
 20
107.82676948108
 10
369.4038346158724
 20
107.8282420368303
 10
369.0764561078365
 20
107.8296410890861
 10
368.7490771469795
 20
107.8309850137211
 10
368.421697884242
 20
107.832292186609
 10
368.0943184705632
 20
107.8335809836232
  0
LINE
  5
CA4
330
4D7C
100
AcDbEntity
  8
0
  6
Continuous
100
AcDbLine
 10
428.036931188136
 20
65.00868870932857
 30
0.0
 11
458.0427706670361
 21
65.07723406052855
 31
0.0
  0
LINE
  5
CA5
330
4D7C
100
AcDbEntity
  8
0
  6
Continuous
100
AcDbLine
 10
428.0369311882361
 20
80.83358098362856
 30
0.0
 11
428.036931188136
 21
65.00868870932857
 31
0.0
  0
LINE
  5
CA6
330
4D7C
100
AcDbEntity
  8
0
  6
Continuous
100
AcDbLine
 10
424.5902630911361
 20
80.83358098362856
 30
0.0
 11
428.0369311882361
 21
80.83358098362856
 31
0.0
  0
LINE
  5
CA7
330
4D7C
100
AcDbEntity
  8
0
  6
Continuous
100
AcDbLine
 10
424.5902630911361
 20
65.01010379352857
 30
0.0
 11
424.5902630911361
 21
80.83358098362856
 31
0.0
  0
LWPOLYLINE
  5
CA8
330
4D7C
100
AcDbEntity
  8
0
  6
Continuous
100
AcDbPolyline
 90
       73
 70
     0
 43
0.0
 10
370.1866533530479
 20
65.28948274963369
 10
370.9422422726054
 20
65.28289611497205
 10
371.6978312738617
 20
65.27631948581231
 10
372.4534204385156
 20
65.26976286765647
 10
373.2090098482661
 20
65.26323626600646
 10
373.9645995848121
 20
65.25674968636424
 10
374.7201897298522
 20
65.25031313423173
 10
375.4757803650852
 20
65.2439366151109
 10
376.2313715722103
 20
65.23763013450365
 10
376.986963432926
 20
65.23140369791193
 10
377.7425560289313
 20
65.22526731083772
 10
378.4981494360287
 20
65.21923032792428
 10
379.2537436637492
 20
65.21329478847743
 10
380.0093386799229
 20
65.20745812869635
 10
380.764934451731
 20
65.20171771312855
 10
381.5205309463545
 20
65.19607090632155
 10
382.2761281309745
 20
65.19051507282292
 10
383.0317259727721
 20
65.18504757718013
 10
383.7873244389284
 20
65.17966578394076
 10
384.5429234966244
 20
65.17436705765232
 10
385.2985231130412
 20
65.1691487628623
 10
386.0541232556071
 20
65.16400829107398
 10
386.8097239037029
 20
65.15894433751714
 10
387.5653250537488
 20
65.15395745594464
 10
388.3209267034693
 20
65.1490483424156
 10
389.0765288505893
 20
65.14421769298914
 10
389.8321314928334
 20
65.13946620372435
 10
390.5877346279264
 20
65.13479457068033
 10
391.3433382535929
 20
65.1302034899162
 10
392.0989423675579
 20
65.12569365749106
 10
392.8545469675457
 20
65.12126576946399
 10
393.6101520512809
 20
65.11692052186189
 10
394.3657576148631
 20
65.11265847706404
 10
395.1213636490627
 20
65.10847975896846
 10
395.876970143558
 20
65.1043844016852
 10
396.6325770880279
 20
65.10037243932443
 10
397.3881844721507
 20
65.09644390599628
 10
398.1437922856055
 20
65.09259883581088
 10
398.8994005180706
 20
65.08883726287834
 10
399.6550091592249
 20
65.08515922130883
 10
400.4106181987468
 20
65.08156474521243
 10
401.1662276263152
 20
65.07805386869933
 10
401.9218374316874
 20
65.07462657113992
 10
402.6774476052399
 20
65.0712824012532
 10
403.4330581376428
 20
65.06802070403498
 10
404.1886690195673
 20
65.06484082326705
 10
404.944280241685
 20
65.0617421027312
 10
405.6998917946675
 20
65.05872388620922
 10
406.455503669186
 20
65.05578551748295
 10
407.2111158559122
 20
65.05292634033412
 10
407.9667283455175
 20
65.0501456985446
 10
408.7223411286735
 20
65.04744293589613
 10
409.4779541961279
 20
65.04481747102841
 10
410.2335675403212
 20
65.042270383464
 10
410.9891811553534
 20
65.0398043804912
 10
411.7447950353937
 20
65.03742223763182
 10
412.5004091746114
 20
65.03512673040761
 10
413.2560235671758
 20
65.03292063434051
 10
414.0116382072562
 20
65.03080672495224
 10
414.7672530890221
 20
65.0287877777647
 10
415.5228682066427
 20
65.02686656829968
 10
416.2784835542872
 20
65.025045872079
 10
417.0340991260854
 20
65.0233284316264
 10
417.7897149112714
 20
65.02171289599424
 10
418.5453308895046
 20
65.02018990935727
 10
419.3009470393351
 20
65.01874918849371
 10
420.0565633393135
 20
65.01738045018197
 10
420.81217976799
 20
65.01607341120032
 10
421.567796303915
 20
65.0148177883271
 10
422.3234129256386
 20
65.0136032983406
 10
423.0790296117114
 20
65.01241965801916
 10
423.8346463406835
 20
65.01125658414108
 10
424.5902630911054
 20
65.01010379348469
  0
LINE
  5
CA9
330
4D7C
100
AcDbEntity
  8
0
  6
Continuous
100
AcDbLine
 10
370.186653353036
 20
80.83358098362856
 30
0.0
 11
370.186653353036
 21
65.28948274962858
 31
0.0
  0
LINE
  5
CAA
330
4D7C
100
AcDbEntity
  8
0
  6
Continuous
100
AcDbLine
 10
367.168134963336
 20
80.83358098362856
 30
0.0
 11
370.186653353036
 21
80.83358098362856
 31
0.0
  0
LINE
  5
CAB
330
4D7C
100
AcDbEntity
  8
0
  6
Continuous
100
AcDbLine
 10
367.168134963336
 20
65.31905220252855
 30
0.0
 11
367.168134963336
 21
80.83358098362856
 31
0.0
  0
LWPOLYLINE
  5
CAC
330
4D7C
100
AcDbEntity
  8
0
  6
Continuous
100
AcDbPolyline
 90
       25
 70
     0
 43
0.0
 10
302.295667906439
 20
66.3166345674519
 10
304.9983981170039
 20
66.26132640301928
 10
307.7011534726029
 20
66.20721287554672
 10
310.4039339742113
 20
66.15429403136847
 10
313.1067396228042
 20
66.10256991681867
 10
315.8095704193569
 20
66.05204057823165
 10
318.5124263648449
 20
66.00270606194161
 10
321.2153074602431
 20
65.95456641428272
 10
323.918213706527
 20
65.90762168158928
 10
326.6211451046717
 20
65.86187191019548
 10
329.3241016556525
 20
65.81731714643554
 10
332.0270833604447
 20
65.77395743664371
 10
334.7300902200236
 20
65.73179282715422
 10
337.4331222353642
 20
65.69082336430128
 10
340.1361794074422
 20
65.65104909441914
 10
342.8392617372323
 20
65.61247006384197
 10
345.5423692257102
 20
65.57508631890407
 10
348.2455018738509
 20
65.53889790593962
 10
350.9486596826299
 20
65.50390487128287
 10
353.6518426530222
 20
65.47010726126803
 10
356.3550507860032
 20
65.43750512222937
 10
359.0582840825481
 20
65.40609850050106
 10
361.7615425436322
 20
65.37588744241737
 10
364.4648261702307
 20
65.34687199431247
 10
367.1681349633187
 20
65.31905220252065
  0
LINE
  5
CAD
330
4D7C
100
AcDbEntity
  8
0
  6
Continuous
100
AcDbLine
 10
302.2956680042361
 20
80.83358098362856
 30
0.0
 11
302.2956681069361
 21
66.31664425902858
 31
0.0
  0
LINE
  5
CAE
330
4D7C
100
AcDbEntity
  8
0
  6
Continuous
100
AcDbLine
 10
299.269178452036
 20
80.83358098362856
 30
0.0
 11
302.2956680042361
 21
80.83358098362856
 31
0.0
  0
LINE
  5
CAF
330
4D7C
100
AcDbEntity
  8
0
  6
Continuous
100
AcDbLine
 10
299.269178452036
 20
66.37998652102857
 30
0.0
 11
299.269178452036
 21
80.83358098362856
 31
0.0
  0
LWPOLYLINE
  5
CB0
330
4D7C
100
AcDbEntity
  8
0
  6
Continuous
100
AcDbPolyline
 90
       25
 70
     0
 43
0.0
 10
232.4974399936259
 20
68.15891349030306
 10
235.2793142886102
 20
68.07023714558684
 10
238.0612193863444
 20
67.98282614063758
 10
240.8431544241881
 20
67.8966805153579
 10
243.6251185395007
 20
67.81180030965041
 10
246.4071108696413
 20
67.72818556341772
 10
249.1891305519695
 20
67.6458363165625
 10
251.9711767238446
 20
67.56475260898733
 10
254.7532485226259
 20
67.48493448059487
 10
257.535345085673
 20
67.40638197128774
 10
260.3174655503451
 20
67.32909512096856
 10
263.0996090540015
 20
67.25307396953994
 10
265.8817747340018
 20
67.17831855690454
 10
268.6639617277052
 20
67.10482892296497
 10
271.4461691724711
 20
67.03260510762384
 10
274.2283962056588
 20
66.96164715078376
 10
277.0106419646278
 20
66.89195509234742
 10
279.7929055867375
 20
66.82352897221739
 10
282.5751862093471
 20
66.7563688302963
 10
285.3574829698161
 20
66.69047470648681
 10
288.1397950055039
 20
66.62584664069149
 10
290.9221214537698
 20
66.56248467281304
 10
293.7044614519732
 20
66.50038884275403
 10
296.4868141374734
 20
66.4395591904171
 10
299.2691786476295
 20
66.3799957557049
  0
LINE
  5
CB1
330
4D7C
100
AcDbEntity
  8
0
  6
Continuous
100
AcDbLine
 10
232.497439982136
 20
80.83358098362856
 30
0.0
 11
232.497439993636
 21
68.15891348992858
 31
0.0
  0
LINE
  5
CB2
330
4D7C
100
AcDbEntity
  8
0
  6
Continuous
100
AcDbLine
 10
229.470950429936
 20
80.83358098362856
 30
0.0
 11
232.497439982136
 21
80.83358098362856
 31
0.0
  0
LINE
  5
CB3
330
4D7C
100
AcDbEntity
  8
0
  6
Continuous
100
AcDbLine
 10
229.470950429936
 20
68.25682471922858
 30
0.0
 11
229.470950429936
 21
80.83358098362856
 31
0.0
  0
LWPOLYLINE
  5
CB4
330
4D7C
100
AcDbEntity
  8
0
  6
Continuous
100
AcDbPolyline
 90
       25
 70
     0
 43
0.0
 10
166.9725728735184
 20
70.6138974351577
 10
169.5762157159057
 20
70.50293733597283
 10
172.1799034217757
 20
70.39308558541951
 10
174.7836352831511
 20
70.28434221624622
 10
177.3874105920551
 20
70.1767072612014
 10
179.9912286405103
 20
70.07018075303347
 10
182.5950887205397
 20
69.96476272449092
 10
185.1989901241663
 20
69.8604532083222
 10
187.8029321434129
 20
69.75725223727574
 10
190.4069140703024
 20
69.65515984410001
 10
193.0109351968578
 20
69.55417606154344
 10
195.6149948151019
 20
69.45430092235452
 10
198.2190922170576
 20
69.35553445928166
 10
200.8232266947479
 20
69.25787670507336
 10
203.4273975401956
 20
69.161327692478
 10
206.0316040454236
 20
69.06588745424409
 10
208.6358455024549
 20
68.97155602312006
 10
211.2401212033124
 20
68.8783334318544
 10
213.8444304400189
 20
68.78621971319549
 10
216.4487725045974
 20
68.69521489989187
 10
219.0531466890707
 20
68.60531902469191
 10
221.6575522854617
 20
68.5165321203441
 10
224.2619885857934
 20
68.42885421959687
 10
226.8664548820887
 20
68.34228535519871
 10
229.4709504663699
 20
68.25682555989806
  0
LINE
  5
CB5
330
4D7C
100
AcDbEntity
  8
0
  6
Continuous
100
AcDbLine
 10
166.9725728593361
 20
80.83358098362856
 30
0.0
 11
166.9725728735361
 21
70.61389743452855
 31
0.0
  0
LINE
  5
CB6
330
4D7C
100
AcDbEntity
  8
0
  6
Continuous
100
AcDbLine
 10
163.9460833072361
 20
80.83358098362856
 30
0.0
 11
166.9725728593361
 21
80.83358098362856
 31
0.0
  0
LINE
  5
CB7
330
4D7C
100
AcDbEntity
  8
0
  6
Continuous
100
AcDbLine
 10
163.9460833093361
 20
70.74427306632856
 30
0.0
 11
163.9460833072361
 21
80.83358098362856
 31
0.0
  0
LWPOLYLINE
  5
CB8
330
4D7C
100
AcDbEntity
  8
0
  6
Continuous
100
AcDbPolyline
 90
       25
 70
     0
 43
0.0
 10
103.3469771549379
 20
73.67068251653387
 10
105.8713214455363
 20
73.53676139478145
 10
108.395724254787
 20
73.40388243756387
 10
110.9201849364703
 20
73.27204567477288
 10
113.4447028443662
 20
73.14125113630035
 10
115.969277332255
 20
73.01149885203796
 10
118.4939077539167
 20
72.88278885187758
 10
121.0185934631316
 20
72.75512116571095
 10
123.5433338136797
 20
72.62849582342987
 10
126.0681281593412
 20
72.50291285492614
 10
128.5929758538963
 20
72.3783722900915
 10
131.1178762511251
 20
72.25487415881778
 10
133.6428287048078
 20
72.13241849099678
 10
136.1678325687244
 20
72.01100531652024
 10
138.6928871966552
 20
71.89063466527992
 10
141.2179919423803
 20
71.77130656716767
 10
143.7431461596799
 20
71.65302105207529
 10
146.2683492023341
 20
71.5357781498945
 10
148.793600424123
 20
71.4195778905171
 10
151.3188991788269
 20
71.30442030383492
 10
153.8442448202257
 20
71.19030541973969
 10
156.3696367020998
 20
71.07723326812324
 10
158.8950741782292
 20
70.96520387887733
 10
161.4205566023941
 20
70.85421728189374
 10
163.9460833283745
 20
70.74427350706429
  0
LINE
  5
CB9
330
4D7C
100
AcDbEntity
  8
0
  6
Continuous
100
AcDbLine
 10
103.3469772474361
 20
80.83358098362856
 30
0.0
 11
103.3469771551361
 21
73.67068252142855
 31
0.0
  0
LINE
  5
CBA
330
4D7C
100
AcDbEntity
  8
0
  6
Continuous
100
AcDbLine
 10
100.3204876952361
 20
80.83358098362856
 30
0.0
 11
103.3469772474361
 21
80.83358098362856
 31
0.0
  0
LINE
  5
CBB
330
4D7C
100
AcDbEntity
  8
0
  6
Continuous
100
AcDbLine
 10
100.3204876952361
 20
73.83262490372857
 30
0.0
 11
100.3204876952361
 21
80.83358098362856
 31
0.0
  0
LWPOLYLINE
  5
CBC
330
4D7C
100
AcDbEntity
  8
0
  6
Continuous
100
AcDbPolyline
 90
       25
 70
     0
 43
0.0
 10
39.72138163430112
 20
77.39157059412065
 10
42.24553761868881
 20
77.23128803560792
 10
44.76976850366717
 20
77.07204812736727
 10
47.29407364186238
 20
76.91385089934387
 10
49.81845238590068
 20
76.75669638148288
 10
52.34290408840825
 20
76.60058460372946
 10
54.86742810201127
 20
76.44551559602876
 10
57.39202377933599
 20
76.29148938832597
 10
59.91669047300856
 20
76.13850601056623
 10
62.44142753565522
 20
75.98656549269475
 10
64.96623431990213
 20
75.8356678646566
 10
67.49111017837554
 20
75.68581315639703
 10
70.01605446370161
 20
75.53700139786119
 10
72.54106652850656
 20
75.38923261899421
 10
75.06614572541658
 20
75.24250684974126
 10
77.59129140705788
 20
75.0968241200475
 10
80.11650292605665
 20
74.95218445985813
 10
82.64177963503911
 20
74.80858789911827
 10
85.16712088663145
 20
74.66603446777312
 10
87.6925260334599
 20
74.52452419576784
 10
90.2179944281506
 20
74.38405711304756
 10
92.74352542332977
 20
74.24463324955744
 10
95.26911837162366
 20
74.1062526352427
 10
97.7947726256584
 20
73.96891530004845
 10
100.3204875380601
 20
73.83262127391987
  0
LINE
  5
CBD
330
4D7C
100
AcDbEntity
  8
0
  6
Continuous
100
AcDbLine
 10
39.7213816354361
 20
80.83358098362856
 30
0.0
 11
39.72138163433613
 21
77.3915705942286
 31
0.0
  0
LINE
  5
CBE
330
4D7C
100
AcDbEntity
  8
0
  6
Continuous
100
AcDbLine
 10
36.69489208323608
 20
80.83358098362856
 30
0.0
 11
39.7213816354361
 21
80.83358098362856
 31
0.0
  0
LINE
  5
CBF
330
4D7C
100
AcDbEntity
  8
0
  6
Continuous
100
AcDbLine
 10
36.69489208803611
 20
77.58513197812857
 30
0.0
 11
36.69489208323608
 21
80.83358098362856
 31
0.0
  0
LWPOLYLINE
  5
CC0
330
4D7C
100
AcDbEntity
  8
0
  6
Continuous
100
AcDbPolyline
 90
       41
 70
     0
 43
0.0
 10
-72.55522907132882
 20
85.582323149937
 10
-69.82561222338818
 20
85.35852839208846
 10
-67.09591142453952
 20
85.13595814982465
 10
-64.36612667841183
 20
84.9146123702135
 10
-61.63625798863403
 20
84.69449100032293
 10
-58.90630535883504
 20
84.47559398722086
 10
-56.17626879264385
 20
84.25792127797523
 10
-53.4461482936894
 20
84.04147281965399
 10
-50.71594386560059
 20
83.82624855932502
 10
-47.98565551200639
 20
83.6122484440563
 10
-45.25528323653573
 20
83.39947242091571
 10
-42.52482704281756
 20
83.18792043697121
 10
-39.79428693448084
 20
82.9775924392907
 10
-37.06366291515448
 20
82.76848837494212
 10
-34.33295498846743
 20
82.56060819099343
 10
-31.60216315804863
 20
82.35395183451246
 10
-28.87128742752704
 20
82.14851925256727
 10
-26.14032780053159
 20
81.94431039222567
 10
-23.40928428069121
 20
81.74132520055566
 10
-20.67815687163485
 20
81.53956362462515
 10
-17.94694557699148
 20
81.33902561150204
 10
-15.21565040039001
 20
81.13971110825429
 10
-12.48427134545938
 20
80.94162006194983
 10
-9.752808415828554
 20
80.74475241965655
 10
-7.021261615126456
 20
80.5491081284424
 10
-4.289630946982044
 20
80.35468713537533
 10
-1.557916415024252
 20
80.16148938752325
 10
1.173881977118
 20
79.96951483195406
 10
3.905764225815744
 20
79.77876341573571
 10
6.637730327440053
 20
79.58923508593611
 10
9.369780278361965
 20
79.40092978962323
 10
12.10191407495255
 20
79.21384747386497
 10
14.83413171358287
 20
79.02798808572926
 10
17.56643319062398
 20
78.84335157228402
 10
20.29881850244693
 20
78.65993788059717
 10
23.03128764542279
 20
78.47774695773668
 10
25.76384061592261
 20
78.29677875077041
 10
28.49647741031746
 20
78.11703320676635
 10
31.22919802497838
 20
77.9385102727924
 10
33.96200245627644
 20
77.76120989591651
 10
36.69489208809392
 20
77.58513197844047
  0
LINE
  5
CC1
330
4D7C
100
AcDbEntity
  8
0
  6
Continuous
100
AcDbLine
 10
-70.19157726146905
 20
93.93357046988962
 30
0.0
 11
-72.55522906166907
 21
85.58232351738963
 31
0.0
  0
LINE
  5
CC2
330
4D7C
100
AcDbEntity
  8
0
  6
Continuous
100
AcDbLine
 10
368.0943184705852
 20
107.8335812344075
 30
0.0
 11
-70.19157726146905
 21
93.93357046988962
 31
0.0
  0
LINE
  5
CC3
330
4D7C
100
AcDbEntity
  8
0
  6
Continuous
100
AcDbLine
 10
628.1998871558466
 20
-23.59769172052091
 30
0.0
 11
628.1998871558466
 21
4.293456307479119
 31
0.0
  0
LINE
  5
CC4
330
4D7C
100
AcDbEntity
  8
0
  6
Continuous
100
AcDbLine
 10
595.6998871558466
 20
-23.59769172052091
 30
0.0
 11
628.1998871558466
 21
-23.59769172052091
 31
0.0
  0
LINE
  5
CC5
330
4D7C
100
AcDbEntity
  8
0
  6
Continuous
100
AcDbLine
 10
595.6998871558466
 20
-26.69769172052088
 30
0.0
 11
595.6998871558466
 21
-23.59769172052091
 31
0.0
  0
LINE
  5
CC6
330
4D7C
100
AcDbEntity
  8
0
  6
Continuous
100
AcDbLine
 10
628.1998871558466
 20
-26.69769172052088
 30
0.0
 11
595.6998871558466
 21
-26.69769172052088
 31
0.0
  0
LINE
  5
CC7
330
4D7C
100
AcDbEntity
  8
0
  6
Continuous
100
AcDbLine
 10
628.1998871558466
 20
-196.6976917205209
 30
0.0
 11
628.1998871558466
 21
-26.69769172052088
 31
0.0
  0
LINE
  5
CC8
330
4D7C
100
AcDbEntity
  8
0
  6
Continuous
100
AcDbLine
 10
628.1998871558466
 20
-196.6976917205209
 30
0.0
 11
595.6998871558466
 21
-196.6976917205209
 31
0.0
  0
LINE
  5
CC9
330
4D7C
100
AcDbEntity
  8
0
  6
Continuous
100
AcDbLine
 10
595.6998871558466
 20
-196.6976917205209
 30
0.0
 11
595.6998871558466
 21
-199.7976917205209
 31
0.0
  0
LINE
  5
CCA
330
4D7C
100
AcDbEntity
  8
0
  6
Continuous
100
AcDbLine
 10
595.6998871558466
 20
-199.7976917205209
 30
0.0
 11
628.1998871558466
 21
-199.7976917205209
 31
0.0
  0
CIRCLE
  5
CD3
330
4D7C
100
AcDbEntity
  8
VBORE_T2Z5F0.8
  6
Continuous
100
AcDbCircle
 10
585.6998871558466
 20
-203.2955000393209
 30
0.0
 40
2.5
  0
CIRCLE
  5
CD4
330
4D7C
100
AcDbEntity
  8
VBORE_T2Z5F0.8
  6
Continuous
100
AcDbCircle
 10
585.6998871558466
 20
-20.09988340172089
 30
0.0
 40
2.5
  0
CIRCLE
  5
CD7
330
4D7C
100
AcDbEntity
  8
VBORE_T2Z5F0.8
  6
Continuous
100
AcDbCircle
 10
266.5959726522218
 20
-50.99352634343097
 30
0.0
 40
2.5
  0
CIRCLE
  5
CD8
330
4D7C
100
AcDbEntity
  8
VBORE_T2Z5F0.8
  6
Continuous
100
AcDbCircle
 10
316.2191097434218
 20
-50.99352634343097
 30
0.0
 40
2.5
  0
CIRCLE
  5
CD9
330
4D7C
100
AcDbEntity
  8
VBORE_T2Z5F0.8
  6
Continuous
100
AcDbCircle
 10
330.2191097434218
 20
-50.99352634343097
 30
0.0
 40
2.5
  0
CIRCLE
  5
D1A
330
4D7C
100
AcDbEntity
  8
VBORE_T2Z5F0.8
  6
Continuous
100
AcDbCircle
 10
-21.80118734677814
 20
280.888162586469
 30
0.0
 40
2.500000000000057
  0
CIRCLE
  5
D1B
330
4D7C
100
AcDbEntity
  8
VBORE_T2Z5F0.8
  6
Continuous
100
AcDbCircle
 10
-7.801187346778136
 20
280.888162586469
 30
0.0
 40
2.5
  0
CIRCLE
  5
D1C
330
4D7C
100
AcDbEntity
  8
VBORE_T2Z5F0.8
  6
Continuous
100
AcDbCircle
 10
43.72114786652185
 20
280.888162586469
 30
0.0
 40
2.500000000000057
  0
CIRCLE
  5
D1D
330
4D7C
100
AcDbEntity
  8
VBORE_T2Z5F0.8
  6
Continuous
100
AcDbCircle
 10
57.72114786652185
 20
280.888162586469
 30
0.0
 40
2.500000000000057
  0
CIRCLE
  5
D1E
330
4D7C
100
AcDbEntity
  8
VBORE_T2Z5F0.8
  6
Continuous
100
AcDbCircle
 10
107.3442849577219
 20
280.888162586469
 30
0.0
 40
2.5
  0
CIRCLE
  5
D1F
330
4D7C
100
AcDbEntity
  8
VBORE_T2Z5F0.8
  6
Continuous
100
AcDbCircle
 10
121.3442849577219
 20
280.888162586469
 30
0.0
 40
2.5
  0
CIRCLE
  5
D20
330
4D7C
100
AcDbEntity
  8
VBORE_T2Z5F0.8
  6
Continuous
100
AcDbCircle
 10
170.9674220489218
 20
280.888162586469
 30
0.0
 40
2.499999999999886
  0
CIRCLE
  5
D21
330
4D7C
100
AcDbEntity
  8
VBORE_T2Z5F0.8
  6
Continuous
100
AcDbCircle
 10
184.9674220489218
 20
280.888162586469
 30
0.0
 40
2.499999999999886
  0
CIRCLE
  5
D22
330
4D7C
100
AcDbEntity
  8
VBORE_T2Z5F0.8
  6
Continuous
100
AcDbCircle
 10
-91.59671833487818
 20
280.888162586469
 30
0.0
 40
2.5
  0
CIRCLE
  5
D23
330
4D7C
100
AcDbEntity
  8
VBORE_T2Z5F0.8
  6
Continuous
100
AcDbCircle
 10
-77.59671833487812
 20
280.888162586469
 30
0.0
 40
2.5
  0
CIRCLE
  5
D24
330
4D7C
100
AcDbEntity
  8
VBORE_T2Z5F0.8
  6
Continuous
100
AcDbCircle
 10
234.6018250660218
 20
281.285146266769
 30
0.0
 40
2.499999999999886
  0
CIRCLE
  5
D25
330
4D7C
100
AcDbEntity
  8
VBORE_T2Z5F0.8
  6
Continuous
100
AcDbCircle
 10
248.5792932141218
 20
280.4911789061691
 30
0.0
 40
2.5
  0
CIRCLE
  5
D26
330
4D7C
100
AcDbEntity
  8
VBORE_T2Z5F0.8
  6
Continuous
100
AcDbCircle
 10
-145.4930512008782
 20
280.888162586469
 30
0.0
 40
2.5
  0
CIRCLE
  5
D27
330
4D7C
100
AcDbEntity
  8
VBORE_T2Z5F0.8
  6
Continuous
100
AcDbCircle
 10
-159.4930512008782
 20
280.888162586469
 30
0.0
 40
2.5
  0
LINE
  5
D28
330
4D7C
100
AcDbEntity
  8
0
  6
Continuous
100
AcDbLine
 10
49.22114786652185
 20
297.476226938769
 30
0.0
 11
49.22114786652185
 21
266.888162586469
 31
0.0
  0
LWPOLYLINE
  5
D29
330
4D7C
100
AcDbEntity
  8
0
  6
Continuous
100
AcDbPolyline
 90
       25
 70
     0
 43
0.0
 10
-13.30118734678416
 20
300.0137835566186
 10
-10.6959848395995
 20
299.9106439738385
 10
-8.090789622791855
 20
299.8073247803109
 10
-5.485601949728359
 20
299.703819733909
 10
-2.880422073776134
 20
299.600122592506
 10
-0.2752502483022986
 20
299.4962271139748
 10
2.329913273326027
 20
299.3921270561886
 10
4.935068237741707
 20
299.2878161770207
 10
7.540214391577624
 20
299.1832882343439
 10
10.14535148146666
 20
299.0785369860314
 10
12.75047925404169
 20
298.9735561899565
 10
15.35559745593557
 20
298.8683396039921
 10
17.9607058337812
 20
298.7628809860113
 10
20.56580413421144
 20
298.6571740938874
 10
23.17089210385918
 20
298.5512126854934
 10
25.77596948935729
 20
298.4449905187024
 10
28.38103603733865
 20
298.3385013513874
 10
30.98609149443613
 20
298.2317389414218
 10
33.59113560728261
 20
298.1246970466783
 10
36.19616812251095
 20
298.0173694250303
 10
38.80118878675407
 20
297.9097498343509
 10
41.4061973466448
 20
297.8018320325132
 10
44.01119354881605
 20
297.6936097773902
 10
46.61617713990066
 20
297.585076826855
 10
49.22114786653157
 20
297.4762269387808
  0
LINE
  5
D2A
330
4D7C
100
AcDbEntity
  8
0
  6
Continuous
100
AcDbLine
 10
-13.30118734677814
 20
266.888162586469
 30
0.0
 11
-13.30118734677814
 21
300.013783556569
 31
0.0
  0
ARC
  5
D2B
330
4D7C
100
AcDbEntity
  8
0
  6
Continuous
100
AcDbCircle
 10
-14.80118734677814
 20
266.888162586469
 30
0.0
 40
1.5
100
AcDbArc
 50
180.0
 51
0.0
  0
LINE
  5
D2C
330
4D7C
100
AcDbEntity
  8
0
  6
Continuous
100
AcDbLine
 10
-16.30118734677814
 20
300.132339782169
 30
0.0
 11
-16.30118734677814
 21
266.888162586469
 31
0.0
  0
LWPOLYLINE
  5
D2D
330
4D7C
100
AcDbEntity
  8
0
  6
Continuous
100
AcDbPolyline
 90
       25
 70
     0
 43
0.0
 10
-83.09671833488144
 20
302.7354853115835
 10
-80.31354894071055
 20
302.6275922492359
 10
-77.53037893137089
 20
302.5197149692194
 10
-74.74720865481636
 20
302.4118445446783
 10
-71.96403845900075
 20
302.3039720487567
 10
-69.18086869187792
 20
302.1960885545984
 10
-66.39769970140168
 20
302.0881851353475
 10
-63.61453183552587
 20
301.980252864148
 10
-60.83136544220436
 20
301.8722828141439
 10
-58.04820086939094
 20
301.7642660584792
 10
-55.26503846503947
 20
301.6561936702981
 10
-52.48187857710379
 20
301.5480567227443
 10
-49.69872155353771
 20
301.4398462889621
 10
-46.9155677422951
 20
301.3315534420954
 10
-44.13241749132976
 20
301.2231692552881
 10
-41.34927114859555
 20
301.1146848016844
 10
-38.56612906204629
 20
301.0060911544282
 10
-35.78299157963584
 20
300.8973793866636
 10
-32.999859049318
 20
300.7885405715345
 10
-30.21673181904663
 20
300.679565782185
 10
-27.43361023677556
 20
300.570446091759
 10
-24.65049465045862
 20
300.4611725734007
 10
-21.86738540804965
 20
300.3517363002541
 10
-19.08428285750248
 20
300.242128345463
 10
-16.30118734677092
 20
300.1323397821715
  0
LINE
  5
D2E
330
4D7C
100
AcDbEntity
  8
0
  6
Continuous
100
AcDbLine
 10
-83.09671833487815
 20
266.888162586469
 30
0.0
 11
-83.09671833487815
 21
302.735485311569
 31
0.0
  0
ARC
  5
D2F
330
4D7C
100
AcDbEntity
  8
0
  6
Continuous
100
AcDbCircle
 10
-84.59671833487815
 20
266.888162586469
 30
0.0
 40
1.5
100
AcDbArc
 50
180.0
 51
0.0
  0
LINE
  5
D30
330
4D7C
100
AcDbEntity
  8
0
  6
Continuous
100
AcDbLine
 10
-86.09671833487815
 20
302.851813813169
 30
0.0
 11
-86.09671833487815
 21
266.888162586469
 31
0.0
  0
LWPOLYLINE
  5
D31
330
4D7C
100
AcDbEntity
  8
0
  6
Continuous
100
AcDbPolyline
 90
       25
 70
     0
 43
0.0
 10
-120.0319230930823
 20
304.1737233161647
 10
-118.6179697765236
 20
304.1182960526308
 10
-117.2040149051874
 20
304.0629086904028
 10
-115.7900585304365
 20
304.0075599113293
 10
-114.3761007036332
 20
303.9522483972589
 10
-112.9621414761401
 20
303.8969728300399
 10
-111.5481808993198
 20
303.841731891521
 10
-110.1342190245348
 20
303.7865242635506
 10
-108.7202559031476
 20
303.7313486279771
 10
-107.3062915865207
 20
303.6762036666492
 10
-105.8923261260167
 20
303.6210880614153
 10
-104.4783595729981
 20
303.5660004941238
 10
-103.0643919788274
 20
303.5109396466235
 10
-101.6504233948673
 20
303.4559042007625
 10
-100.2364538724801
 20
303.4008928383897
 10
-98.8224834630285
 20
303.3459042413533
 10
-97.40851221787497
 20
303.2909370915019
 10
-95.99454018838205
 20
303.235990070684
 10
-94.58056742591225
 20
303.1810618607481
 10
-93.16659398182816
 20
303.1261511435428
 10
-91.75261990749226
 20
303.0712566009163
 10
-90.33864525426709
 20
303.0163769147175
 10
-88.92467007351522
 20
302.9615107667947
 10
-87.51069441659914
 20
302.9066568389964
 10
-86.09671833488139
 20
302.8518138131711
  0
LWPOLYLINE
  5
D32
330
4D7C
100
AcDbEntity
  8
0
  6
Continuous
100
AcDbPolyline
 90
       25
 70
     0
 43
0.0
 10
-150.9930512008538
 20
305.2579505501297
 10
-149.7028317662325
 20
305.2177060080849
 10
-148.412626603179
 20
305.1770532916743
 10
-147.1224358101963
 20
305.135989583655
 10
-145.8322594857878
 20
305.0945120667839
 10
-144.5420977284566
 20
305.0526179238178
 10
-143.2519506367058
 20
305.0103043375137
 10
-141.9618183090386
 20
304.9675684906287
 10
-140.6717008439583
 20
304.9244075659195
 10
-139.3815983399681
 20
304.8808187461432
 10
-138.091510895571
 20
304.8367992140567
 10
-136.8014386092703
 20
304.792346152417
 10
-135.5113815795692
 20
304.7474567439809
 10
-134.2213399049709
 20
304.7021281715056
 10
-132.9313136839785
 20
304.6563576177478
 10
-131.6413030150952
 20
304.6101422654646
 10
-130.3513079968242
 20
304.5634792974128
 10
-129.0613287276688
 20
304.5163658963494
 10
-127.771365306132
 20
304.4687992450314
 10
-126.4814178307171
 20
304.4207765262156
 10
-125.1914863999273
 20
304.3722949226592
 10
-123.9015711122657
 20
304.3233516171189
 10
-122.6116720662355
 20
304.2739437923518
 10
-121.3217893603399
 20
304.2240686311147
 10
-120.0319230930822
 20
304.1737233161647
  0
LINE
  5
D33
330
4D7C
100
AcDbEntity
  8
0
  6
Continuous
100
AcDbLine
 10
-150.9930512008782
 20
266.888162586469
 30
0.0
 11
-150.9930512008782
 21
305.257950550169
 31
0.0
  0
ARC
  5
D34
330
4D7C
100
AcDbEntity
  8
0
  6
Continuous
100
AcDbCircle
 10
-152.4930512008782
 20
266.888162586469
 30
0.0
 40
1.5
100
AcDbArc
 50
180.0
 51
0.0
  0
LINE
  5
D35
330
4D7C
100
AcDbEntity
  8
0
  6
Continuous
100
AcDbLine
 10
-153.9930512008782
 20
305.349955556569
 30
0.0
 11
-153.9930512008782
 21
266.888162586469
 31
0.0
  0
LWPOLYLINE
  5
D36
330
4D7C
100
AcDbEntity
  8
0
  6
Continuous
100
AcDbPolyline
 90
       25
 70
     0
 43
0.0
 10
-208.4437943951377
 20
306.6652559344791
 10
-206.1747239401415
 20
306.6229947757605
 10
-203.9056744358234
 20
306.5797106339784
 10
-201.6366464579434
 20
306.5353942753173
 10
-199.3676405822618
 20
306.4900364659612
 10
-197.0986573845385
 20
306.4436279720944
 10
-194.8296974405339
 20
306.396159559901
 10
-192.5607613260078
 20
306.3476219955655
 10
-190.2918496167206
 20
306.2980060452719
 10
-188.0229628884322
 20
306.2473024752045
 10
-185.7541017169029
 20
306.1955020515477
 10
-183.4852666778927
 20
306.1425955404854
 10
-181.2164583471617
 20
306.0885737082021
 10
-178.9476773004701
 20
306.0334273208819
 10
-176.6789241135779
 20
305.9771471447091
 10
-174.4101993622454
 20
305.9197239458679
 10
-172.1415036222325
 20
305.8611484905425
 10
-169.8728374692996
 20
305.8014115449171
 10
-167.6042014792065
 20
305.740503875176
 10
-165.3355962277134
 20
305.6784162475035
 10
-163.0670222905807
 20
305.6151394280837
 10
-160.7984802435681
 20
305.5506641831008
 10
-158.529970662436
 20
305.4849812787392
 10
-156.2614941229444
 20
305.418081481183
 10
-153.9930512008535
 20
305.3499555566164
  0
LINE
  5
D37
330
4D7C
100
AcDbEntity
  8
0
  6
Continuous
100
AcDbLine
 10
-208.4437943951782
 20
266.888162586469
 30
0.0
 11
-208.4437943951782
 21
306.665255934469
 31
0.0
  0
ARC
  5
D38
330
4D7C
100
AcDbEntity
  8
0
  6
Continuous
100
AcDbCircle
 10
-209.9437943951782
 20
266.888162586469
 30
0.0
 40
1.5
100
AcDbArc
 50
180.0
 51
0.0
  0
LINE
  5
D39
330
4D7C
100
AcDbEntity
  8
0
  6
Continuous
100
AcDbLine
 10
-211.4437943951782
 20
306.719565912369
 30
0.0
 11
-211.4437943951782
 21
266.888162586469
 31
0.0
  0
LWPOLYLINE
  5
D3A
330
4D7C
100
AcDbEntity
  8
0
  6
Continuous
100
AcDbPolyline
 90
       25
 70
     0
 43
0.0
 10
-218.4080218878937
 20
306.8387986320419
 10
-218.1178425528375
 20
306.8340205877729
 10
-217.827663494248
 20
306.8292260756062
 10
-217.5374847122461
 20
306.8244150883693
 10
-217.2473062069519
 20
306.8195876188894
 10
-216.9571279784858
 20
306.8147436599938
 10
-216.6669500269683
 20
306.8098832045098
 10
-216.3767723525198
 20
306.8050062452648
 10
-216.0865949552608
 20
306.8001127750861
 10
-215.7964178353115
 20
306.795202786801
 10
-215.5062409927926
 20
306.7902762732368
 10
-215.2160644278243
 20
306.7853332272208
 10
-214.925888140527
 20
306.7803736415802
 10
-214.6357121310214
 20
306.7753975091426
 10
-214.3455363994276
 20
306.7704048227351
 10
-214.0553609458662
 20
306.7653955751852
 10
-213.7651857704574
 20
306.7603697593199
 10
-213.4750108733219
 20
306.7553273679668
 10
-213.18483625458
 20
306.7502683939531
 10
-212.894661914352
 20
306.745192830106
 10
-212.6044878527586
 20
306.7401006692531
 10
-212.3143140699199
 20
306.7349919042215
 10
-212.0241405659565
 20
306.7298665278386
 10
-211.7339673409887
 20
306.7247245329316
 10
-211.4437943951371
 20
306.7195659123281
  0
ARC
  5
D3B
330
4D7C
100
AcDbEntity
  8
0
  6
Continuous
100
AcDbCircle
 10
-213.4573184462782
 20
99.67601262716903
 30
0.0
 40
207.2219326467561
100
AcDbArc
 50
91.36897383289998
 51
121.7755586237
  0
ARC
  5
D3C
330
4D7C
100
AcDbEntity
  8
0
  6
Continuous
100
AcDbCircle
 10
-318.8928263126782
 20
269.888162586469
 30
0.0
 40
6.999999999999998
100
AcDbArc
 50
121.7755586237003
 51
168.1505541385
  0
LINE
  5
D3D
330
4D7C
100
AcDbEntity
  8
0
  6
Continuous
100
AcDbLine
 10
-294.4583958975782
 20
262.523147931669
 30
0.0
 11
-325.7436601318782
 21
271.325547706069
 31
0.0
  0
LINE
  5
D3E
330
4D7C
100
AcDbEntity
  8
0
  6
Continuous
100
AcDbLine
 10
-295.2709251074781
 20
259.635277386969
 30
0.0
 11
-294.4583958975782
 21
262.523147931669
 31
0.0
  0
LINE
  5
D3F
330
4D7C
100
AcDbEntity
  8
0
  6
Continuous
100
AcDbLine
 10
-325.6843117903782
 20
268.192366311369
 30
0.0
 11
-295.2709251074781
 21
259.635277386969
 31
0.0
  0
LWPOLYLINE
  5
D42
330
4D7C
100
AcDbEntity
  8
0
  6
Continuous
100
AcDbPolyline
 90
      158
 70
     0
 43
0.0
 10
243.0905591401037
 20
288.1165391513297
 10
245.2630016801118
 20
287.9939096840831
 10
247.4354168519259
 20
287.8708162248207
 10
249.6078045405773
 20
287.7472568243973
 10
251.7801646310973
 20
287.6232295336675
 10
253.952497008517
 20
287.4987324034859
 10
256.1248015578677
 20
287.373763484707
 10
258.2970781641806
 20
287.2483208281855
 10
260.4693267124869
 20
287.122402484776
 10
262.641547087818
 20
286.9960065053331
 10
264.8137391752049
 20
286.8691309407113
 10
266.9859028596791
 20
286.7417738417652
 10
269.1580380262716
 20
286.6139332593495
 10
271.3301445600137
 20
286.4856072443187
 10
273.5022223459367
 20
286.3567938475276
 10
275.6742712690717
 20
286.2274911198305
 10
277.8462912144502
 20
286.0976971120822
 10
280.0182820671031
 20
285.9674098751373
 10
282.1902437120618
 20
285.8366274598501
 10
284.3621760343576
 20
285.7053479170756
 10
286.5340789190217
 20
285.5735692976683
 10
288.7059522510853
 20
285.4412896524826
 10
290.8777959155795
 20
285.3085070323734
 10
293.0496097975357
 20
285.175219488195
 10
295.2213937820218
 20
285.041425070769
 10
290.0836779845218
 20
266.888162586469
 10
292.9702961220218
 20
266.071195189069
 10
288.710944747049
 20
251.0214869975602
 10
285.0537856777694
 20
250.7783117079917
 10
281.3965207907556
 20
250.5370201825493
 10
277.7391501200314
 20
250.2976118155368
 10
274.0816736996213
 20
250.0600860012583
 10
270.4240915635489
 20
249.8244421340175
 10
266.7664037458387
 20
249.5906796081184
 10
263.1086102805147
 20
249.3587978178648
 10
259.4507112016009
 20
249.1287961575607
 10
255.7927065431216
 20
248.9006740215098
 10
252.1345963391007
 20
248.674430804016
 10
248.4763806235624
 20
248.4500658993833
 10
244.8180594305309
 20
248.2275787019155
 10
241.1596327940302
 20
248.0069686059165
 10
237.5011007480844
 20
247.7882350056903
 10
233.8424633267177
 20
247.5713772955405
 10
230.183720563954
 20
247.3563948697712
 10
226.5248724938177
 20
247.1432871226863
 10
222.8659191503327
 20
246.9320534485895
 10
219.2068605675231
 20
246.7226932417848
 10
215.5476967794131
 20
246.5152058965762
 10
211.8884278200267
 20
246.3095908072673
 10
208.2290537233882
 20
246.1058473681621
 10
204.5695745235215
 20
245.9039749735646
 10
200.9099902544508
 20
245.7039730177785
 10
197.2503009502003
 20
245.5058408951079
 10
193.5905066447939
 20
245.3095779998565
 10
189.9306073722558
 20
245.1151837263281
 10
186.2706031666101
 20
244.9226574688268
 10
182.610494061881
 20
244.7319986216564
 10
178.9502800920925
 20
244.5432065791207
 10
175.2899612912688
 20
244.3562807355237
 10
171.6295376934338
 20
244.1712204851692
 10
167.9690117037641
 20
243.9880255475514
 10
164.3083867447902
 20
243.8066954950826
 10
160.6476643765674
 20
243.627229501444
 10
156.9868461591513
 20
243.4496267403167
 10
153.325933652597
 20
243.2738863853818
 10
149.6649284169601
 20
243.1000076103205
 10
146.003832012296
 20
242.9279895888138
 10
142.3426459986599
 20
242.757831494543
 10
138.6813719361072
 20
242.5895325011891
 10
135.0200113846935
 20
242.4230917824332
 10
131.358565904474
 20
242.2585085119566
 10
127.6970370555042
 20
242.0957818634403
 10
124.0354263978393
 20
241.9349110105654
 10
120.3737354915349
 20
241.7758951270131
 10
116.7119658966463
 20
241.6187333864646
 10
113.0501191732289
 20
241.4634249626009
 10
109.3881968813379
 20
241.3099690291031
 10
105.726200581029
 20
241.1583647596525
 10
102.0641318323574
 20
241.0086113279301
 10
98.40199219537848
 20
240.8607079076171
 10
94.73978323014768
 20
240.7146536723945
 10
91.07750649672037
 20
240.5704477959436
 10
87.41516355515192
 20
240.4280894519454
 10
83.75275596549773
 20
240.2875778140812
 10
80.09028528781316
 20
240.1489120560319
 10
76.42775308215363
 20
240.0120913514787
 10
72.76516090857453
 20
239.8771148741029
 10
69.10251032713118
 20
239.7439817975854
 10
65.43980289787903
 20
239.6126912956075
 10
61.77704018087344
 20
239.4832425418502
 10
58.11422373616979
 20
239.3556347099947
 10
54.45135512382348
 20
239.2298669737222
 10
50.78842148117729
 20
239.105938174295
 10
47.12541030015919
 20
238.9838468506009
 10
43.46232367270235
 20
238.8635917227587
 10
39.79916369073999
 20
238.7451715108876
 10
36.13593244620525
 20
238.6285849351064
 10
32.47263203103131
 20
238.5138307155341
 10
28.80926453715136
 20
238.4009075722896
 10
25.14583205649856
 20
238.2898142254918
 10
21.4823366810061
 20
238.1805493952598
 10
17.81878050260715
 20
238.0731118017125
 10
14.1551656132349
 20
237.9675001649688
 10
10.49149410482251
 20
237.8637132051477
 10
6.827768069303177
 20
237.7617496423681
 10
3.163989598610041
 20
237.661608196749
 10
-0.4998392153236848
 20
237.5632875884093
 10
-4.163716280564833
 20
237.4667865374681
 10
-7.827639505180233
 20
237.3721037640441
 10
-11.49160679723671
 20
237.2792379882565
 10
-15.15561606480108
 20
237.1881879302241
 10
-18.81966521594017
 20
237.0989523100658
 10
-22.48375215872079
 20
237.0115298479008
 10
-26.14787480120978
 20
236.9259192638478
 10
-29.81203105147396
 20
236.8421192780258
 10
-33.47621881758015
 20
236.7601286105539
 10
-37.14043600759517
 20
236.6799459815509
 10
-40.80468052958585
 20
236.6015701111358
 10
-44.46895029161901
 20
236.5249997194275
 10
-48.13324320176147
 20
236.4502335265451
 10
-51.79755716808007
 20
236.3772702526075
 10
-55.4618900986416
 20
236.3061086177335
 10
-59.12623990151292
 20
236.2367473420422
 10
-62.79060448476082
 20
236.1691851456524
 10
-66.45498294544613
 20
236.1034199794667
 10
-70.11937576550214
 20
236.0394494291419
 10
-73.78378293030431
 20
235.9772716669286
 10
-77.44820442522821
 20
235.9168848650776
 10
-81.11264023564935
 20
235.8582871958396
 10
-84.77709034694323
 20
235.8014768314652
 10
-88.44155474448537
 20
235.7464519442053
 10
-92.10603341365129
 20
235.6932107063104
 10
-95.77052633981648
 20
235.6417512900312
 10
-99.43503350835653
 20
235.5920718676186
 10
-103.0995549046469
 20
235.5441706113232
 10
-106.7640905140631
 20
235.4980456933956
 10
-110.4286403219806
 20
235.4536952860866
 10
-114.0932043137751
 20
235.4111175616469
 10
-117.7577824748219
 20
235.3703106923272
 10
-121.4223747904966
 20
235.3312728503782
 10
-125.0869812440985
 20
235.2940019485579
 10
-128.7516018176876
 20
235.2584957447512
 10
-132.4162364947805
 20
235.2247521788994
 10
-136.080885258894
 20
235.1927691909432
 10
-139.7455480934179
 20
235.162544704963
 10
-143.4102249812344
 20
235.1340765815944
 10
-147.0749099339122
 20
235.1066163943186
 10
-150.73962339583
 20
235.0827192555574
 10
-154.4044539720064
 20
235.073458907755
 10
-158.0694650719326
 20
235.0867601887487
 10
-161.7346585342884
 20
235.1228528948143
 10
-165.4000361977532
 20
235.1819668222276
 10
-169.0655999010068
 20
235.2643317672643
 10
-172.7313514827289
 20
235.3701775262001
 10
-176.397292781599
 20
235.4997338953108
 10
-180.0634256362967
 20
235.6532306708719
 42
-0.0695959577354985
 10
-321.1759498086503
 20
263.2709617354943
 42
-0.2537091165679298
 10
-325.6843117903428
 20
268.1923663113609
 42
-0.2537091165679298
  0
LINE
  5
D47
330
4D7C
100
AcDbEntity
  8
0
  6
Continuous
100
AcDbLine
 10
243.0905591401219
 20
266.888162586469
 30
0.0
 11
243.0905591401219
 21
288.1165391513691
 31
0.0
  0
ARC
  5
D48
330
4D7C
100
AcDbEntity
  8
0
  6
Continuous
100
AcDbCircle
 10
241.5905591401219
 20
266.888162586469
 30
0.0
 40
1.5
100
AcDbArc
 50
180.0
 51
0.0
  0
LINE
  5
D49
330
4D7C
100
AcDbEntity
  8
0
  6
Continuous
100
AcDbLine
 10
240.0905591401219
 20
288.285121221769
 30
0.0
 11
240.0905591401219
 21
266.888162586469
 31
0.0
  0
LWPOLYLINE
  5
D4A
330
4D7C
100
AcDbEntity
  8
0
  6
Continuous
100
AcDbPolyline
 90
       25
 70
     0
 43
0.0
 10
179.4674220489128
 20
291.5116765443632
 10
181.9937322432435
 20
291.383740485975
 10
184.5200137221179
 20
291.2552648965519
 10
187.046266296748
 20
291.1262462289819
 10
189.5724897783458
 20
290.9966809361522
 10
192.0986839781235
 20
290.8665654709503
 10
194.6248487072931
 20
290.7358962862637
 10
197.1509837770666
 20
290.60466983498
 10
199.6770889986561
 20
290.4728825699866
 10
202.2031641832737
 20
290.340530944171
 10
204.7292091421314
 20
290.2076114104207
 10
207.2552236864413
 20
290.0741204216233
 10
209.7812076274154
 20
289.9400544306662
 10
212.3071607762658
 20
289.805409890437
 10
214.8330829442046
 20
289.670183253823
 10
217.3589739424437
 20
289.5343709737119
 10
219.8848335821953
 20
289.3979695029911
 10
222.4106616746714
 20
289.2609752945482
 10
224.9364580310841
 20
289.1233848012705
 10
227.4622224626455
 20
288.9851944760457
 10
229.9879547805675
 20
288.8464007717612
 10
232.5136547960622
 20
288.7070001413045
 10
235.0393223203418
 20
288.5669890375632
 10
237.5649571646182
 20
288.4263639134246
 10
240.0905591401036
 20
288.2851212217764
  0
LINE
  5
D4B
330
4D7C
100
AcDbEntity
  8
0
  6
Continuous
100
AcDbLine
 10
179.4674220489218
 20
266.888162586469
 30
0.0
 11
179.4674220489218
 21
291.511676544369
 31
0.0
  0
ARC
  5
D4C
330
4D7C
100
AcDbEntity
  8
0
  6
Continuous
100
AcDbCircle
 10
177.9674220489218
 20
266.888162586469
 30
0.0
 40
1.500000000000114
100
AcDbArc
 50
180.0
 51
0.0
  0
LINE
  5
D4D
330
4D7C
100
AcDbEntity
  8
0
  6
Continuous
100
AcDbLine
 10
176.4674220489218
 20
291.6629040642691
 30
0.0
 11
176.4674220489218
 21
266.888162586469
 31
0.0
  0
LWPOLYLINE
  5
D4E
330
4D7C
100
AcDbEntity
  8
0
  6
Continuous
100
AcDbPolyline
 90
       25
 70
     0
 43
0.0
 10
115.8442849577224
 20
294.5674366424655
 10
118.3705059492034
 20
294.4517777794535
 10
120.8967060565339
 20
294.3356829939632
 10
123.4228850807621
 20
294.2191481331972
 10
125.9490428229358
 20
294.1021690443582
 10
128.475179084103
 20
293.9847415746488
 10
131.0012936653119
 20
293.8668615712716
 10
133.5273863676103
 20
293.7485248814293
 10
136.0534569920464
 20
293.6297273523244
 10
138.5795053396681
 20
293.5104648311596
 10
141.1055312115234
 20
293.3907331651377
 10
143.6315344086603
 20
293.270528201461
 10
146.1575147321269
 20
293.1498457873324
 10
148.6834719829711
 20
293.0286817699544
 10
151.209405962241
 20
292.9070319965297
 10
153.7353164709845
 20
292.7848923142609
 10
156.2612033102497
 20
292.6622585703506
 10
158.7870662810846
 20
292.5391266120015
 10
161.3129051845372
 20
292.4154922864161
 10
163.8387198216555
 20
292.2913514407971
 10
166.3645099934875
 20
292.1666999223472
 10
168.8902755010812
 20
292.0415335782691
 10
171.4160161454847
 20
291.9158482557652
 10
173.9417317277459
 20
291.7896398020382
 10
176.4674220489129
 20
291.6629040642908
  0
LINE
  5
D4F
330
4D7C
100
AcDbEntity
  8
0
  6
Continuous
100
AcDbLine
 10
115.8442849577219
 20
266.888162586469
 30
0.0
 11
115.8442849577219
 21
294.567436642469
 31
0.0
  0
ARC
  5
D50
330
4D7C
100
AcDbEntity
  8
0
  6
Continuous
100
AcDbCircle
 10
114.3442849577219
 20
266.888162586469
 30
0.0
 40
1.5
100
AcDbArc
 50
180.0
 51
0.0
  0
LINE
  5
D51
330
4D7C
100
AcDbEntity
  8
0
  6
Continuous
100
AcDbLine
 10
112.8442849577219
 20
294.704225974369
 30
0.0
 11
112.8442849577219
 21
266.888162586469
 31
0.0
  0
LWPOLYLINE
  5
D52
330
4D7C
100
AcDbEntity
  8
0
  6
Continuous
100
AcDbPolyline
 90
       25
 70
     0
 43
0.0
 10
52.22114786651957
 20
297.3504704445716
 10
54.74728778731156
 20
297.2442393813888
 10
57.27341397066765
 20
297.1376936076578
 10
59.79952620439637
 20
297.0308282622906
 10
62.32562427630631
 20
296.9236384841989
 10
64.85170797420598
 20
296.8161194122945
 10
67.37777708590394
 20
296.708266185489
 10
69.90383139920876
 20
296.6000739426945
 10
72.42987070192898
 20
296.4915378228225
 10
74.95589478187313
 20
296.3826529647849
 10
77.48190342684978
 20
296.2734145074936
 10
80.00789642466748
 20
296.1638175898602
 10
82.53387356313476
 20
296.0538573507964
 10
85.05983463006018
 20
295.9435289292143
 10
87.58577941325228
 20
295.8328274640255
 10
90.11170770051964
 20
295.7217480941417
 10
92.63761927967079
 20
295.6102859584748
 10
95.16351393851427
 20
295.4984361959366
 10
97.68939146485863
 20
295.3861939454389
 10
100.2152516465124
 20
295.2735543458933
 10
102.7410942712842
 20
295.1605125362117
 10
105.2669191269825
 20
295.047063655306
 10
107.792726001416
 20
294.9332028420878
 10
110.318514682393
 20
294.818925235469
 10
112.8442849577223
 20
294.7042259743612
  0
LINE
  5
D53
330
4D7C
100
AcDbEntity
  8
0
  6
Continuous
100
AcDbLine
 10
52.22114786652185
 20
266.888162586469
 30
0.0
 11
52.22114786652185
 21
297.350470444569
 31
0.0
  0
ARC
  5
D54
330
4D7C
100
AcDbEntity
  8
0
  6
Continuous
100
AcDbCircle
 10
50.72114786652185
 20
266.888162586469
 30
0.0
 40
1.5
100
AcDbArc
 50
180.0
 51
0.0
  0
CIRCLE
  5
D7F
330
4D7C
100
AcDbEntity
  8
VBORE_T2Z5F0.8
  6
Continuous
100
AcDbCircle
 10
-282.1117169862782
 20
-32.42365685953098
 30
0.0
 40
2.500000000101854
  0
LINE
  5
D9A
330
4D7C
100
AcDbEntity
  8
0
  6
Continuous
100
AcDbLine
 10
-100.4621027913782
 20
-75.16861717943098
 30
0.0
 11
-100.1504854571782
 21
-75.16861999203098
 31
0.0
  0
CIRCLE
  5
D9B
330
4D7C
100
AcDbEntity
  8
VBORE_T2Z5F0.8
  6
Continuous
100
AcDbCircle
 10
-95.01171699387817
 20
-32.42534560873099
 30
0.0
 40
2.500000000101854
  0
CIRCLE
  5
DB9
330
4D7C
100
AcDbEntity
  8
VBORE_T2Z5F0.8
  6
Continuous
100
AcDbCircle
 10
-284.0777308006782
 20
-127.324717105631
 30
0.0
 40
2.500000000000007
  0
CIRCLE
  5
DBA
330
4D7C
100
AcDbEntity
  8
VBORE_T2Z5F0.8
  6
Continuous
100
AcDbCircle
 10
-270.0777308006782
 20
-127.324717105631
 30
0.0
 40
2.5
  0
CIRCLE
  5
DBB
330
4D7C
100
AcDbEntity
  8
VBORE_T2Z5F0.8
  6
Continuous
100
AcDbCircle
 10
-96.97773080067816
 20
-127.324717105631
 30
0.0
 40
2.500000000000028
  0
CIRCLE
  5
DDE
330
4D7C
100
AcDbEntity
  8
VBORE_T2Z5F0.8
  6
Continuous
100
AcDbCircle
 10
-190.5277308006782
 20
-149.188043856031
 30
0.0
 40
2.5
  0
CIRCLE
  5
DDF
330
4D7C
100
AcDbEntity
  8
VBORE_T2Z5F0.8
  6
Continuous
100
AcDbCircle
 10
-110.9777308006782
 20
-127.324717105631
 30
0.0
 40
2.5
  0
CIRCLE
  5
DF5
330
4D7C
100
AcDbEntity
  8
VBORE_T2Z5F0.8
  6
Continuous
100
AcDbCircle
 10
-107.5296305069782
 20
-218.347580813531
 30
0.0
 40
2.5
  0
CIRCLE
  5
DFE
330
4D7C
100
AcDbEntity
  8
VBORE_T2Z5F0.8
  6
Continuous
100
AcDbCircle
 10
-93.52963050697818
 20
-218.347580813531
 30
0.0
 40
2.5
  0
CIRCLE
  5
DFF
330
4D7C
100
AcDbEntity
  8
VBORE_T2Z5F0.8
  6
Continuous
100
AcDbCircle
 10
-280.6296305069782
 20
-218.347580813531
 30
0.0
 40
2.5
  0
CIRCLE
  5
E20
330
4D7C
100
AcDbEntity
  8
VBORE_T2Z5F0.8
  6
Continuous
100
AcDbCircle
 10
-187.0796305069782
 20
-245.647402613231
 30
0.0
 40
2.5
  0
CIRCLE
  5
E21
330
4D7C
100
AcDbEntity
  8
VBORE_T2Z5F0.8
  6
Continuous
100
AcDbCircle
 10
-266.6296305069782
 20
-218.347580813531
 30
0.0
 40
2.500000000000007
  0
CIRCLE
  5
E32
330
4D7C
100
AcDbEntity
  8
VBORE_T2Z5F0.8
  6
Continuous
100
AcDbCircle
 10
369.9310566276197
 20
-250.4853309860685
 30
0.0
 40
2.5
  0
CIRCLE
  5
E53
330
4D7C
100
AcDbEntity
  8
VBORE_T2Z5F0.8
  6
Continuous
100
AcDbCircle
 10
290.3810566276197
 20
-223.3005133931685
 30
0.0
 40
2.5
  0
CIRCLE
  5
E54
330
4D7C
100
AcDbEntity
  8
VBORE_T2Z5F0.8
  6
Continuous
100
AcDbCircle
 10
276.3810566276197
 20
-223.3005133931685
 30
0.0
 40
2.5
  0
CIRCLE
  5
E5D
330
4D7C
100
AcDbEntity
  8
VBORE_T2Z5F0.8
  6
Continuous
100
AcDbCircle
 10
463.4810566276197
 20
-223.3005133931685
 30
0.0
 40
2.5
  0
CIRCLE
  5
E5E
330
4D7C
100
AcDbEntity
  8
VBORE_T2Z5F0.8
  6
Continuous
100
AcDbCircle
 10
449.4810566276197
 20
-223.3005133931685
 30
0.0
 40
2.5
  0
LINE
  5
E5F
330
4D7C
100
AcDbEntity
  8
0
  6
Continuous
100
AcDbLine
 10
56.2403837124416
 20
-192.900959872712
 30
0.0
 11
56.23259553144163
 21
-204.9015259506119
 31
0.0
  0
LINE
  5
E60
330
4D7C
100
AcDbEntity
  8
0
  6
Continuous
100
AcDbLine
 10
56.2403837124416
 20
-192.900959872712
 30
0.0
 11
68.26683991984163
 21
-192.9010037600119
 31
0.0
  0
LINE
  5
E61
330
4D7C
100
AcDbEntity
  8
0
  6
Continuous
100
AcDbLine
 10
68.2590517388416
 20
-204.9015698379119
 30
0.0
 11
68.26683991984163
 21
-192.9010037600119
 31
0.0
  0
LINE
  5
E62
330
4D7C
100
AcDbEntity
  8
0
  6
Continuous
100
AcDbLine
 10
56.23259553144163
 20
-204.9015259506119
 30
0.0
 11
68.2590517388416
 21
-204.9015698379119
 31
0.0
  0
CIRCLE
  5
E63
330
4D7C
100
AcDbEntity
  8
VBORE_T2Z5F0.8
  6
Continuous
100
AcDbCircle
 10
30.6993593396416
 20
-185.6855671616119
 30
0.0
 40
2.500000000000005
  0
CIRCLE
  5
E68
330
4D7C
100
AcDbEntity
  8
VBORE_T2Z5F0.8
  6
Continuous
100
AcDbCircle
 10
103.2492681085416
 20
-210.6858319131119
 30
0.0
 40
2.499999999999991
  0
CIRCLE
  5
E89
330
4D7C
100
AcDbEntity
  8
VBORE_T2Z5F0.8
  6
Continuous
100
AcDbCircle
 10
203.7993593385415
 20
-185.6861988430119
 30
0.0
 40
2.499999999999991
  0
CIRCLE
  5
E8A
330
4D7C
100
AcDbEntity
  8
VBORE_T2Z5F0.8
  6
Continuous
100
AcDbCircle
 10
189.7993593386416
 20
-185.686147753812
 30
0.0
 40
2.499999999999991
  0
CIRCLE
  5
E8B
330
4D7C
100
AcDbEntity
  8
VBORE_T2Z5F0.8
  6
Continuous
100
AcDbCircle
 10
110.2494177517416
 20
-169.6790286369119
 30
0.0
 40
2.499999999999991
  0
CIRCLE
  5
E8C
330
4D7C
100
AcDbEntity
  8
VBORE_T2Z5F0.8
  6
Continuous
100
AcDbCircle
 10
117.2492681084416
 20
-210.6858830023119
 30
0.0
 40
2.499999999999991
  0
CIRCLE
  5
E8D
330
4D7C
100
AcDbEntity
  8
VBORE_T2Z5F0.8
  6
Continuous
100
AcDbCircle
 10
16.69935933974165
 20
-185.6855160724119
 30
0.0
 40
2.499999999999991
  0
LINE
  5
E8E
330
4D7C
100
AcDbEntity
  8
0
  6
Continuous
100
AcDbLine
 10
152.2395266933416
 20
-204.9018763018119
 30
0.0
 11
152.2318260978416
 21
-192.901310167412
 31
0.0
  0
LINE
  5
E8F
330
4D7C
100
AcDbEntity
  8
0
  6
Continuous
100
AcDbLine
 10
152.2318260978416
 20
-192.901310167412
 30
0.0
 11
164.2582823052416
 21
-192.9013540547119
 31
0.0
  0
LINE
  5
E90
330
4D7C
100
AcDbEntity
  8
0
  6
Continuous
100
AcDbLine
 10
164.2582823052416
 20
-192.9013540547119
 30
0.0
 11
164.2659829007417
 21
-204.9019201891119
 31
0.0
  0
LINE
  5
E91
330
4D7C
100
AcDbEntity
  8
0
  6
Continuous
100
AcDbLine
 10
152.2395266933416
 20
-204.9018763018119
 30
0.0
 11
164.2659829007417
 21
-204.9019201891119
 31
0.0
  0
CIRCLE
  5
E92
330
4D7C
100
AcDbEntity
  8
VBORE_T2Z5F0.8
  6
Continuous
100
AcDbCircle
 10
10.22750698584161
 20
-97.40361435461193
 30
0.0
 40
2.500000000000057
  0
CIRCLE
  5
E93
330
4D7C
100
AcDbEntity
  8
VBORE_T2Z5F0.8
  6
Continuous
100
AcDbCircle
 10
24.22750698584161
 20
-97.40361435461193
 30
0.0
 40
2.5
  0
CIRCLE
  5
E9C
330
4D7C
100
AcDbEntity
  8
VBORE_T2Z5F0.8
  6
Continuous
100
AcDbCircle
 10
197.3275069858415
 20
-97.40361435461193
 30
0.0
 40
2.5
  0
CIRCLE
  5
E9D
330
4D7C
100
AcDbEntity
  8
VBORE_T2Z5F0.8
  6
Continuous
100
AcDbCircle
 10
103.7775069858416
 20
-123.3030203178119
 30
0.0
 40
2.5
  0
CIRCLE
  5
EC6
330
4D7C
100
AcDbEntity
  8
VBORE_T2Z5F0.8
  6
Continuous
100
AcDbCircle
 10
183.3275069858415
 20
-97.40361435461193
 30
0.0
 40
2.5
  0
CIRCLE
  5
EC7
330
4D7C
100
AcDbEntity
  8
VBORE_T2Z5F0.8
  6
Continuous
100
AcDbCircle
 10
191.5729902004416
 20
-42.90837838971191
 30
0.0
 40
2.500000000132921
  0
LINE
  5
EC8
330
4D7C
100
AcDbEntity
  8
0
  6
Continuous
100
AcDbLine
 10
160.3443685134417
 20
-46.32125704441194
 30
0.0
 11
116.3443685157416
 21
-46.32171088391192
 31
0.0
  0
ARC
  5
EC9
330
4D7C
100
AcDbEntity
  8
0
  6
Continuous
100
AcDbCircle
 10
116.3442859995416
 20
-38.32171088391192
 30
0.0
 40
8.000000000425473
100
AcDbArc
 50
180.0005914186002
 51
270.0005909792
  0
LINE
  5
ECA
330
4D7C
100
AcDbEntity
  8
0
  6
Continuous
100
AcDbLine
 10
108.3442859999416
 20
-38.32179340011191
 30
0.0
 11
108.3442796326416
 21
-37.70448293391195
 31
0.0
  0
ARC
  5
ECB
330
4D7C
100
AcDbEntity
  8
0
  6
Continuous
100
AcDbCircle
 10
116.3442796322416
 20
-37.70440041771195
 30
0.0
 40
8.000000000425558
100
AcDbArc
 50
90.0005909792
 51
180.0005909792
  0
LINE
  5
ECC
330
4D7C
100
AcDbEntity
  8
0
  6
Continuous
100
AcDbLine
 10
116.3441971159416
 20
-29.70440041771195
 30
0.0
 11
160.3441971136417
 21
-29.70394657821191
 31
0.0
  0
ARC
  5
ECD
330
4D7C
100
AcDbEntity
  8
0
  6
Continuous
100
AcDbCircle
 10
160.3442796298417
 20
-37.70394657821191
 30
0.0
 40
8.000000000425558
100
AcDbArc
 50
0.000590979199987
 51
90.0005909792004
  0
LINE
  5
ECE
330
4D7C
100
AcDbEntity
  8
0
  6
Continuous
100
AcDbLine
 10
168.3442796294416
 20
-37.70386406201192
 30
0.0
 11
168.3442859967416
 21
-38.32117452811195
 31
0.0
  0
ARC
  5
ECF
330
4D7C
100
AcDbEntity
  8
0
  6
Continuous
100
AcDbCircle
 10
160.3442859971416
 20
-38.32125704441194
 30
0.0
 40
8.000000000425587
100
AcDbArc
 50
270.0005909792004
 51
0.0005914191001132
  0
CIRCLE
  5
ED0
330
4D7C
100
AcDbEntity
  8
VBORE_T2Z5F0.8
  6
Continuous
100
AcDbCircle
 10
18.4730606074416
 20
-49.73527692671195
 30
0.0
 40
2.500000000132978
  0
CIRCLE
  5
ED1
330
4D7C
100
AcDbEntity
  8
VBORE_T2Z5F0.8
  6
Continuous
100
AcDbCircle
 10
5.115676435141609
 20
-42.91030160981194
 30
0.0
 40
2.500000000132978
  0
CIRCLE
  5
EEA
330
4D7C
100
AcDbEntity
  8
VBORE_T2Z5F0.8
  6
Continuous
100
AcDbCircle
 10
90.84462638044164
 20
-71.32197390441192
 30
0.0
 40
2.500000000132978
  0
CIRCLE
  5
EF3
330
4D7C
100
AcDbEntity
  8
VBORE_T2Z5F0.8
  6
Continuous
100
AcDbCircle
 10
105.8446263796416
 20
-71.32181918641191
 30
0.0
 40
2.500000000132978
  0
CIRCLE
  5
EF4
330
4D7C
100
AcDbEntity
  8
VBORE_T2Z5F0.8
  6
Continuous
100
AcDbCircle
 10
178.2157468237416
 20
-49.73362925561196
 30
0.0
 40
2.500000000133035
  0
CIRCLE
  5
F6B
330
4D7C
100
AcDbEntity
  8
VBORE_T2Z5F0.8
  6
Continuous
100
AcDbCircle
 10
724.7789554236217
 20
-41.67945341673098
 30
0.0
 40
2.500000000000028
  0
CIRCLE
  5
F6C
330
4D7C
100
AcDbEntity
  8
VBORE_T2Z5F0.8
  6
Continuous
100
AcDbCircle
 10
724.7789554236217
 20
82.01891100436899
 30
0.0
 40
2.500000000000057
  0
CIRCLE
  5
F6D
330
4D7C
100
AcDbEntity
  8
VBORE_T2Z5F0.8
  6
Continuous
100
AcDbCircle
 10
724.7789554236217
 20
14.11937268636899
 30
0.0
 40
2.5
  0
CIRCLE
  5
F6E
330
4D7C
100
AcDbEntity
  8
VBORE_T2Z5F0.8
  6
Continuous
100
AcDbCircle
 10
724.7789554236217
 20
-107.204882003331
 30
0.0
 40
2.5
  0
CIRCLE
  5
F6F
330
4D7C
100
AcDbEntity
  8
VBORE_T2Z5F0.8
  6
Continuous
100
AcDbCircle
 10
724.7789554236217
 20
-170.831022804831
 30
0.0
 40
2.500000000000014
  0
CIRCLE
  5
F70
330
4D7C
100
AcDbEntity
  8
VBORE_T2Z5F0.8
  6
Continuous
100
AcDbCircle
 10
796.7789554236217
 20
96.01891100436899
 30
0.0
 40
2.5
  0
CIRCLE
  5
F71
330
4D7C
100
AcDbEntity
  8
VBORE_T2Z5F0.8
  6
Continuous
100
AcDbCircle
 10
796.7789554236217
 20
-41.67945341673098
 30
0.0
 40
2.5
  0
CIRCLE
  5
F72
330
4D7C
100
AcDbEntity
  8
VBORE_T2Z5F0.8
  6
Continuous
100
AcDbCircle
 10
796.7789554236217
 20
-121.204882003331
 30
0.0
 40
2.5
  0
CIRCLE
  5
F73
330
4D7C
100
AcDbEntity
  8
VBORE_T2Z5F0.8
  6
Continuous
100
AcDbCircle
 10
796.7789554236217
 20
82.01891100436899
 30
0.0
 40
2.5
  0
CIRCLE
  5
F74
330
4D7C
100
AcDbEntity
  8
VBORE_T2Z5F0.8
  6
Continuous
100
AcDbCircle
 10
796.7789554236217
 20
28.11937268636899
 30
0.0
 40
2.5
  0
CIRCLE
  5
F75
330
4D7C
100
AcDbEntity
  8
VBORE_T2Z5F0.8
  6
Continuous
100
AcDbCircle
 10
796.7789554236217
 20
14.11937268636899
 30
0.0
 40
2.499999999999943
  0
CIRCLE
  5
F76
330
4D7C
100
AcDbEntity
  8
VBORE_T2Z5F0.8
  6
Continuous
100
AcDbCircle
 10
796.7789554236217
 20
-55.67945341673098
 30
0.0
 40
2.5
  0
CIRCLE
  5
F77
330
4D7C
100
AcDbEntity
  8
VBORE_T2Z5F0.8
  6
Continuous
100
AcDbCircle
 10
796.7789554236217
 20
-107.204882003331
 30
0.0
 40
2.500000000000028
  0
CIRCLE
  5
F78
330
4D7C
100
AcDbEntity
  8
VBORE_T2Z5F0.8
  6
Continuous
100
AcDbCircle
 10
796.7789554236217
 20
-184.831022804831
 30
0.0
 40
2.499999999999972
  0
CIRCLE
  5
F79
330
4D7C
100
AcDbEntity
  8
VBORE_T2Z5F0.8
  6
Continuous
100
AcDbCircle
 10
796.7789554236217
 20
-170.831022804831
 30
0.0
 40
2.499999999999986
  0
CIRCLE
  5
F7A
330
4D7C
100
AcDbEntity
  8
VBORE_T2Z5F0.8
  6
Continuous
100
AcDbCircle
 10
724.7789554236217
 20
-184.831022804831
 30
0.0
 40
2.5
  0
CIRCLE
  5
F7B
330
4D7C
100
AcDbEntity
  8
VBORE_T2Z5F0.8
  6
Continuous
100
AcDbCircle
 10
724.7789554236217
 20
-55.67945341673098
 30
0.0
 40
2.5
  0
CIRCLE
  5
F7C
330
4D7C
100
AcDbEntity
  8
VBORE_T2Z5F0.8
  6
Continuous
100
AcDbCircle
 10
724.7789554236217
 20
28.11937268636899
 30
0.0
 40
2.5
  0
CIRCLE
  5
F7D
330
4D7C
100
AcDbEntity
  8
VBORE_T2Z5F0.8
  6
Continuous
100
AcDbCircle
 10
724.7789554236217
 20
-121.204882003331
 30
0.0
 40
2.5
  0
CIRCLE
  5
F7E
330
4D7C
100
AcDbEntity
  8
VBORE_T2Z5F0.8
  6
Continuous
100
AcDbCircle
 10
724.7789554236217
 20
96.01891100436899
 30
0.0
 40
2.5
  0
LWPOLYLINE
  5
FA0
330
4D7C
100
AcDbEntity
  8
BORDER_Z16_3
100
AcDbPolyline
 90
        4
 70
     1
 43
0.0
 10
-339.7559613993577
 20
-277.305609241146
 10
-339.7559613993577
 20
322.694390758854
 10
860.2440386006423
 20
322.694390758854
 10
860.2440386006423
 20
-277.305609241146
  0
CIRCLE
  5
FA6
330
4D7C
100
AcDbEntity
  8
VBORE_T2Z5F0.8
100
AcDbCircle
 10
718.1386384802101
 20
179.6071952235682
 30
0.0
 40
2.5
  0
CIRCLE
  5
FA7
330
4D7C
100
AcDbEntity
  8
VBORE_T2Z5F0.8
100
AcDbCircle
 10
661.2063227660335
 20
179.6071952235682
 30
0.0
 40
2.5
  0
CIRCLE
  5
FA8
330
4D7C
100
AcDbEntity
  8
VBORE_T2Z5F0.8
100
AcDbCircle
 10
310.6043221107456
 20
-158.2356825049304
 30
0.0
 40
2.5
  0
CIRCLE
  5
FA9
330
4D7C
100
AcDbEntity
  8
VBORE_T2Z5F0.8
100
AcDbCircle
 10
367.5366378249222
 20
-158.2356825049304
 30
0.0
 40
2.5
  0
CIRCLE
  5
FAB
330
4D7C
100
AcDbEntity
  8
VBORE_T2Z5F0.8
100
AcDbCircle
 10
-303.5395921796537
 20
70.78548788850676
 30
0.0
 40
2.5
  0
CIRCLE
  5
FAC
330
4D7C
100
AcDbEntity
  8
VBORE_T2Z5F0.8
100
AcDbCircle
 10
-247.4320491012027
 20
70.78548788850676
 30
0.0
 40
2.5
  0
CIRCLE
  5
FAD
330
4D7C
100
AcDbEntity
  8
VBORE_T2Z5F0.8
100
AcDbCircle
 10
-76.28490861630263
 20
61.98837253060677
 30
0.0
 40
2.5
  0
CIRCLE
  5
FAE
330
4D7C
100
AcDbEntity
  8
VBORE_T2Z5F0.8
100
AcDbCircle
 10
-132.3924516947537
 20
61.98837253060677
 30
0.0
 40
2.5
  0
CIRCLE
  5
FB0
330
4D7C
100
AcDbEntity
  8
VBORE_T2Z5F0.8
100
AcDbCircle
 10
339.0704799678419
 20
-107.1309230958736
 30
0.0
 40
2.5
  0
CIRCLE
  5
FB1
330
4D7C
100
AcDbEntity
  8
VBORE_T2Z5F0.8
100
AcDbCircle
 10
-104.3386801555282
 20
13.78077807736901
 30
0.0
 40
2.5
  0
CIRCLE
  5
FB2
330
4D7C
100
AcDbEntity
  8
VBORE_T2Z5F0.8
100
AcDbCircle
 10
-275.4858206403841
 20
20.55474787156612
 30
0.0
 40
2.5
  0
CIRCLE
  5
FB4
330
4D7C
100
AcDbEntity
  8
VBORE_T2Z5F0.8
100
AcDbCircle
 10
689.6724806231258
 20
230.8495720242663
 30
0.0
 40
2.5
  0
CIRCLE
  5
FB6
330
4D7C
100
AcDbEntity
  8
VBORE_T2Z5F0.8
100
AcDbCircle
 10
405.3892459566529
 20
289.7202945323101
 30
0.0
 40
2.5
  0
CIRCLE
  5
FB7
330
4D7C
100
AcDbEntity
  8
VBORE_T2Z5F0.8
100
AcDbCircle
 10
405.3892459566718
 20
264.5974611048691
 30
0.0
 40
2.5
  0
CIRCLE
  5
FB8
330
4D7C
100
AcDbEntity
  8
VBORE_T2Z5F0.8
100
AcDbCircle
 10
-185.4274965981782
 20
-182.9644652392308
 30
0.0
 40
2.5
  0
CIRCLE
  5
FB9
330
4D7C
100
AcDbEntity
  8
VBORE_T2Z5F0.8
100
AcDbCircle
 10
-185.4274965981593
 20
-208.0872986666718
 30
0.0
 40
2.5
  0
CIRCLE
  5
FBA
330
4D7C
100
AcDbEntity
  8
VBORE_T2Z5F0.8
100
AcDbCircle
 10
574.6586308109243
 20
266.6223631734482
 30
0.0
 40
2.5
  0
CIRCLE
  5
FBB
330
4D7C
100
AcDbEntity
  8
VBORE_T2Z5F0.8
100
AcDbCircle
 10
574.6586308109431
 20
241.4995297460071
 30
0.0
 40
2.5
  0
CIRCLE
  5
FBC
330
4D7C
100
AcDbEntity
  8
VBORE_T2Z5F0.8
100
AcDbCircle
 10
793.6377097131215
 20
266.6224110349747
 30
0.0
 40
2.5
  0
CIRCLE
  5
FBD
330
4D7C
100
AcDbEntity
  8
VBORE_T2Z5F0.8
100
AcDbCircle
 10
793.6377097131403
 20
241.4995776075337
 30
0.0
 40
2.5
  0
CIRCLE
  5
FBE
330
4D7C
100
AcDbEntity
  8
VBORE_T2Z5F0.8
100
AcDbCircle
 10
-215.9368927701258
 20
-65.89226361733145
 30
0.0
 40
2.5
  0
CIRCLE
  5
FBF
330
4D7C
100
AcDbEntity
  8
VBORE_T2Z5F0.8
100
AcDbCircle
 10
-159.8293496916747
 20
-65.89226361733145
 30
0.0
 40
2.5
  0
CIRCLE
  5
FC0
330
4D7C
100
AcDbEntity
  8
VBORE_T2Z5F0.8
100
AcDbCircle
 10
-187.8831212309003
 20
-114.0998580705692
 30
0.0
 40
2.5
  0
CIRCLE
  5
FC8
330
4D7C
100
AcDbEntity
  8
VBORE_T2Z5F0.8
100
AcDbCircle
 10
-188.5610381833197
 20
27.78189212282314
 30
0.0
 40
2.5
  0
LINE
  5
50C3
330
4D7C
100
AcDbEntity
  8
ROUTE_T57CF3E1Z4N4
  6
Continuous
100
AcDbLine
 10
-294.8646605025282
 20
261.079212659319
 30
0.0
 11
-335.7761598858512
 21
272.5900431335365
 31
0.0
  0
LINE
  5
50D1
330
4D7C
100
AcDbEntity
  8
ROUTE_T57CF3E1Z4N4
100
AcDbLine
 10
-209.9437943951782
 20
324.9401071618119
 30
0.0
 11
-209.9437943951782
 21
265.388162586469
 31
0.0
  0
LINE
  5
50D2
330
4D7C
100
AcDbEntity
  8
ROUTE_T57CF3E1Z4N4
100
AcDbLine
 10
-152.4930512008782
 20
324.9401071618119
 30
0.0
 11
-152.4930512008782
 21
265.388162586469
 31
0.0
  0
LINE
  5
50D3
330
4D7C
100
AcDbEntity
  8
ROUTE_T57CF3E1Z4N4
100
AcDbLine
 10
-84.59671833487815
 20
324.9401071618119
 30
0.0
 11
-84.59671833487815
 21
265.388162586469
 31
0.0
  0
LINE
  5
50D4
330
4D7C
100
AcDbEntity
  8
ROUTE_T57CF3E1Z4N4
100
AcDbLine
 10
-14.80118734677814
 20
324.9401071618119
 30
0.0
 11
-14.80118734677814
 21
265.388162586469
 31
0.0
  0
LINE
  5
50D5
330
4D7C
100
AcDbEntity
  8
ROUTE_T57CF3E1Z4N4
100
AcDbLine
 10
50.72114786652187
 20
324.9401071618119
 30
0.0
 11
50.72114786652187
 21
265.388162586469
 31
0.0
  0
LINE
  5
50D6
330
4D7C
100
AcDbEntity
  8
ROUTE_T57CF3E1Z4N4
100
AcDbLine
 10
114.3442849577218
 20
324.9401071618119
 30
0.0
 11
114.3442849577218
 21
265.388162586469
 31
0.0
  0
LINE
  5
50D7
330
4D7C
100
AcDbEntity
  8
ROUTE_T57CF3E1Z4N4
100
AcDbLine
 10
177.9674220489218
 20
324.9401071618117
 30
0.0
 11
177.9674220489218
 21
265.3881625864689
 31
0.0
  0
LINE
  5
50D8
330
4D7C
100
AcDbEntity
  8
ROUTE_T57CF3E1Z4N4
100
AcDbLine
 10
241.5905591401219
 20
324.9401071618119
 30
0.0
 11
241.5905591401219
 21
265.388162586469
 31
0.0
  0
LINE
  5
50EC
330
4D7C
100
AcDbEntity
  8
0
100
AcDbLine
 10
295.2213937820218
 20
285.041425070769
 30
0.0
 11
290.0836779845218
 21
266.888162586469
 31
0.0
  0
LINE
  5
50ED
330
4D7C
100
AcDbEntity
  8
ROUTE_T57CF3E1Z4N4
100
AcDbLine
 10
307.436811167905
 20
322.694390758854
 30
0.0
 11
291.5269870532718
 21
266.479678887769
 31
0.0
  0
CIRCLE
  5
50F6
330
4D7C
100
AcDbEntity
  8
VBORE_T2Z5F0.8
  6
Continuous
100
AcDbCircle
 10
-23.99506890635581
 20
157.619442457698
 30
0.0
 40
2.500000000000057
  0
CIRCLE
  5
50F7
330
4D7C
100
AcDbEntity
  8
VBORE_T2Z5F0.8
  6
Continuous
100
AcDbCircle
 10
-9.995068906355812
 20
157.619442457698
 30
0.0
 40
2.5
  0
CIRCLE
  5
50F8
330
4D7C
100
AcDbEntity
  8
VBORE_T2Z5F0.8
  6
Continuous
100
AcDbCircle
 10
41.52726630694417
 20
157.619442457698
 30
0.0
 40
2.500000000000057
  0
CIRCLE
  5
50F9
330
4D7C
100
AcDbEntity
  8
VBORE_T2Z5F0.8
  6
Continuous
100
AcDbCircle
 10
55.52726630694417
 20
157.619442457698
 30
0.0
 40
2.500000000000057
  0
CIRCLE
  5
50FA
330
4D7C
100
AcDbEntity
  8
VBORE_T2Z5F0.8
  6
Continuous
100
AcDbCircle
 10
105.1504033981442
 20
157.619442457698
 30
0.0
 40
2.5
  0
CIRCLE
  5
50FB
330
4D7C
100
AcDbEntity
  8
VBORE_T2Z5F0.8
  6
Continuous
100
AcDbCircle
 10
119.1504033981442
 20
157.619442457698
 30
0.0
 40
2.5
  0
CIRCLE
  5
50FC
330
4D7C
100
AcDbEntity
  8
VBORE_T2Z5F0.8
  6
Continuous
100
AcDbCircle
 10
168.7735404893442
 20
157.619442457698
 30
0.0
 40
2.499999999999886
  0
CIRCLE
  5
50FD
330
4D7C
100
AcDbEntity
  8
VBORE_T2Z5F0.8
  6
Continuous
100
AcDbCircle
 10
182.7735404893441
 20
157.619442457698
 30
0.0
 40
2.499999999999886
  0
CIRCLE
  5
50FE
330
4D7C
100
AcDbEntity
  8
VBORE_T2Z5F0.8
  6
Continuous
100
AcDbCircle
 10
-93.79059989445585
 20
157.619442457698
 30
0.0
 40
2.5
  0
CIRCLE
  5
50FF
330
4D7C
100
AcDbEntity
  8
VBORE_T2Z5F0.8
  6
Continuous
100
AcDbCircle
 10
-79.7905998944558
 20
157.619442457698
 30
0.0
 40
2.5
  0
CIRCLE
  5
5100
330
4D7C
100
AcDbEntity
  8
VBORE_T2Z5F0.8
  6
Continuous
100
AcDbCircle
 10
232.4079435064441
 20
158.0164261379979
 30
0.0
 40
2.499999999999886
  0
CIRCLE
  5
5101
330
4D7C
100
AcDbEntity
  8
VBORE_T2Z5F0.8
  6
Continuous
100
AcDbCircle
 10
246.3854116545441
 20
157.222458777398
 30
0.0
 40
2.5
  0
CIRCLE
  5
5102
330
4D7C
100
AcDbEntity
  8
VBORE_T2Z5F0.8
  6
Continuous
100
AcDbCircle
 10
-147.6869327604558
 20
157.619442457698
 30
0.0
 40
2.5
  0
CIRCLE
  5
5103
330
4D7C
100
AcDbEntity
  8
VBORE_T2Z5F0.8
  6
Continuous
100
AcDbCircle
 10
-161.6869327604558
 20
157.619442457698
 30
0.0
 40
2.5
  0
LINE
  5
5104
330
4D7C
100
AcDbEntity
  8
0
  6
Continuous
100
AcDbLine
 10
47.02726630694417
 20
174.2075068099979
 30
0.0
 11
47.02726630694417
 21
143.619442457698
 31
0.0
  0
LWPOLYLINE
  5
5105
330
4D7C
100
AcDbEntity
  8
0
  6
Continuous
100
AcDbPolyline
 90
       25
 70
     0
 43
0.0
 10
-15.49506890636184
 20
176.7450634278476
 10
-12.88986639917718
 20
176.6419238450675
 10
-10.28467118236953
 20
176.5386046515398
 10
-7.679483509306035
 20
176.4350996051379
 10
-5.07430363335381
 20
176.3314024637349
 10
-2.469131807879974
 20
176.2275069852037
 10
0.1360317137483511
 20
176.1234069274175
 10
2.741186678164031
 20
176.0190960482496
 10
5.346332831999948
 20
175.9145681055728
 10
7.951469921888984
 20
175.8098168572603
 10
10.55659769446401
 20
175.7048360611854
 10
13.16171589635789
 20
175.599619475221
 10
15.76682427420352
 20
175.4941608572403
 10
18.37192257463376
 20
175.3884539651164
 10
20.97701054428151
 20
175.2824925567223
 10
23.58208792977962
 20
175.1762703899313
 10
26.18715447776097
 20
175.0697812226164
 10
28.79220993485846
 20
174.9630188126507
 10
31.39725404770493
 20
174.8559769179072
 10
34.00228656293328
 20
174.7486492962593
 10
36.60730722717639
 20
174.6410297055799
 10
39.21231578706713
 20
174.5331119037421
 10
41.81731198923837
 20
174.4248896486191
 10
44.42229558032298
 20
174.316356698084
 10
47.02726630695389
 20
174.2075068100098
  0
LINE
  5
5106
330
4D7C
100
AcDbEntity
  8
0
  6
Continuous
100
AcDbLine
 10
-15.49506890635581
 20
143.619442457698
 30
0.0
 11
-15.49506890635581
 21
176.7450634277979
 31
0.0
  0
ARC
  5
5107
330
4D7C
100
AcDbEntity
  8
0
  6
Continuous
100
AcDbCircle
 10
-16.99506890635581
 20
143.619442457698
 30
0.0
 40
1.5
100
AcDbArc
 50
180.0
 51
0.0
  0
LINE
  5
5108
330
4D7C
100
AcDbEntity
  8
0
  6
Continuous
100
AcDbLine
 10
-18.49506890635581
 20
176.863619653398
 30
0.0
 11
-18.49506890635581
 21
143.619442457698
 31
0.0
  0
LWPOLYLINE
  5
5109
330
4D7C
100
AcDbEntity
  8
0
  6
Continuous
100
AcDbPolyline
 90
       25
 70
     0
 43
0.0
 10
-85.29059989445912
 20
179.4667651828125
 10
-82.50743050028822
 20
179.3588721204648
 10
-79.72426049094857
 20
179.2509948404483
 10
-76.94109021439404
 20
179.1431244159073
 10
-74.15792001857842
 20
179.0352519199856
 10
-71.3747502514556
 20
178.9273684258273
 10
-68.59158126097935
 20
178.8194650065764
 10
-65.80841339510354
 20
178.7115327353769
 10
-63.02524700178203
 20
178.6035626853728
 10
-60.24208242896862
 20
178.4955459297082
 10
-57.45892002461714
 20
178.387473541527
 10
-54.67576013668146
 20
178.2793365939733
 10
-51.89260311311538
 20
178.1711261601911
 10
-49.10944930187277
 20
178.0628333133243
 10
-46.32629905090744
 20
177.954449126517
 10
-43.54315270817322
 20
177.8459646729133
 10
-40.76001062162397
 20
177.7373710256571
 10
-37.97687313921352
 20
177.6286592578925
 10
-35.19374060889568
 20
177.5198204427634
 10
-32.4106133786243
 20
177.4108456534139
 10
-29.62749179635323
 20
177.301725962988
 10
-26.84437621003629
 20
177.1924524446297
 10
-24.06126696762732
 20
177.083016171483
 10
-21.27816441708015
 20
176.9734082166919
 10
-18.49506890634859
 20
176.8636196534005
  0
LINE
  5
510A
330
4D7C
100
AcDbEntity
  8
0
  6
Continuous
100
AcDbLine
 10
-85.29059989445582
 20
143.619442457698
 30
0.0
 11
-85.29059989445582
 21
179.4667651827979
 31
0.0
  0
ARC
  5
510B
330
4D7C
100
AcDbEntity
  8
0
  6
Continuous
100
AcDbCircle
 10
-86.79059989445582
 20
143.619442457698
 30
0.0
 40
1.5
100
AcDbArc
 50
180.0
 51
0.0
  0
LINE
  5
510C
330
4D7C
100
AcDbEntity
  8
0
  6
Continuous
100
AcDbLine
 10
-88.29059989445582
 20
179.583093684398
 30
0.0
 11
-88.29059989445582
 21
143.619442457698
 31
0.0
  0
LWPOLYLINE
  5
510D
330
4D7C
100
AcDbEntity
  8
0
  6
Continuous
100
AcDbPolyline
 90
       25
 70
     0
 43
0.0
 10
-122.2258046526599
 20
180.9050031873937
 10
-120.8118513361012
 20
180.8495759238597
 10
-119.3978964647651
 20
180.7941885616318
 10
-117.9839400900142
 20
180.7388397825583
 10
-116.5699822632109
 20
180.6835282684879
 10
-115.1560230357178
 20
180.6282527012689
 10
-113.7420624588975
 20
180.5730117627499
 10
-112.3281005841125
 20
180.5178041347796
 10
-110.9141374627253
 20
180.4626284992061
 10
-109.5001731460983
 20
180.4074835378781
 10
-108.0862076855943
 20
180.3523679326442
 10
-106.6722411325758
 20
180.2972803653528
 10
-105.2582735384051
 20
180.2422195178524
 10
-103.8443049544449
 20
180.1871840719915
 10
-102.4303354320578
 20
180.1321727096186
 10
-101.0163650226062
 20
180.0771841125822
 10
-99.60239377745265
 20
180.0222169627308
 10
-98.18842174795972
 20
179.9672699419129
 10
-96.77444898548993
 20
179.9123417319771
 10
-95.36047554140583
 20
179.8574310147717
 10
-93.94650146706994
 20
179.8025364721453
 10
-92.53252681384477
 20
179.7476567859464
 10
-91.11855163309289
 20
179.6927906380237
 10
-89.70457597617681
 20
179.6379367102253
 10
-88.29059989445906
 20
179.5830936844
  0
LWPOLYLINE
  5
510E
330
4D7C
100
AcDbEntity
  8
0
  6
Continuous
100
AcDbPolyline
 90
       25
 70
     0
 43
0.0
 10
-153.1869327604314
 20
181.9892304213586
 10
-151.8967133258102
 20
181.9489858793139
 10
-150.6065081627567
 20
181.9083331629033
 10
-149.316317369774
 20
181.867269454884
 10
-148.0261410453655
 20
181.8257919380128
 10
-146.7359792880342
 20
181.7838977950467
 10
-145.4458321962834
 20
181.7415842087427
 10
-144.1556998686163
 20
181.6988483618576
 10
-142.865582403536
 20
181.6556874371484
 10
-141.5754798995457
 20
181.6120986173721
 10
-140.2853924551487
 20
181.5680790852856
 10
-138.995320168848
 20
181.5236260236459
 10
-137.7052631391469
 20
181.4787366152099
 10
-136.4152214645486
 20
181.4334080427345
 10
-135.1251952435561
 20
181.3876374889767
 10
-133.8351845746729
 20
181.3414221366935
 10
-132.5451895564019
 20
181.2947591686417
 10
-131.2552102872465
 20
181.2476457675783
 10
-129.9652468657097
 20
181.2000791162603
 10
-128.6752993902948
 20
181.1520563974445
 10
-127.3853679595049
 20
181.1035747938881
 10
-126.0954526718433
 20
181.0546314883479
 10
-124.8055536258132
 20
181.0052236635808
 10
-123.5156709199176
 20
180.9553485023437
 10
-122.2258046526598
 20
180.9050031873937
  0
LINE
  5
510F
330
4D7C
100
AcDbEntity
  8
0
  6
Continuous
100
AcDbLine
 10
-153.1869327604558
 20
143.619442457698
 30
0.0
 11
-153.1869327604558
 21
181.989230421398
 31
0.0
  0
ARC
  5
5110
330
4D7C
100
AcDbEntity
  8
0
  6
Continuous
100
AcDbCircle
 10
-154.6869327604558
 20
143.619442457698
 30
0.0
 40
1.5
100
AcDbArc
 50
180.0
 51
0.0
  0
LINE
  5
5111
330
4D7C
100
AcDbEntity
  8
0
  6
Continuous
100
AcDbLine
 10
-156.1869327604558
 20
182.0812354277979
 30
0.0
 11
-156.1869327604558
 21
143.619442457698
 31
0.0
  0
LWPOLYLINE
  5
5112
330
4D7C
100
AcDbEntity
  8
0
  6
Continuous
100
AcDbPolyline
 90
       25
 70
     0
 43
0.0
 10
-210.6376759547153
 20
183.3965358057081
 10
-208.3686054997192
 20
183.3542746469894
 10
-206.099555995401
 20
183.3109905052074
 10
-203.8305280175211
 20
183.2666741465462
 10
-201.5615221418394
 20
183.2213163371901
 10
-199.2925389441162
 20
183.1749078433233
 10
-197.0235790001115
 20
183.12743943113
 10
-194.7546428855855
 20
183.0789018667944
 10
-192.4857311762983
 20
183.0292859165008
 10
-190.2168444480099
 20
182.9785823464335
 10
-187.9479832764806
 20
182.9267819227766
 10
-185.6791482374703
 20
182.8738754117144
 10
-183.4103399067394
 20
182.819853579431
 10
-181.1415588600478
 20
182.7647071921108
 10
-178.8728056731556
 20
182.708427015938
 10
-176.6040809218231
 20
182.6510038170968
 10
-174.3353851818102
 20
182.5924283617715
 10
-172.0667190288772
 20
182.5326914161461
 10
-169.7980830387841
 20
182.471783746405
 10
-167.5294777872911
 20
182.4096961187324
 10
-165.2609038501583
 20
182.3464192993126
 10
-162.9923618031458
 20
182.2819440543298
 10
-160.7238522220137
 20
182.2162611499681
 10
-158.4553756825221
 20
182.1493613524119
 10
-156.1869327604311
 20
182.0812354278453
  0
LINE
  5
5113
330
4D7C
100
AcDbEntity
  8
0
  6
Continuous
100
AcDbLine
 10
-210.6376759547558
 20
143.619442457698
 30
0.0
 11
-210.6376759547558
 21
183.396535805698
 31
0.0
  0
ARC
  5
5114
330
4D7C
100
AcDbEntity
  8
0
  6
Continuous
100
AcDbCircle
 10
-212.1376759547558
 20
143.619442457698
 30
0.0
 40
1.5
100
AcDbArc
 50
180.0
 51
0.0
  0
LINE
  5
5115
330
4D7C
100
AcDbEntity
  8
0
  6
Continuous
100
AcDbLine
 10
-213.6376759547558
 20
183.4508457835979
 30
0.0
 11
-213.6376759547558
 21
143.619442457698
 31
0.0
  0
LWPOLYLINE
  5
5116
330
4D7C
100
AcDbEntity
  8
0
  6
Continuous
100
AcDbPolyline
 90
       25
 70
     0
 43
0.0
 10
-220.6019034474713
 20
183.5700785032708
 10
-220.3117241124151
 20
183.5653004590018
 10
-220.0215450538257
 20
183.5605059468352
 10
-219.7313662718238
 20
183.5556949595982
 10
-219.4411877665295
 20
183.5508674901184
 10
-219.1510095380634
 20
183.5460235312227
 10
-218.860831586546
 20
183.5411630757388
 10
-218.5706539120975
 20
183.5362861164938
 10
-218.2804765148384
 20
183.5313926463151
 10
-217.9902993948892
 20
183.5264826580299
 10
-217.7001225523703
 20
183.5215561444658
 10
-217.409945987402
 20
183.5166130984497
 10
-217.1197697001047
 20
183.5116535128092
 10
-216.8295936905991
 20
183.5066773803716
 10
-216.5394179590052
 20
183.5016846939641
 10
-216.2492425054438
 20
183.4966754464141
 10
-215.9590673300351
 20
183.4916496305489
 10
-215.6688924328996
 20
183.4866072391957
 10
-215.3787178141577
 20
183.481548265182
 10
-215.0885434739297
 20
183.476472701335
 10
-214.7983694123362
 20
183.4713805404821
 10
-214.5081956294975
 20
183.4662717754505
 10
-214.2180221255342
 20
183.4611463990676
 10
-213.9278489005664
 20
183.4560044041606
 10
-213.6376759547148
 20
183.450845783557
  0
ARC
  5
5117
330
4D7C
100
AcDbEntity
  8
0
  6
Continuous
100
AcDbCircle
 10
-215.6512000058559
 20
-23.59270750160204
 30
0.0
 40
207.2219326467561
100
AcDbArc
 50
91.36897383289998
 51
121.7755586237
  0
LINE
  5
5118
330
4D7C
100
AcDbEntity
  8
0
  6
Continuous
100
AcDbLine
 10
-296.6522774571558
 20
139.254427802898
 30
0.0
 11
-327.9375416914559
 21
148.056827577298
 31
0.0
  0
LINE
  5
5119
330
4D7C
100
AcDbEntity
  8
0
  6
Continuous
100
AcDbLine
 10
-297.4648066670558
 20
136.3665572581979
 30
0.0
 11
-296.6522774571558
 21
139.254427802898
 31
0.0
  0
LINE
  5
511A
330
4D7C
100
AcDbEntity
  8
0
  6
Continuous
100
AcDbLine
 10
-327.8781933499558
 20
144.9236461825979
 30
0.0
 11
-297.4648066670558
 21
136.3665572581979
 31
0.0
  0
LINE
  5
511B
330
4D7C
100
AcDbEntity
  8
0
  6
Continuous
100
AcDbLine
 10
240.8966775805442
 20
143.619442457698
 30
0.0
 11
240.8966775805442
 21
164.847819022598
 31
0.0
  0
ARC
  5
511C
330
4D7C
100
AcDbEntity
  8
0
  6
Continuous
100
AcDbCircle
 10
239.3966775805442
 20
143.619442457698
 30
0.0
 40
1.5
100
AcDbArc
 50
180.0
 51
0.0
  0
LINE
  5
511D
330
4D7C
100
AcDbEntity
  8
0
  6
Continuous
100
AcDbLine
 10
237.8966775805442
 20
165.0164010929979
 30
0.0
 11
237.8966775805442
 21
143.619442457698
 31
0.0
  0
LWPOLYLINE
  5
511E
330
4D7C
100
AcDbEntity
  8
0
  6
Continuous
100
AcDbPolyline
 90
       25
 70
     0
 43
0.0
 10
177.2735404893351
 20
168.2429564155921
 10
179.7998506836659
 20
168.1150203572039
 10
182.3261321625402
 20
167.9865447677809
 10
184.8523847371703
 20
167.8575261002109
 10
187.3786082187682
 20
167.7279608073811
 10
189.9048024185459
 20
167.5978453421792
 10
192.4309671477154
 20
167.4671761574926
 10
194.957102217489
 20
167.3359497062089
 10
197.4832074390785
 20
167.2041624412155
 10
200.0092826236961
 20
167.0718108153999
 10
202.5353275825537
 20
166.9388912816497
 10
205.0613421268636
 20
166.8054002928522
 10
207.5873260678378
 20
166.6713343018952
 10
210.1132792166882
 20
166.5366897616659
 10
212.6392013846269
 20
166.401463125052
 10
215.165092382866
 20
166.2656508449409
 10
217.6909520226176
 20
166.1292493742201
 10
220.2167801150938
 20
165.9922551657771
 10
222.7425764715064
 20
165.8546646724994
 10
225.2683409030678
 20
165.7164743472746
 10
227.7940732209898
 20
165.5776806429901
 10
230.3197732364845
 20
165.4382800125335
 10
232.8454407607641
 20
165.2982689087921
 10
235.3710756050405
 20
165.1576437846535
 10
237.8966775805259
 20
165.0164010930053
  0
LINE
  5
511F
330
4D7C
100
AcDbEntity
  8
0
  6
Continuous
100
AcDbLine
 10
177.2735404893441
 20
143.619442457698
 30
0.0
 11
177.2735404893441
 21
168.2429564155979
 31
0.0
  0
ARC
  5
5120
330
4D7C
100
AcDbEntity
  8
0
  6
Continuous
100
AcDbCircle
 10
175.7735404893441
 20
143.619442457698
 30
0.0
 40
1.500000000000114
100
AcDbArc
 50
180.0
 51
0.0
  0
LINE
  5
5121
330
4D7C
100
AcDbEntity
  8
0
  6
Continuous
100
AcDbLine
 10
174.2735404893442
 20
168.394183935498
 30
0.0
 11
174.2735404893442
 21
143.619442457698
 31
0.0
  0
LWPOLYLINE
  5
5122
330
4D7C
100
AcDbEntity
  8
0
  6
Continuous
100
AcDbPolyline
 90
       25
 70
     0
 43
0.0
 10
113.6504033981447
 20
171.2987165136944
 10
116.1766243896257
 20
171.1830576506824
 10
118.7028244969563
 20
171.0669628651921
 10
121.2290035211844
 20
170.9504280044261
 10
123.7551612633581
 20
170.8334489155871
 10
126.2812975245253
 20
170.7160214458777
 10
128.8074121057342
 20
170.5981414425005
 10
131.3335048080326
 20
170.4798047526583
 10
133.8595754324687
 20
170.3610072235534
 10
136.3856237800904
 20
170.2417447023885
 10
138.9116496519457
 20
170.1220130363666
 10
141.4376528490826
 20
170.00180807269
 10
143.9636331725492
 20
169.8811256585613
 10
146.4895904233934
 20
169.7599616411833
 10
149.0155244026633
 20
169.6383118677587
 10
151.5414349114068
 20
169.5161721854898
 10
154.067321750672
 20
169.3935384415796
 10
156.5931847215069
 20
169.2704064832304
 10
159.1190236249595
 20
169.146772157645
 10
161.6448382620778
 20
169.0226313120261
 10
164.1706284339098
 20
168.8979797935762
 10
166.6963939415035
 20
168.772813449498
 10
169.222134585907
 20
168.6471281269941
 10
171.7478501681682
 20
168.5209196732671
 10
174.2735404893352
 20
168.3941839355197
  0
LINE
  5
5123
330
4D7C
100
AcDbEntity
  8
0
  6
Continuous
100
AcDbLine
 10
113.6504033981442
 20
143.619442457698
 30
0.0
 11
113.6504033981442
 21
171.2987165136979
 31
0.0
  0
ARC
  5
5124
330
4D7C
100
AcDbEntity
  8
0
  6
Continuous
100
AcDbCircle
 10
112.1504033981442
 20
143.619442457698
 30
0.0
 40
1.5
100
AcDbArc
 50
180.0
 51
0.0
  0
LINE
  5
5125
330
4D7C
100
AcDbEntity
  8
0
  6
Continuous
100
AcDbLine
 10
110.6504033981442
 20
171.4355058455979
 30
0.0
 11
110.6504033981442
 21
143.619442457698
 31
0.0
  0
LWPOLYLINE
  5
5126
330
4D7C
100
AcDbEntity
  8
0
  6
Continuous
100
AcDbPolyline
 90
       25
 70
     0
 43
0.0
 10
50.0272663069419
 20
174.0817503158005
 10
52.55340622773389
 20
173.9755192526177
 10
55.07953241108997
 20
173.8689734788867
 10
57.6056446448187
 20
173.7621081335196
 10
60.13174271672863
 20
173.6549183554279
 10
62.6578264146283
 20
173.5473992835234
 10
65.18389552632627
 20
173.4395460567179
 10
67.70994983963108
 20
173.3313538139234
 10
70.2359891423513
 20
173.2228176940515
 10
72.76201322229545
 20
173.1139328360138
 10
75.2880218672721
 20
173.0046943787225
 10
77.8140148650898
 20
172.8950974610891
 10
80.33999200355709
 20
172.7851372220254
 10
82.8659530704825
 20
172.6748088004433
 10
85.3918978536746
 20
172.5641073352544
 10
87.91782614094197
 20
172.4530279653707
 10
90.44373772009311
 20
172.3415658297038
 10
92.9696323789366
 20
172.2297160671656
 10
95.49550990528095
 20
172.1174738166678
 10
98.02137008693475
 20
172.0048342171223
 10
100.5472127117065
 20
171.8917924074407
 10
103.0730375674049
 20
171.7783435265349
 10
105.5988444418383
 20
171.6644827133167
 10
108.1246331228153
 20
171.5502051066979
 10
110.6504033981446
 20
171.4355058455902
  0
LINE
  5
5127
330
4D7C
100
AcDbEntity
  8
0
  6
Continuous
100
AcDbLine
 10
50.02726630694417
 20
143.619442457698
 30
0.0
 11
50.02726630694417
 21
174.0817503157979
 31
0.0
  0
ARC
  5
5128
330
4D7C
100
AcDbEntity
  8
0
  6
Continuous
100
AcDbCircle
 10
48.52726630694417
 20
143.619442457698
 30
0.0
 40
1.5
100
AcDbArc
 50
180.0
 51
0.0
  0
LWPOLYLINE
  5
5129
330
4D7C
100
AcDbEntity
  8
0
  6
Continuous
100
AcDbPolyline
 90
      158
 70
     0
 43
0.0
 10
240.896677580526
 20
164.8478190225587
 10
243.0691201205341
 20
164.725189555312
 10
245.2415352923482
 20
164.6020960960496
 10
247.4139229809997
 20
164.4785366956262
 10
249.5862830715196
 20
164.3545094048964
 10
251.7586154489393
 20
164.2300122747149
 10
253.9309199982901
 20
164.1050433559359
 10
256.1031966046029
 20
163.9796006994144
 10
258.2754451529092
 20
163.853682356005
 10
260.4476655282403
 20
163.727286376562
 10
262.6198576156273
 20
163.6004108119402
 10
264.7920213001014
 20
163.4730537129942
 10
266.9641564666939
 20
163.3452131305784
 10
269.136263000436
 20
163.2168871155476
 10
271.308340786359
 20
163.0880737187565
 10
273.480389709494
 20
162.9587709910595
 10
275.6524096548725
 20
162.8289769833111
 10
277.8244005075255
 20
162.6986897463662
 10
279.9963621524842
 20
162.5679073310791
 10
282.1682944747799
 20
162.4366277883046
 10
284.340197359444
 20
162.3048491688972
 10
286.5120706915076
 20
162.1725695237116
 10
288.6839143560018
 20
162.0397869036023
 10
290.855728237958
 20
161.9064993594239
 10
293.0275122224441
 20
161.7727049419979
 10
287.8897964249442
 20
143.619442457698
 10
290.7764145624441
 20
142.8024750602979
 10
286.5170631874713
 20
127.7527668687891
 10
282.8599041181918
 20
127.5095915792206
 10
279.202639231178
 20
127.2683000537782
 10
275.5452685604537
 20
127.0288916867657
 10
271.8877921400436
 20
126.7913658724872
 10
268.2302100039713
 20
126.5557220052465
 10
264.572522186261
 20
126.3219594793474
 10
260.914728720937
 20
126.0900776890938
 10
257.2568296420233
 20
125.8600760287896
 10
253.5988249835439
 20
125.6319538927387
 10
249.940714779523
 20
125.4057106752449
 10
246.2824990639848
 20
125.1813457706122
 10
242.6241778709532
 20
124.9588585731444
 10
238.9657512344525
 20
124.7382484771455
 10
235.3072191885067
 20
124.5195148769192
 10
231.64858176714
 20
124.3026571667694
 10
227.9898390043764
 20
124.0876747410001
 10
224.33099093424
 20
123.8745669939153
 10
220.672037590755
 20
123.6633333198185
 10
217.0129790079454
 20
123.4539731130138
 10
213.3538152198354
 20
123.2464857678051
 10
209.6945462604491
 20
123.0408706784962
 10
206.0351721638105
 20
122.8371272393911
 10
202.3756929639438
 20
122.6352548447935
 10
198.7161086948731
 20
122.4352528890075
 10
195.0564193906226
 20
122.2371207663368
 10
191.3966250852162
 20
122.0408578710854
 10
187.7367258126781
 20
121.846463597557
 10
184.0767216070325
 20
121.6539373400557
 10
180.4166125023033
 20
121.4632784928853
 10
176.7563985325148
 20
121.2744864503496
 10
173.0960797316911
 20
121.0875606067527
 10
169.4356561338561
 20
120.9025003563981
 10
165.7751301441864
 20
120.7193054187803
 10
162.1145051852126
 20
120.5379753663116
 10
158.4537828169898
 20
120.358509372673
 10
154.7929645995736
 20
120.1809066115457
 10
151.1320520930194
 20
120.0051662566107
 10
147.4710468573824
 20
119.8312874815495
 10
143.8099504527183
 20
119.6592694600427
 10
140.1487644390822
 20
119.4891113657719
 10
136.4874903765296
 20
119.320812372418
 10
132.8261298251159
 20
119.1543716536622
 10
129.1646843448963
 20
118.9897883831855
 10
125.5031554959265
 20
118.8270617346692
 10
121.8415448382617
 20
118.6661908817943
 10
118.1798539319573
 20
118.5071749982421
 10
114.5180843370686
 20
118.3500132576935
 10
110.8562376136512
 20
118.1947048338298
 10
107.1943153217603
 20
118.0412489003321
 10
103.5323190214513
 20
117.8896446308814
 10
99.87025027277969
 20
117.739891199159
 10
96.20811063580081
 20
117.591987778846
 10
92.54590167057
 20
117.4459335436234
 10
88.8836249371427
 20
117.3017276671725
 10
85.22128199557424
 20
117.1593693231744
 10
81.55887440592005
 20
117.0188576853101
 10
77.89640372823548
 20
116.8801919272608
 10
74.23387152257595
 20
116.7433712227077
 10
70.57127934899685
 20
116.6083947453319
 10
66.90862876755351
 20
116.4752616688144
 10
63.24592133830136
 20
116.3439711668365
 10
59.58315862129577
 20
116.2145224130792
 10
55.92034217659211
 20
116.0869145812237
 10
52.25747356424581
 20
115.9611468449511
 10
48.59453992159961
 20
115.8372180455239
 10
44.93152874058151
 20
115.7151267218298
 10
41.26844211312468
 20
115.5948715939877
 10
37.60528213116231
 20
115.4764513821166
 10
33.94205088662757
 20
115.3598648063353
 10
30.27875047145363
 20
115.245110586763
 10
26.61538297757368
 20
115.1321874435185
 10
22.95195049692088
 20
115.0210940967208
 10
19.28845512142842
 20
114.9118292664887
 10
15.62489894302948
 20
114.8043916729414
 10
11.96128405365723
 20
114.6987800361977
 10
8.297612545244839
 20
114.5949930763766
 10
4.633886509725501
 20
114.493029513597
 10
0.9701080390323646
 20
114.3928880679779
 10
-2.693720774901361
 20
114.2945674596383
 10
-6.357597840142509
 20
114.198066408697
 10
-10.02152106475791
 20
114.103383635273
 10
-13.68548835681439
 20
114.0105178594854
 10
-17.34949762437876
 20
113.919467801453
 10
-21.01354677551784
 20
113.8302321812948
 10
-24.67763371829847
 20
113.7428097191297
 10
-28.34175636078745
 20
113.6571991350767
 10
-32.00591261105163
 20
113.5733991492547
 10
-35.67010037715782
 20
113.4914084817828
 10
-39.33431756717285
 20
113.4112258527798
 10
-42.99856208916353
 20
113.3328499823647
 10
-46.66283185119669
 20
113.2562795906565
 10
-50.32712476133915
 20
113.1815133977741
 10
-53.99143872765774
 20
113.1085501238364
 10
-57.65577165821928
 20
113.0373884889624
 10
-61.32012146109059
 20
112.9680272132711
 10
-64.9844860443385
 20
112.9004650168814
 10
-68.64886450502381
 20
112.8346998506956
 10
-72.31325732507982
 20
112.7707293003708
 10
-75.97766448988199
 20
112.7085515381576
 10
-79.64208598480589
 20
112.6481647363065
 10
-83.30652179522703
 20
112.5895670670685
 10
-86.9709719065209
 20
112.5327567026941
 10
-90.63543630406305
 20
112.4777318154342
 10
-94.29991497322897
 20
112.4244905775393
 10
-97.96440789939416
 20
112.3730311612602
 10
-101.6289150679342
 20
112.3233517388476
 10
-105.2934364642246
 20
112.2754504825521
 10
-108.9579720736407
 20
112.2293255646245
 10
-112.6225218815583
 20
112.1849751573155
 10
-116.2870858733528
 20
112.1423974328758
 10
-119.9516640343996
 20
112.1015905635562
 10
-123.6162563500743
 20
112.0625527216071
 10
-127.2808628036762
 20
112.0252818197868
 10
-130.9454833772653
 20
111.9897756159802
 10
-134.6101180543582
 20
111.9560320501283
 10
-138.2747668184717
 20
111.9240490621722
 10
-141.9394296529956
 20
111.8938245761919
 10
-145.6041065408121
 20
111.8653564528233
 10
-149.2687914934899
 20
111.8378962655475
 10
-152.9335049554077
 20
111.8139991267864
 10
-156.5983355315841
 20
111.8047387789839
 10
-160.2633466315102
 20
111.8180400599776
 10
-163.928540093866
 20
111.8541327660433
 10
-167.5939177573309
 20
111.9132466934566
 10
-171.2594814605845
 20
111.9956116384933
 10
-174.9252330423066
 20
112.101457397429
 10
-178.5911743411766
 20
112.2310137665397
 10
-182.2573071958744
 20
112.3845105421009
 42
-0.0695959577354985
 10
-323.3698313682279
 20
140.0022416067233
 42
-0.2537091165679298
 10
-327.8781933499205
 20
144.9236461825898
 42
-0.2537091165679298
  0
LINE
  5
512A
330
4D7C
100
AcDbEntity
  8
ROUTE_T57CF3E1Z4N4
  6
Continuous
100
AcDbLine
 10
-297.0585420621059
 20
137.8104925305479
 30
0.0
 11
-337.9700414454289
 21
149.3213230047655
 31
0.0
  0
LINE
  5
5134
330
4D7C
100
AcDbEntity
  8
ROUTE_T57CF3E1Z4N4
100
AcDbLine
 10
-212.1376759547558
 20
194.490925307764
 30
0.0
 11
-212.1376759547558
 21
142.119442457698
 31
0.0
  0
LINE
  5
5135
330
4D7C
100
AcDbEntity
  8
ROUTE_T57CF3E1Z4N4
100
AcDbLine
 10
-154.6869327604558
 20
192.811474959617
 30
0.0
 11
-154.6869327604558
 21
142.119442457698
 31
0.0
  0
LINE
  5
5136
330
4D7C
100
AcDbEntity
  8
ROUTE_T57CF3E1Z4N4
100
AcDbLine
 10
-86.79059989445582
 20
190.5711601075927
 30
0.0
 11
-86.79059989445582
 21
142.119442457698
 31
0.0
  0
LINE
  5
5137
330
4D7C
100
AcDbEntity
  8
ROUTE_T57CF3E1Z4N4
100
AcDbLine
 10
-16.99506890635581
 20
187.9795422430652
 30
0.0
 11
-16.99506890635581
 21
142.119442457698
 31
0.0
  0
LINE
  5
5138
330
4D7C
100
AcDbEntity
  8
ROUTE_T57CF3E1Z4N4
100
AcDbLine
 10
48.5272663069442
 20
185.2801809834709
 30
0.0
 11
48.5272663069442
 21
142.119442457698
 31
0.0
  0
LINE
  5
5139
330
4D7C
100
AcDbEntity
  8
ROUTE_T57CF3E1Z4N4
100
AcDbLine
 10
112.1504033981442
 20
182.4120491336798
 30
0.0
 11
112.1504033981442
 21
142.119442457698
 31
0.0
  0
LINE
  5
513A
330
4D7C
100
AcDbEntity
  8
ROUTE_T57CF3E1Z4N4
100
AcDbLine
 10
175.7735404893441
 20
179.3004099896825
 30
0.0
 11
175.7735404893441
 21
142.1194424576979
 31
0.0
  0
LINE
  5
513B
330
4D7C
100
AcDbEntity
  8
ROUTE_T57CF3E1Z4N4
100
AcDbLine
 10
239.3966775805442
 20
175.945127057581
 30
0.0
 11
239.3966775805442
 21
142.119442457698
 31
0.0
  0
LINE
  5
513C
330
4D7C
100
AcDbEntity
  8
0
100
AcDbLine
 10
293.0275122224441
 20
161.7727049419979
 30
0.0
 11
287.8897964249442
 21
143.619442457698
 31
0.0
  0
LINE
  5
513D
330
4D7C
100
AcDbEntity
  8
ROUTE_T57CF3E1Z4N4
100
AcDbLine
 10
297.6672408178442
 20
172.658236904004
 30
0.0
 11
289.3331054936941
 21
143.2109587589979
 31
0.0
  0
LINE
  5
5DB0
330
4D7C
100
AcDbEntity
  8
0
  6
Continuous
100
AcDbLine
 10
450.1787452787713
 20
188.2863748375055
 30
0.0
 11
450.5061100793605
 21
188.2896045833631
 31
0.0
  0
LINE
  5
5DB1
330
4D7C
100
AcDbEntity
  8
0
  6
Continuous
100
AcDbLine
 10
450.5061100793605
 20
188.2896045833631
 30
0.0
 11
450.8334739504628
 21
188.2929083862749
 31
0.0
  0
LWPOLYLINE
  5
6683
330
4D7C
100
AcDbEntity
  8
0
  6
Continuous
100
AcDbPolyline
 90
       11
 70
     0
 43
0.0
 10
420.1729057999759
 20
188.2178294863244
 10
450.1787452787758
 20
188.2863748375244
 42
0.0422184518161122
 10
506.179360356244
 20
193.4995981871199
 42
0.0095089825741695
 10
519.344308815738
 20
196.112711777322
 10
525.090720962337
 20
197.4176503978039
 42
0.0871864188751848
 10
526.5836413947897
 20
198.0725780477814
 42
0.6590407709287552
 10
525.5159548999602
 20
205.0163739955331
 42
0.0757661560702954
 10
360.2302930823355
 20
231.042721760609
 10
-78.05560264972924
 20
217.1427112468855
 10
-80.41925444992407
 20
208.7914640440244
 42
0.00447809691536
 10
28.8308666998675
 20
200.7942727554255
  0
ARC
  5
6733
330
4D7C
100
AcDbEntity
  8
0
100
AcDbCircle
 10
421.0113706024694
 20
6309.130710538413
 30
0.0
 40
6120.913297671895
100
AcDbArc
 50
266.3548035943515
 51
266.9230308792825
  0
ARC
  5
6734
330
4D7C
100
AcDbEntity
  8
0
100
AcDbCircle
 10
421.617840062885
 20
6321.475585422283
 30
0.0
 40
6133.272961053452
100
AcDbArc
 50
266.9518770823486
 51
267.5186435355674
  0
ARC
  5
6735
330
4D7C
100
AcDbEntity
  8
0
100
AcDbCircle
 10
421.4704354036701
 20
6320.658200809876
 30
0.0
 40
6132.449989187329
100
AcDbArc
 50
267.5479916852157
 51
268.1323347366672
  0
ARC
  5
6736
330
4D7C
100
AcDbEntity
  8
0
100
AcDbCircle
 10
420.9783070159231
 20
6307.151159295654
 30
0.0
 40
6118.934082381186
100
AcDbArc
 50
268.1611723631959
 51
268.7866269358606
  0
ARC
  5
6737
330
4D7C
100
AcDbEntity
  8
0
100
AcDbCircle
 10
420.865228258874
 20
6301.645199251237
 30
0.0
 40
6113.42696886959
100
AcDbArc
 50
268.8149646030632
 51
269.4230319731168
  0
ARC
  5
6738
330
4D7C
100
AcDbEntity
  8
0
100
AcDbCircle
 10
425.1327896325544
 20
7122.392811879647
 30
0.0
 40
6934.178663092306
100
AcDbArc
 50
269.4810046635988
 51
269.9305382674405
  0
LWPOLYLINE
  5
6763
330
4D7C
100
AcDbEntity
  8
0
100
AcDbPolyline
 90
        4
 70
     1
 43
0.0
 10
-4.077356698589085
 20
216.1090703383016
 10
-4.077356698589085
 20
228.1090703383016
 10
7.922643301410915
 20
228.1090703383016
 10
7.922643301410915
 20
216.1090703383016
  0
LWPOLYLINE
  5
6764
330
4D7C
100
AcDbEntity
  8
0
100
AcDbPolyline
 90
        4
 70
     1
 43
0.0
 10
-3.528886308694666
 20
194.1702547425249
 10
-3.528886308694666
 20
206.1702547425249
 10
8.471113691305334
 20
206.1702547425249
 10
8.471113691305334
 20
194.1702547425249
  0
LWPOLYLINE
  5
6765
330
4D7C
100
AcDbEntity
  8
0
100
AcDbPolyline
 90
        4
 70
     1
 43
0.0
 10
427.5688401483167
 20
179.9100246052701
 10
427.5688401483167
 20
191.9100246052701
 10
439.5688401483167
 20
191.9100246052701
 10
439.5688401483167
 20
179.9100246052701
  0
LWPOLYLINE
  5
6766
330
4D7C
100
AcDbEntity
  8
0
100
AcDbPolyline
 90
        4
 70
     1
 43
0.0
 10
299.2267689130232
 20
225.981537356401
 10
299.2267689130232
 20
237.981537356401
 10
311.2267689130232
 20
237.981537356401
 10
311.2267689130232
 20
225.981537356401
  0
LWPOLYLINE
  5
6767
330
4D7C
100
AcDbEntity
  8
0
100
AcDbPolyline
 90
        4
 70
     1
 43
0.0
 10
491.7398757659635
 20
210.6243664393574
 10
491.7398757659635
 20
222.6243664393574
 10
503.7398757659635
 20
222.6243664393574
 10
503.7398757659635
 20
210.6243664393574
  0
LWPOLYLINE
  5
6768
330
4D7C
100
AcDbEntity
  8
0
100
AcDbPolyline
 90
        4
 70
     1
 43
0.0
 10
190.0811613240343
 20
185.3947285042142
 10
190.0811613240343
 20
197.3947285042142
 10
202.0811613240343
 20
197.3947285042142
 10
202.0811613240343
 20
185.3947285042142
  0
LWPOLYLINE
  5
6769
330
4D7C
100
AcDbEntity
  8
ROUTE_T58CF3E1Z4
  6
Continuous
100
AcDbPolyline
 90
        4
 70
     0
 43
0.0
 10
-4.077356698589199
 20
222.6404768078363
 10
-80.45891952525629
 20
220.2180750452335
 10
-84.4924271831689
 20
205.9668983097044
 42
0.0033176384448024
 10
-3.528886308698702
 20
199.8004154824366
 42
0.0004914471422846
  0
LWPOLYLINE
  5
676C
330
4D7C
100
AcDbEntity
  8
ROUTE_T58CF3E1Z4
  6
Continuous
100
AcDbPolyline
 90
        2
 70
     0
 43
0.0
 10
299.2267689130231
 20
232.2596102910512
 10
7.922643301410858
 20
223.0210506017661
  0
LWPOLYLINE
  5
676D
330
4D7C
100
AcDbEntity
  8
ROUTE_T58CF3E1Z4
  6
Continuous
100
AcDbPolyline
 90
        8
 70
     0
 43
0.0
 10
439.5688401483167
 20
185.1121293470766
 10
450.1956101780709
 20
185.1364051446035
 42
0.0422253414719796
 10
506.734216878364
 20
190.3988507868665
 42
0.0095179109083328
 10
520.0290938780842
 20
193.0380181043186
 10
525.8099659620524
 20
194.3507821473399
 42
0.0866564277931554
 10
528.2914676941639
 20
195.4254934815391
 42
0.6515560186069429
 10
526.3992903560188
 20
208.0408675905876
 42
0.0105755685394199
 10
503.7398757659635
 20
214.7076352414645
 42
0.0055503974549218
  0
LWPOLYLINE
  5
676E
330
4D7C
100
AcDbEntity
  8
ROUTE_T58CF3E1Z4
  6
Continuous
100
AcDbPolyline
 90
        3
 70
     0
 43
0.0
 10
491.7398757659631
 20
217.8215262081534
 42
0.0595594943963099
 10
360.1880480098525
 20
234.1929657301091
 10
311.2267689130233
 20
232.640184084981
  0
LWPOLYLINE
  5
677F
330
4D7C
100
AcDbEntity
  8
ROUTE_T58CF3E1Z4
100
AcDbPolyline
 90
       10
 70
     0
 43
0.0
 10
202.0811613240309
 20
188.9817927030062
 42
0.0019341117465771
 10
221.5042630003931
 20
188.3176397182192
 10
224.5323371296867
 20
188.2196763763905
 42
0.0027290671788227
 10
291.3384495772139
 20
186.4398428628692
 10
294.3664964394021
 20
186.3764490691183
 42
0.0026532006460302
 10
359.2723896371675
 20
185.37835269063
 10
362.2940950961282
 20
185.348752755398
 42
0.0019614628868122
 10
416.7224188456092
 20
185.0692468853413
 10
420.1801016424069
 20
185.0678377054063
 10
427.5688401483167
 20
185.0847165424796
  0
LWPOLYLINE
  5
67E8
330
4D7C
100
AcDbEntity
  8
ROUTE_T58CF3E1Z4
100
AcDbPolyline
 90
        8
 70
     0
 43
0.0
 10
8.47111369129783
 20
198.9783476081884
 42
0.0008254007829236
 10
28.62904500926572
 20
197.6507448002121
 10
31.65708627235875
 20
197.4570841766663
 42
0.0024793643358313
 10
92.2873783956702
 20
193.8963069493257
 10
95.3154514934231
 20
193.7342798384816
 42
0.0024729902159497
 10
155.9456808644732
 20
190.8063674028626
 10
158.9737824324159
 20
190.6759223286044
 42
0.0012685252769936
 10
190.0811613240335
 20
189.4229067474753
  0
LWPOLYLINE
  5
680A
330
4D7C
100
AcDbEntity
  8
ROUTE_T57CF3E1Z4N4
100
AcDbPolyline
 90
        2
 70
     0
 43
0.0
 10
30.34411147112596
 20
189.0427217606244
 10
30.34411147112596
 20
204.0427217606244
  0
LWPOLYLINE
  5
680B
330
4D7C
100
AcDbEntity
  8
ROUTE_T57CF3E1Z4N4
100
AcDbPolyline
 90
        2
 70
     0
 43
0.0
 10
93.96970708307595
 20
189.0427217606244
 10
93.96970708307595
 20
204.0427217606244
  0
LWPOLYLINE
  5
680C
330
4D7C
100
AcDbEntity
  8
ROUTE_T57CF3E1Z4N4
100
AcDbPolyline
 90
        2
 70
     0
 43
0.0
 10
157.595302695076
 20
189.0427217606244
 10
157.595302695076
 20
204.0427217606244
  0
LWPOLYLINE
  5
680D
330
4D7C
100
AcDbEntity
  8
ROUTE_T57CF3E1Z4N4
100
AcDbPolyline
 90
        2
 70
     0
 43
0.0
 10
223.1201698178259
 20
183.9186350971124
 10
223.1201698178259
 20
204.0427217606244
  0
LWPOLYLINE
  5
680E
330
4D7C
100
AcDbEntity
  8
ROUTE_T57CF3E1Z4N4
100
AcDbPolyline
 90
        2
 70
     0
 43
0.0
 10
292.9183978398759
 20
180.503902327261
 10
292.9183978398759
 20
204.0427217606244
  0
LWPOLYLINE
  5
680F
330
4D7C
100
AcDbEntity
  8
ROUTE_T57CF3E1Z4N4
100
AcDbPolyline
 90
        2
 70
     0
 43
0.0
 10
360.8133687699759
 20
178.2707064101357
 10
360.8133687699759
 20
204.0427217606244
  0
LWPOLYLINE
  5
6810
330
4D7C
100
AcDbEntity
  8
ROUTE_T57CF3E1Z4N4
100
AcDbPolyline
 90
        2
 70
     0
 43
0.0
 10
418.4495717514259
 20
174.9009043346244
 10
418.4495717514259
 20
204.0427217606244
  0
ARC
  5
6814
330
4D7C
100
AcDbEntity
  8
0
100
AcDbCircle
 10
432.9968150208094
 20
6999.183671353012
 30
0.0
 40
6934.178663092306
100
AcDbArc
 50
269.4810046635988
 51
269.9305382674405
  0
ARC
  5
6815
330
4D7C
100
AcDbEntity
  8
0
100
AcDbCircle
 10
428.729253647129
 20
6178.436058724602
 30
0.0
 40
6113.42696886959
100
AcDbArc
 50
268.8149646030632
 51
269.4230319731168
  0
ARC
  5
6816
330
4D7C
100
AcDbEntity
  8
0
100
AcDbCircle
 10
428.8423324041781
 20
6183.942018769019
 30
0.0
 40
6118.934082381186
100
AcDbArc
 50
268.1611723631959
 51
268.7866269358606
  0
LINE
  5
6817
330
4D7C
100
AcDbEntity
  8
0
  6
Continuous
100
AcDbLine
 10
428.0369311882309
 20
80.8335812339896
 30
0.0
 11
428.0369311882309
 21
65.00868895968961
 31
0.0
  0
LINE
  5
6818
330
4D7C
100
AcDbEntity
  8
0
  6
Continuous
100
AcDbLine
 10
424.5902630911309
 20
80.8335812339896
 30
0.0
 11
428.0369311882309
 21
80.8335812339896
 31
0.0
  0
LINE
  5
6819
330
4D7C
100
AcDbEntity
  8
0
  6
Continuous
100
AcDbLine
 10
424.5902630911309
 20
65.01010404378962
 30
0.0
 11
424.5902630911309
 21
80.8335812339896
 31
0.0
  0
LINE
  5
681A
330
4D7C
100
AcDbEntity
  8
0
  6
Continuous
100
AcDbLine
 10
458.0427706670263
 20
65.07723431087072
 30
0.0
 11
458.3701354676155
 21
65.08046405672829
 31
0.0
  0
LINE
  5
681B
330
4D7C
100
AcDbEntity
  8
0
  6
Continuous
100
AcDbLine
 10
458.3701354676155
 20
65.08046405672829
 30
0.0
 11
458.6974993387178
 21
65.08376785964015
 31
0.0
  0
LWPOLYLINE
  5
681C
330
4D7C
100
AcDbEntity
  8
0
100
AcDbPolyline
 90
        4
 70
     1
 43
0.0
 10
435.4328655365717
 20
56.70088407863528
 10
435.4328655365717
 20
68.70088407863528
 10
447.4328655365717
 20
68.70088407863528
 10
447.4328655365717
 20
56.70088407863528
  0
LWPOLYLINE
  5
681D
330
4D7C
100
AcDbEntity
  8
0
100
AcDbPolyline
 90
        4
 70
     1
 43
0.0
 10
307.0907943012783
 20
102.7723968297663
 10
307.0907943012783
 20
114.7723968297663
 10
319.0907943012783
 20
114.7723968297663
 10
319.0907943012783
 20
102.7723968297663
  0
LWPOLYLINE
  5
681E
330
4D7C
100
AcDbEntity
  8
0
100
AcDbPolyline
 90
        4
 70
     1
 43
0.0
 10
499.6039011542185
 20
87.41522591272263
 10
499.6039011542185
 20
99.41522591272263
 10
511.6039011542185
 20
99.41522591272263
 10
511.6039011542185
 20
87.41522591272263
  0
LWPOLYLINE
  5
681F
330
4D7C
100
AcDbEntity
  8
ROUTE_T58CF3E1Z4
  6
Continuous
100
AcDbPolyline
 90
        2
 70
     0
 43
0.0
 10
307.0907943012782
 20
109.0504697644164
 10
15.78666868966586
 20
99.81191007513132
  0
LWPOLYLINE
  5
6820
330
4D7C
100
AcDbEntity
  8
ROUTE_T58CF3E1Z4
  6
Continuous
100
AcDbPolyline
 90
        3
 70
     0
 43
0.0
 10
499.6039011542181
 20
94.61238568151859
 42
0.0595594943963099
 10
368.0520733981075
 20
110.9838252034743
 10
319.0907943012783
 20
109.4310435583462
  0
LWPOLYLINE
  5
6821
330
4D7C
100
AcDbEntity
  8
ROUTE_T58CF3E1Z4
  6
Continuous
100
AcDbPolyline
 90
        8
 70
     0
 43
0.0
 10
447.4328655365717
 20
61.90298882044181
 10
458.0596355663259
 20
61.92726461796875
 42
0.0422253414719796
 10
514.598242266619
 20
67.18971026023169
 42
0.0095179109083328
 10
527.8931192663391
 20
69.82887757768378
 10
533.6739913503073
 20
71.14164162070512
 42
0.0866564277931554
 10
536.1554930824188
 20
72.21635295490435
 42
0.6515560186069429
 10
534.2633157442738
 20
84.8317270639528
 42
0.0105755685394199
 10
511.6039011542185
 20
91.49849471482966
 42
0.0055503974549218
  0
LWPOLYLINE
  5
6822
330
4D7C
100
AcDbEntity
  8
ROUTE_T58CF3E1Z4
100
AcDbPolyline
 90
       10
 70
     0
 43
0.0
 10
209.9451867122859
 20
65.77265217637145
 42
0.0019341117465771
 10
229.3682883886481
 20
65.1084991915844
 10
232.3963625179417
 20
65.01053584975566
 42
0.0027290671788227
 10
299.2024749654689
 20
63.23070233623443
 10
302.2305218276571
 20
63.16730854248348
 42
0.0026532006460302
 10
367.1364150254225
 20
62.16921216399518
 10
370.1581204843832
 20
62.13961222876318
 42
0.0019614628868122
 10
424.5864442338643
 20
61.86010635870647
 10
428.0441270306619
 20
61.85869717877148
 10
435.4328655365717
 20
61.87557601584484
  0
LWPOLYLINE
  5
6823
330
4D7C
100
AcDbEntity
  8
ROUTE_T57CF3E1Z4N4
100
AcDbPolyline
 90
        2
 70
     0
 43
0.0
 10
300.7824232281309
 20
57.29476180062616
 10
300.7824232281309
 20
80.8335812339896
  0
LWPOLYLINE
  5
6824
330
4D7C
100
AcDbEntity
  8
ROUTE_T57CF3E1Z4N4
100
AcDbPolyline
 90
        2
 70
     0
 43
0.0
 10
368.6773941582309
 20
55.06156588350095
 10
368.6773941582309
 20
80.8335812339896
  0
LWPOLYLINE
  5
6825
330
4D7C
100
AcDbEntity
  8
ROUTE_T57CF3E1Z4N4
100
AcDbPolyline
 90
        2
 70
     0
 43
0.0
 10
426.3135971396809
 20
51.69176380798964
 10
426.3135971396809
 20
80.8335812339896
  0
LWPOLYLINE
  5
6826
330
4D7C
100
AcDbEntity
  8
ROUTE_T58CF3E1Z4
100
AcDbPolyline
 90
        8
 70
     0
 43
0.0
 10
16.33513907955283
 20
75.76920708155362
 42
0.0008254007829236
 10
36.49307039752073
 20
74.44160427357733
 10
39.52111166061376
 20
74.24794365003149
 42
0.0024793643358313
 10
100.1514037839252
 20
70.68716642269086
 10
103.1794768816781
 20
70.5251393118468
 42
0.0024729902159497
 10
163.8097062527282
 20
67.59722687622784
 10
166.8378078206709
 20
67.46678180196963
 42
0.0012685252769936
 10
197.9451867122885
 20
66.21376622084048
  0
LWPOLYLINE
  5
6827
330
4D7C
100
AcDbEntity
  8
ROUTE_T58CF3E1Z4
  6
Continuous
100
AcDbPolyline
 90
        4
 70
     0
 43
0.0
 10
3.786668689665802
 20
99.43133628120151
 10
-72.59489413700129
 20
97.00893451859869
 10
-76.6284017949139
 20
82.75775778306965
 42
0.0033176384448024
 10
4.335139079556299
 20
76.59127495580182
 42
0.0004914471422846
  0
LWPOLYLINE
  5
6828
330
4D7C
100
AcDbEntity
  8
ROUTE_T57CF3E1Z4N4
100
AcDbPolyline
 90
        2
 70
     0
 43
0.0
 10
38.20813685938096
 20
65.8335812339896
 10
38.20813685938096
 20
80.8335812339896
  0
LWPOLYLINE
  5
6829
330
4D7C
100
AcDbEntity
  8
ROUTE_T57CF3E1Z4N4
100
AcDbPolyline
 90
        2
 70
     0
 43
0.0
 10
101.8337324713309
 20
65.8335812339896
 10
101.8337324713309
 20
80.8335812339896
  0
LWPOLYLINE
  5
682A
330
4D7C
100
AcDbEntity
  8
ROUTE_T57CF3E1Z4N4
100
AcDbPolyline
 90
        2
 70
     0
 43
0.0
 10
165.4593280833309
 20
65.8335812339896
 10
165.4593280833309
 20
80.8335812339896
  0
LWPOLYLINE
  5
682B
330
4D7C
100
AcDbEntity
  8
ROUTE_T57CF3E1Z4N4
100
AcDbPolyline
 90
        2
 70
     0
 43
0.0
 10
230.9841952060809
 20
60.70949457047763
 10
230.9841952060809
 20
80.8335812339896
  0
LINE
  5
682F
330
4D7C
100
AcDbEntity
  8
ROUTE_T57CF3E1Z4N4
100
AcDbLine
 10
740.7868864998227
 20
89.004335188819
 30
0.0
 11
715.7789554236217
 21
89.004335188819
 31
0.0
  0
LINE
  5
6831
330
4D7C
100
AcDbEntity
  8
ROUTE_T57CF3E1Z4N4
100
AcDbLine
 10
740.7868864998227
 20
21.104796870819
 30
0.0
 11
715.7789554236217
 21
21.104796870819
 31
0.0
  0
LINE
  5
6832
330
4D7C
100
AcDbEntity
  8
ROUTE_T57CF3E1Z4N4
100
AcDbLine
 10
740.7868864998227
 20
-48.694029232281
 30
0.0
 11
715.7789554236217
 21
-48.694029232281
 31
0.0
  0
LINE
  5
6833
330
4D7C
100
AcDbEntity
  8
ROUTE_T57CF3E1Z4N4
100
AcDbLine
 10
740.7868864998227
 20
-114.219457818881
 30
0.0
 11
715.7789554236217
 21
-114.219457818881
 31
0.0
  0
LINE
  5
6834
330
4D7C
100
AcDbEntity
  8
ROUTE_T57CF3E1Z4N4
100
AcDbLine
 10
740.7868864998227
 20
-177.845598620331
 30
0.0
 11
715.7789554236217
 21
-177.845598620331
 31
0.0
  0
LINE
  5
6835
330
4D7C
100
AcDbEntity
  8
ROUTE_T57CF3E1Z4N4
100
AcDbLine
 10
780.7710243474207
 20
89.004335188819
 30
0.0
 11
805.7789554236217
 21
89.004335188819
 31
0.0
  0
LINE
  5
6836
330
4D7C
100
AcDbEntity
  8
ROUTE_T57CF3E1Z4N4
100
AcDbLine
 10
780.7710243474207
 20
21.104796870819
 30
0.0
 11
805.7789554236217
 21
21.104796870819
 31
0.0
  0
LINE
  5
6837
330
4D7C
100
AcDbEntity
  8
ROUTE_T57CF3E1Z4N4
100
AcDbLine
 10
780.7710243474207
 20
-48.694029232281
 30
0.0
 11
805.7789554236217
 21
-48.694029232281
 31
0.0
  0
LINE
  5
6838
330
4D7C
100
AcDbEntity
  8
ROUTE_T57CF3E1Z4N4
100
AcDbLine
 10
780.7710243474207
 20
-114.219457818881
 30
0.0
 11
805.7789554236217
 21
-114.219457818881
 31
0.0
  0
LINE
  5
6839
330
4D7C
100
AcDbEntity
  8
ROUTE_T57CF3E1Z4N4
100
AcDbLine
 10
780.7710243474207
 20
-177.845598620331
 30
0.0
 11
805.7789554236217
 21
-177.845598620331
 31
0.0
  0
LINE
  5
683D
330
4D7C
100
AcDbEntity
  8
ROUTE_T57CF3E1Z4N4
100
AcDbLine
 10
633.3561167484686
 20
-25.1476917205209
 30
0.0
 11
595.6998871558466
 21
-25.1476917205209
 31
0.0
  0
LINE
  5
683E
330
4D7C
100
AcDbEntity
  8
ROUTE_T57CF3E1Z4N4
100
AcDbLine
 10
633.3561167484686
 20
-198.2476917205209
 30
0.0
 11
595.6998871558466
 21
-198.2476917205209
 31
0.0
  0
LWPOLYLINE
  5
6842
330
4D7C
100
AcDbEntity
  8
ROUTE_T57CF3E1Z4N4
100
AcDbPolyline
 90
        2
 70
     0
 43
0.0
 10
762.1521657037467
 20
184.673072896219
 10
734.6724806231218
 20
184.673072896219
  0
LWPOLYLINE
  5
6843
330
4D7C
100
AcDbEntity
  8
ROUTE_T57CF3E1Z4N4
100
AcDbPolyline
 90
        2
 70
     0
 43
0.0
 10
615.4674568798351
 20
184.673072896219
 10
644.6724806231218
 20
184.673072896219
  0
LWPOLYLINE
  5
6847
330
4D7C
100
AcDbEntity
  8
ROUTE_T57CF3E1Z4N4
100
AcDbPolyline
 90
        2
 70
     0
 43
0.0
 10
551.6889213158217
 20
220.8164589608842
 10
551.6889213158217
 20
255.752942896169
  0
LWPOLYLINE
  5
6848
330
4D7C
100
AcDbEntity
  8
ROUTE_T57CF3E1Z4N4
100
AcDbPolyline
 90
        2
 70
     0
 43
0.0
 10
816.6070023652219
 20
220.8164589608842
 10
816.6070023652219
 20
255.752942896169
  0
LWPOLYLINE
  5
6849
330
4D7C
100
AcDbEntity
  8
ROUTE_T57CF3E1Z4N4
100
AcDbPolyline
 90
        2
 70
     0
 43
0.0
 10
597.5979618405217
 20
220.8164589608842
 10
597.5979618405217
 20
255.752942896169
  0
LWPOLYLINE
  5
684A
330
4D7C
100
AcDbEntity
  8
ROUTE_T57CF3E1Z4N4
100
AcDbPolyline
 90
        2
 70
     0
 43
0.0
 10
770.6979618405218
 20
220.8164589608842
 10
770.6979618405218
 20
255.752942896169
  0
LWPOLYLINE
  5
684E
330
4D7C
100
AcDbEntity
  8
ROUTE_T57CF3E1Z4N4
100
AcDbPolyline
 90
        2
 70
     0
 43
0.0
 10
192.9924259165415
 20
-3.317437415525518
 10
192.9924259165415
 20
16.28459306035887
  0
LWPOLYLINE
  5
684F
330
4D7C
100
AcDbEntity
  8
ROUTE_T57CF3E1Z4N4
100
AcDbPolyline
 90
        2
 70
     0
 43
0.0
 10
19.89242591654164
 20
-3.317437415525518
 10
19.89242591654164
 20
16.28459306035887
  0
LWPOLYLINE
  5
6850
330
4D7C
100
AcDbEntity
  8
ROUTE_T57CF3E1Z4N4
100
AcDbPolyline
 90
        2
 70
     0
 43
0.0
 10
17.22750698584161
 20
-139.3307647898265
 10
17.22750698584161
 20
-111.4036143546119
  0
LWPOLYLINE
  5
6851
330
4D7C
100
AcDbEntity
  8
ROUTE_T57CF3E1Z4N4
100
AcDbPolyline
 90
        2
 70
     0
 43
0.0
 10
190.3275069858416
 20
-139.3307647898265
 10
190.3275069858416
 20
-111.4036143546119
  0
LWPOLYLINE
  5
6852
330
4D7C
100
AcDbEntity
  8
ROUTE_T57CF3E1Z4N4
100
AcDbPolyline
 90
        2
 70
     0
 43
0.0
 10
-26.3385403875584
 20
-139.3307647898265
 10
-26.3385403875584
 20
-111.4036143546119
  0
LWPOLYLINE
  5
6853
330
4D7C
100
AcDbEntity
  8
ROUTE_T57CF3E1Z4N4
100
AcDbPolyline
 90
        2
 70
     0
 43
0.0
 10
233.8935543592916
 20
-139.3307647898265
 10
233.8935543592916
 20
-111.4036143546119
  0
LWPOLYLINE
  5
6854
330
4D7C
100
AcDbEntity
  8
ROUTE_T57CF3E1Z4N4
100
AcDbPolyline
 90
        2
 70
     0
 43
0.0
 10
-58.66275153007814
 20
-169.2518675408456
 10
-58.66275153007814
 20
-141.324717105631
  0
LWPOLYLINE
  5
6855
330
4D7C
100
AcDbEntity
  8
ROUTE_T57CF3E1Z4N4
100
AcDbPolyline
 90
        2
 70
     0
 43
0.0
 10
-322.3927100711782
 20
-169.2518675408456
 10
-322.3927100711782
 20
-141.324717105631
  0
LWPOLYLINE
  5
6856
330
4D7C
100
AcDbEntity
  8
ROUTE_T57CF3E1Z4N4
100
AcDbPolyline
 90
        2
 70
     0
 43
0.0
 10
-277.0777308006782
 20
-176.3408446578028
 10
-277.0777308006782
 20
-141.324717105631
  0
LWPOLYLINE
  5
6857
330
4D7C
100
AcDbEntity
  8
ROUTE_T57CF3E1Z4N4
100
AcDbPolyline
 90
        2
 70
     0
 43
0.0
 10
-103.9777308006782
 20
-176.3408446578028
 10
-103.9777308006782
 20
-141.324717105631
  0
LWPOLYLINE
  5
6858
330
4D7C
100
AcDbEntity
  8
ROUTE_T57CF3E1Z4N4
100
AcDbPolyline
 90
        2
 70
     0
 43
0.0
 10
-100.5296305069782
 20
-267.3637083657028
 10
-100.5296305069782
 20
-232.347580813531
  0
LWPOLYLINE
  5
6859
330
4D7C
100
AcDbEntity
  8
ROUTE_T57CF3E1Z4N4
100
AcDbPolyline
 90
        2
 70
     0
 43
0.0
 10
-273.6296305069782
 20
-267.3637083657028
 10
-273.6296305069782
 20
-232.347580813531
  0
LWPOLYLINE
  5
685A
330
4D7C
100
AcDbEntity
  8
ROUTE_T57CF3E1Z4N4
100
AcDbPolyline
 90
        2
 70
     0
 43
0.0
 10
-317.7550021625282
 20
-267.3637083657028
 10
-317.7550021625282
 20
-232.347580813531
  0
LWPOLYLINE
  5
685B
330
4D7C
100
AcDbEntity
  8
ROUTE_T57CF3E1Z4N4
100
AcDbPolyline
 90
        2
 70
     0
 43
0.0
 10
-56.40425885137813
 20
-267.3637083657028
 10
-56.40425885137813
 20
-232.347580813531
  0
LWPOLYLINE
  5
685C
330
4D7C
100
AcDbEntity
  8
ROUTE_T57CF3E1Z4N4
100
AcDbPolyline
 90
        2
 70
     0
 43
0.0
 10
283.3810566276197
 20
-272.3166409453403
 10
283.3810566276197
 20
-237.3005133931685
  0
LWPOLYLINE
  5
685D
330
4D7C
100
AcDbEntity
  8
ROUTE_T57CF3E1Z4N4
100
AcDbPolyline
 90
        2
 70
     0
 43
0.0
 10
456.4810566276196
 20
-272.3166409453403
 10
456.4810566276196
 20
-237.3005133931685
  0
LWPOLYLINE
  5
685E
330
4D7C
100
AcDbEntity
  8
ROUTE_T57CF3E1Z4N4
100
AcDbPolyline
 90
        2
 70
     0
 43
0.0
 10
501.1824488125197
 20
-272.3166409453403
 10
501.1824488125197
 20
-237.3005133931685
  0
LWPOLYLINE
  5
685F
330
4D7C
100
AcDbEntity
  8
ROUTE_T57CF3E1Z4N4
100
AcDbPolyline
 90
        2
 70
     0
 43
0.0
 10
238.6796644427197
 20
-272.3166409453403
 10
238.6796644427197
 20
-237.3005133931685
  0
LWPOLYLINE
  5
6860
330
4D7C
100
AcDbEntity
  8
ROUTE_T57CF3E1Z4N4
100
AcDbPolyline
 90
        2
 70
     0
 43
0.0
 10
323.2191097434218
 20
-92.92067677864554
 10
323.2191097434218
 20
-64.99352634343097
  0
LWPOLYLINE
  5
6861
330
4D7C
100
AcDbEntity
  8
ROUTE_T57CF3E1Z4N4
100
AcDbPolyline
 90
        2
 70
     0
 43
0.0
 10
259.5959726522218
 20
-92.92067677864554
 10
259.5959726522218
 20
-64.99352634343097
  0
LWPOLYLINE
  5
6865
330
4D7C
100
AcDbEntity
  8
ROUTE_T57CF3E1Z4N4
100
AcDbPolyline
 90
        2
 70
     0
 43
0.0
 10
374.5903394430709
 20
-85.33237706325161
 10
380.4622265426718
 20
-64.58504264473098
  0
LWPOLYLINE
  5
6866
330
4D7C
100
AcDbEntity
  8
ROUTE_T57CF3E1Z4N4
100
AcDbPolyline
 90
        2
 70
     0
 43
0.0
 10
-275.1118359075941
 20
-80.61535719526535
 10
-275.1118359075941
 20
-45.59922964309354
  0
LWPOLYLINE
  5
6867
330
4D7C
100
AcDbEntity
  8
ROUTE_T57CF3E1Z4N4
100
AcDbPolyline
 90
        2
 70
     0
 43
0.0
 10
-317.2684081204758
 20
-79.99022350997794
 10
-317.2684081204758
 20
-44.97409595780613
  0
LWPOLYLINE
  5
6868
330
4D7C
100
AcDbEntity
  8
ROUTE_T57CF3E1Z4N4
100
AcDbPolyline
 90
        2
 70
     0
 43
0.0
 10
-102.0118359206037
 20
-80.61757984554623
 10
-102.0118359206037
 20
-45.60145229337442
  0
LWPOLYLINE
  5
6869
330
4D7C
100
AcDbEntity
  8
ROUTE_T57CF3E1Z4N4
100
AcDbPolyline
 90
        2
 70
     0
 43
0.0
 10
-59.96728748384008
 20
-80.61773788552969
 10
-59.96728748384008
 20
-45.60161033335788
  0
LWPOLYLINE
  5
686D
330
4D7C
100
AcDbEntity
  8
ROUTE_T57CF3E1Z4N4
100
AcDbPolyline
 90
        2
 70
     0
 43
0.0
 10
98.34447166204163
 20
-103.4571410626155
 10
98.34447166204163
 20
-56.32189654541193
  0
LINE
  5
686E
330
4D7C
100
AcDbEntity
  8
ROUTE_T57CF3E1Z4N4
100
AcDbLine
 10
106.4424259165417
 20
60.85703787145118
 30
0.0
 11
106.4424259165417
 21
42.26655410545885
 31
0.0
  0
LWPOLYLINE
  5
6872
330
4D7C
100
AcDbEntity
  8
ROUTE_T57CF3E1Z4N4
100
AcDbPolyline
 90
        2
 70
     0
 43
0.0
 10
110.2493191976416
 20
-257.857025274316
 10
110.2493191976416
 20
-196.685857457762
  0
LWPOLYLINE
  5
6876
330
4D7C
100
AcDbEntity
  8
ROUTE_T57CF3E1Z4N4
100
AcDbPolyline
 90
        2
 70
     0
 43
0.0
 10
-332.3995022034491
 20
69.240880475419
 10
-320.4858206403782
 20
69.240880475419
  0
LWPOLYLINE
  5
6877
330
4D7C
100
AcDbEntity
  8
ROUTE_T57CF3E1Z4N4
100
AcDbPolyline
 90
        2
 70
     0
 43
0.0
 10
-218.5721390774073
 20
69.240880475419
 10
-230.4858206404782
 20
69.240880475419
  0
LWPOLYLINE
  5
6878
330
4D7C
100
AcDbEntity
  8
ROUTE_T57CF3E1Z4N4
100
AcDbPolyline
 90
        2
 70
     0
 43
0.0
 10
-47.42499859260732
 20
60.47991398406901
 10
-59.33868015567822
 20
60.47991398406901
  0
LWPOLYLINE
  5
6879
330
4D7C
100
AcDbEntity
  8
ROUTE_T57CF3E1Z4N4
100
AcDbPolyline
 90
        2
 70
     0
 43
0.0
 10
-161.2523617186491
 20
60.47991398406901
 10
-149.3386801555782
 20
60.47991398406901
  0
LWPOLYLINE
  5
6880
330
4D7C
100
AcDbEntity
  8
ROUTE_T57CF3E1Z4N4
100
AcDbPolyline
 90
        2
 70
     0
 43
0.0
 10
274.5653903682507
 20
-156.6436067361296
 10
294.0704799678339
 20
-156.6436067361296
  0
LWPOLYLINE
  5
6881
330
4D7C
100
AcDbEntity
  8
ROUTE_T57CF3E1Z4N4
100
AcDbPolyline
 90
        2
 70
     0
 43
0.0
 10
404.1455128452451
 20
-156.6436067361296
 10
384.0704799678339
 20
-156.6436067361296
  0
LWPOLYLINE
  5
6893
330
4D7C
100
AcDbEntity
  8
ROUTE_T57CF3E1Z4N4
100
AcDbPolyline
 90
        5
 70
     0
 43
0.0
 10
57.75358991973106
 20
-194.4012648694425
 10
66.75358991973107
 20
-194.4012648694425
 10
66.75358991973107
 20
-203.4012648694425
 10
57.75358991973106
 20
-203.4012648694425
 10
57.75358991973106
 20
-194.4012648694425
  0
LWPOLYLINE
  5
6896
330
4D7C
100
AcDbEntity
  8
ROUTE_T57CF3E1Z4N4
100
AcDbPolyline
 90
        5
 70
     0
 43
0.0
 10
153.7450323051311
 20
-194.4016151641425
 10
162.7450323051311
 20
-194.4016151641425
 10
162.7450323051311
 20
-203.4016151641425
 10
153.7450323051311
 20
-203.4016151641425
 10
153.7450323051311
 20
-194.4016151641425
  0
LINE
  5
689A
330
4D7C
100
AcDbEntity
  8
ROUTE_T57CF3E1Z4N4
100
AcDbLine
 10
11.79421380334162
 20
-10.88934839842896
 30
0.0
 11
11.79421380334162
 21
-31.32278926826194
 31
0.0
  0
LINE
  5
689B
330
4D7C
100
AcDbEntity
  8
ROUTE_T57CF3E1Z4N4
100
AcDbLine
 10
184.8942137941416
 20
-10.88756295282893
 30
0.0
 11
184.8942137941416
 21
-31.32100382266191
 31
0.0
  0
LINE
  5
689C
330
4D7C
100
AcDbEntity
  8
ROUTE_T57CF3E1Z4N4
100
AcDbLine
 10
196.7994104277416
 20
-147.6966432642464
 30
0.0
 11
196.7994104277416
 21
-171.6861732984119
 31
0.0
  0
LINE
  5
689D
330
4D7C
100
AcDbEntity
  8
ROUTE_T57CF3E1Z4N4
100
AcDbLine
 10
23.69941042894163
 20
-147.2473363208449
 30
0.0
 11
23.69941042894163
 21
-171.6855416170119
 31
0.0
  0
LINE
  5
689E
330
4D7C
100
AcDbEntity
  8
ROUTE_T57CF3E1Z4N4
100
AcDbLine
 10
-19.30731226910839
 20
-147.2471793794949
 30
0.0
 11
-19.30731226910839
 21
-171.6853846756619
 31
0.0
  0
LINE
  5
689F
330
4D7C
100
AcDbEntity
  8
ROUTE_T57CF3E1Z4N4
100
AcDbLine
 10
239.8061331258416
 20
-147.2481249435949
 30
0.0
 11
239.8061331258416
 21
-171.6863302397619
 31
0.0
  0
LINE
  5
68A6
330
4D7C
100
AcDbEntity
  8
ROUTE_T57CF3E1Z4N4
100
AcDbLine
 10
740.7868864998227
 20
143.457649055719
 30
0.0
 11
715.7789554236217
 21
143.457649055719
 31
0.0
  0
LINE
  5
68A7
330
4D7C
100
AcDbEntity
  8
ROUTE_T57CF3E1Z4N4
100
AcDbLine
 10
780.7710243474207
 20
143.457649055719
 30
0.0
 11
805.7789554236217
 21
143.457649055719
 31
0.0
  0
LWPOLYLINE
  5
68B0
330
4D7C
100
AcDbEntity
  8
ROUTE_T57CF3E1Z4N4
100
AcDbPolyline
 90
        4
 70
     0
 43
0.0
 10
-132.5655270856782
 20
-116.292160118331
 10
-120.5655270856782
 20
-116.292160118331
 10
-120.5655270856782
 20
-104.292160118331
 10
-110.0437481055781
 20
-104.292160118331
  0
LWPOLYLINE
  5
68D1
330
4D7C
100
AcDbEntity
  8
ROUTE_T57CF3E1Z4N4
100
AcDbPolyline
 90
        4
 70
     0
 43
0.0
 10
-248.4899345155781
 20
-116.292160118331
 10
-260.4899345155782
 20
-116.292160118331
 10
-260.4899345155782
 20
-104.292160118331
 10
-271.0117134956782
 20
-104.292160118331
  0
LWPOLYLINE
  5
68D2
330
4D7C
100
AcDbEntity
  8
ROUTE_T57CF3E1Z4N4
100
AcDbPolyline
 90
        4
 70
     0
 43
0.0
 10
148.5215138849416
 20
-88.31824949781193
 10
160.5215138849416
 20
-88.31824949781193
 10
160.5215138849416
 20
-76.31824949781193
 10
171.0432928650416
 20
-76.31824949781193
  0
LWPOLYLINE
  5
68D3
330
4D7C
100
AcDbEntity
  8
ROUTE_T57CF3E1Z4N4
100
AcDbPolyline
 90
        4
 70
     0
 43
0.0
 10
59.03350008674167
 20
-88.31824949781193
 10
47.03350008674167
 20
-88.31824949781193
 10
47.03350008674167
 20
-76.31824949781193
 10
36.51172110664163
 20
-76.31824949781193
  0
LWPOLYLINE
  5
68D7
330
4D7C
100
AcDbEntity
  8
ROUTE_T57CF3E1Z4N4
100
AcDbPolyline
 90
        4
 70
     0
 43
0.0
 10
-138.1083243875782
 20
-208.631335503531
 10
-126.1083243875782
 20
-208.631335503531
 10
-126.1083243875782
 20
-196.631335503531
 10
-115.5865454074782
 20
-196.631335503531
  0
LWPOLYLINE
  5
68D8
330
4D7C
100
AcDbEntity
  8
ROUTE_T57CF3E1Z4N4
100
AcDbPolyline
 90
        4
 70
     0
 43
0.0
 10
-236.0509366263781
 20
-208.631335503531
 10
-248.0509366263781
 20
-208.631335503531
 10
-248.0509366263781
 20
-196.631335503531
 10
-258.5727156064781
 20
-196.631335503531
  0
LWPOLYLINE
  5
68DC
330
4D7C
100
AcDbEntity
  8
ROUTE_T57CF3E1Z4N4
100
AcDbPolyline
 90
        4
 70
     0
 43
0.0
 10
423.2558500038195
 20
-212.9475737683685
 10
435.2558500038195
 20
-212.9475737683685
 10
435.2558500038195
 20
-200.9475737683685
 10
445.7776289839196
 20
-200.9475737683685
  0
LWPOLYLINE
  5
68DD
330
4D7C
100
AcDbEntity
  8
ROUTE_T57CF3E1Z4N4
100
AcDbPolyline
 90
        4
 70
     0
 43
0.0
 10
316.6062632514199
 20
-212.9475737683685
 10
304.6062632514199
 20
-212.9475737683685
 10
304.6062632514199
 20
-200.9475737683685
 10
294.0844842713199
 20
-200.9475737683685
  0
LWPOLYLINE
  5
690D
330
4D7C
100
AcDbEntity
  8
ROUTE_T57CF3E1Z4N4
100
AcDbPolyline
 90
        2
 70
     0
 43
0.0
 10
-125.0510730318152
 20
-64.40808879463098
 10
-142.8831212308782
 20
-64.40808879463098
  0
LWPOLYLINE
  5
690E
330
4D7C
100
AcDbEntity
  8
ROUTE_T57CF3E1Z4N4
100
AcDbPolyline
 90
        2
 70
     0
 43
0.0
 10
-250.7151694300412
 20
-64.40808879463098
 10
-232.8831212309782
 20
-64.40808879463098
  0
LWPOLYLINE
  5
6943
330
4D7C
100
AcDbEntity
  8
ROUTE_T57CF3E1Z4N4
100
AcDbPolyline
 90
        2
 70
     0
 43
0.0
 10
-237.431209631796
 20
-178.464960954381
 10
-230.4274965981782
 20
-178.464960954381
  0
LWPOLYLINE
  5
6944
330
4D7C
100
AcDbEntity
  8
ROUTE_T57CF3E1Z4N4
100
AcDbPolyline
 90
        2
 70
     0
 43
0.0
 10
-133.4237835645604
 20
-178.464960954381
 10
-140.4274965981782
 20
-178.464960954381
  0
LWPOLYLINE
  5
694E
330
4D7C
100
AcDbEntity
  8
ROUTE_T57CF3E1Z4N4
100
AcDbPolyline
 90
        2
 70
     0
 43
0.0
 10
356.7579710044065
 20
260.139253289319
 10
375.3892459566218
 20
260.139253289319
  0
LWPOLYLINE
  5
694F
330
4D7C
100
AcDbEntity
  8
ROUTE_T57CF3E1Z4N4
100
AcDbPolyline
 90
        2
 70
     0
 43
0.0
 10
454.0205209089371
 20
260.139253289319
 10
435.3892459567218
 20
260.139253289319
  0
LWPOLYLINE
  5
69C2
330
4D7C
100
AcDbEntity
  8
0
100
AcDbPolyline
 90
        4
 70
     1
 43
0.0
 10
-249.382308443286
 20
112.4101244329764
 10
-249.382308443286
 20
124.4101244329764
 10
-237.382308443286
 20
124.4101244329764
 10
-237.382308443286
 20
112.4101244329764
  0
LWPOLYLINE
  5
6A66
330
4D7C
100
AcDbEntity
  8
ROUTE_T58CF3E1Z4
  6
Continuous
100
AcDbPolyline
 90
       43
 70
     0
 43
0.0
 10
-237.3823084432867
 20
115.155860595573
 42
0.0264905491619063
 10
-182.4086550017544
 20
109.2380875337245
 42
0.015029349593864
 10
-141.9142055799408
 20
108.74392548004
 42
0.0147409761993147
 10
288.9429646530705
 20
124.7571163232988
 10
294.6651793740635
 20
144.9756083373813
 10
291.7785612365691
 20
145.7925757347797
 10
297.1230310999219
 20
164.6763692517518
 42
0.0014982507600264
 10
238.0725645048997
 20
168.161486750003
 42
0.0014387278877936
 10
174.4314046274985
 20
171.5402257206661
 42
0.00118984614457
 10
110.7933026594124
 20
174.5822628748392
 42
0.0009130148114268
 10
47.15877573221223
 20
177.3547604176965
 42
0.0005902214566884
 10
-18.37090313467547
 20
180.0111715371968
 42
0.0001783996432874
 10
-88.16851457218809
 20
182.7307269499142
 42
0.00223729034565
 10
-156.0923745279588
 20
185.2298158604654
 42
0.0031265805107903
 10
-213.5816849055835
 20
186.6003481255811
 10
-213.8719480765354
 20
186.6055083501838
 10
-214.1623017129303
 20
186.6106535420592
 10
-214.4526555505256
 20
186.615782103701
 10
-214.7430095896806
 20
186.6208940423039
 10
-215.0333638295479
 20
186.6259893650408
 10
-215.3237182706933
 20
186.6310680791103
 10
-215.6140729125669
 20
186.6361301916905
 10
-215.904427755294
 20
186.6411757099719
 10
-216.1947827984056
 20
186.6462046411345
 10
-216.4851380423193
 20
186.6512169923736
 10
-216.7754934862068
 20
186.656212770863
 10
-217.0658491307075
 20
186.6611919838017
 10
-217.3562049750706
 20
186.6661546383651
 10
-217.6465610196854
 20
186.6711007417478
 10
-217.936917263888
 20
186.6760303011264
 10
-218.2272737080368
 20
186.6809433236953
 10
-218.5176303518272
 20
186.6858398166373
 10
-218.807987195067
 20
186.690719787137
 10
-219.0983442375998
 20
186.6955832423798
 10
-219.3887014796144
 20
186.7004301895572
 10
-219.6790589206088
 20
186.7052606358482
 10
-219.9694165607597
 20
186.7100745884442
 10
-220.2626465489636
 20
186.7149195098968
 10
-220.6466825266269
 20
186.7199055293713
 42
0.1334946043757452
 10
-326.4316288341947
 20
155.2481341262319
 42
0.2387504657373543
 10
-331.2052467754799
 20
147.4179851703566
 42
0.3417744143183677
 10
-324.3972369414154
 20
137.0245012237847
 42
0.0370920771998978
 10
-249.5929416139566
 20
117.2779416945989
 42
0.0370920771998978
  0
LWPOLYLINE
  5
6B4B
330
4D7C
100
AcDbEntity
  8
ROUTE_T58CF3E1Z4
  6
Continuous
100
AcDbPolyline
 90
       43
 70
     0
 43
0.0
 10
-235.188426883709
 20
238.4245807243441
 42
0.0264905491619063
 10
-180.2147734421767
 20
232.5068076624956
 42
0.015029349593864
 10
-139.7203240203631
 20
232.0126456088111
 42
0.0147409761993147
 10
291.1368462126482
 20
248.0258364520698
 10
296.8590609336412
 20
268.2443284661524
 10
293.9724427961468
 20
269.0612958635508
 10
299.3169126594996
 20
287.9450893805229
 42
0.0014982507600264
 10
240.2664460644773
 20
291.430206878774
 42
0.0014387278877936
 10
176.6252861870761
 20
294.8089458494371
 42
0.00118984614457
 10
112.9871842189901
 20
297.8509830036103
 42
0.0009130148114268
 10
49.35265729178991
 20
300.6234805464676
 42
0.0005902214566884
 10
-16.1770215750978
 20
303.2798916659679
 42
0.0001783996432874
 10
-85.97463301261041
 20
305.9994470786853
 42
0.00223729034565
 10
-153.8984929683811
 20
308.4985359892364
 42
0.0031265805107903
 10
-211.3878033460058
 20
309.8690682543522
 10
-211.6780665169577
 20
309.8742284789549
 10
-211.9684201533526
 20
309.8793736708303
 10
-212.2587739909479
 20
309.8845022324721
 10
-212.549128030103
 20
309.8896141710749
 10
-212.8394822699703
 20
309.8947094938119
 10
-213.1298367111156
 20
309.8997882078813
 10
-213.4201913529892
 20
309.9048503204616
 10
-213.7105461957163
 20
309.909895838743
 10
-214.0009012388279
 20
309.9149247699056
 10
-214.2912564827416
 20
309.9199371211446
 10
-214.5816119266291
 20
309.924932899634
 10
-214.8719675711298
 20
309.9299121125728
 10
-215.1623234154929
 20
309.9348747671362
 10
-215.4526794601077
 20
309.9398208705189
 10
-215.7430357043104
 20
309.9447504298975
 10
-216.0333921484591
 20
309.9496634524664
 10
-216.3237487922495
 20
309.9545599454083
 10
-216.6141056354893
 20
309.959439915908
 10
-216.9044626780221
 20
309.9643033711509
 10
-217.1948199200367
 20
309.9691503183282
 10
-217.4851773610311
 20
309.9739807646193
 10
-217.775535001182
 20
309.9787947172152
 10
-218.0687649893859
 20
309.9836396386679
 10
-218.4528009670492
 20
309.9886256581424
 42
0.1334946043757452
 10
-324.237747274617
 20
278.516854255003
 42
0.2387504657373543
 10
-329.0113652159022
 20
270.6867052991277
 42
0.3417744143183677
 10
-322.2033553818377
 20
260.2932213525557
 42
0.0370920771998978
 10
-247.3990600543789
 20
240.54666182337
 42
0.0370920771998978
  0
LWPOLYLINE
  5
6B52
330
4D7C
100
AcDbEntity
  8
0
  6
Continuous
100
AcDbPolyline
 90
       23
 70
     0
 43
0.0
 10
-295.6358748533781
 20
90.03953034983658
 10
-295.6358748533782
 20
35.577893435269
 42
0.414213562373095
 10
-285.6358748533781
 20
25.577893435269
 10
-265.3357664274782
 20
25.577893435269
 42
0.414213562373095
 10
-255.3357664274782
 20
35.577893435269
 10
-255.3357664274782
 20
79.74137619066903
 10
-220.6932939451782
 20
79.74137619066903
 10
-220.6874834716781
 20
70.74095129186901
 10
-230.4858206403782
 20
70.74095129186901
 10
-230.4858206403782
 20
67.740809658969
 10
-234.9149756021928
 20
67.740809658969
 42
0.414213562373095
 10
-244.9149756021928
 20
57.740809658969
 10
-244.9149756021928
 20
25.63414211934887
 42
-0.414213562373095
 10
-254.9149756021928
 20
15.63414211934886
 10
-296.1257867324226
 20
15.63414211934887
 42
-0.414213562373095
 10
-306.1257867324226
 20
25.63414211934887
 10
-306.1257867324226
 20
57.740809658969
 42
0.414213562373095
 10
-316.1257867324226
 20
67.740809658969
 10
-320.4858206403782
 20
67.740809658969
 10
-320.4858206403782
 20
70.74095129186901
 10
-330.2841578091782
 20
70.74095129186901
 10
-330.2783473356782
 20
79.74137619066903
 10
-286.2995802668716
 20
79.74137619071092
  0
LWPOLYLINE
  5
6C66
330
4D7C
100
AcDbEntity
  8
0
100
AcDbPolyline
 90
       24
 70
     0
 43
0.0
 10
-115.1806377288336
 20
70.98040969926899
 10
-134.5222000348782
 20
70.98040969926899
 10
-154.7777195940782
 20
70.98040969926899
 10
-154.7835300674782
 20
61.97998480056901
 10
-149.3386801555782
 20
61.97998480056901
 10
-149.3386801555782
 20
58.97984316756902
 10
-145.0522545029442
 20
58.97984316756902
 42
-0.414213562373095
 10
-135.0522545029442
 20
48.97984316756902
 10
-135.0522545029442
 20
18.8607052800806
 42
0.414213562373095
 10
-125.0522545029442
 20
8.860705280080602
 10
-83.59728320440799
 20
8.8607052800806
 42
0.414213562373095
 10
-73.59728320440799
 20
18.8607052800806
 10
-73.59728320440799
 20
48.97984316756902
 42
-0.414213562373095
 10
-63.59728320440799
 20
58.97984316756902
 10
-59.33868015557812
 20
58.97984316756902
 10
-59.33868015557812
 20
61.97998480056901
 10
-53.89383024357812
 20
61.97998480056901
 10
-53.89964071707811
 20
70.98040969926899
 10
-84.15516027617818
 20
70.98040969926899
 10
-84.15516027617818
 20
28.78077807736901
 42
-0.414213562373095
 10
-94.15516027617818
 20
18.78077807736898
 10
-114.5222000348782
 20
18.78077807736901
 42
-0.414213562373095
 10
-124.5222000348782
 20
28.78077807736901
 10
-124.5222000348782
 20
79.09615427298165
  0
LWPOLYLINE
  5
6CDC
330
4D7C
100
AcDbEntity
  8
ROUTE_T58CF3E1Z4
100
AcDbPolyline
 90
       24
 70
     0
 43
0.0
 10
-110.3730534344375
 20
74.13040969926898
 10
-134.5222000348782
 20
74.13040969926898
 10
-157.9256866808085
 20
74.13040969926898
 10
-157.9355642935749
 20
58.82998480056902
 10
-152.4886801555782
 20
58.82998480056902
 10
-152.4886801555782
 20
55.82984316756902
 10
-145.0522545029442
 20
55.82984316756902
 42
-0.414213562373095
 10
-138.2022545029442
 20
48.97984316756902
 10
-138.2022545029442
 20
18.8607052800806
 42
0.414213562373095
 10
-125.0522545029442
 20
5.710705280080601
 10
-83.59728320440799
 20
5.7107052800806
 42
0.414213562373095
 10
-70.447283204408
 20
18.8607052800806
 10
-70.447283204408
 20
48.97984316756902
 42
-0.414213562373095
 10
-63.59728320440799
 20
55.82984316756902
 10
-56.18868015557812
 20
55.82984316756902
 10
-56.18868015557812
 20
58.82998480056902
 10
-50.74179601744637
 20
58.82998480056902
 10
-50.75167363038277
 20
74.13040969926898
 10
-87.30516027617819
 20
74.13040969926898
 10
-87.30516027617819
 20
28.780778077369
 42
-0.414213562373095
 10
-94.15516027617818
 20
21.93077807736898
 10
-114.5222000348782
 20
21.93077807736901
 42
-0.414213562373095
 10
-121.3722000348781
 20
28.78077807736901
 10
-121.3722000348781
 20
80.71365926922707
  0
LWPOLYLINE
  5
6CDE
330
4D7C
100
AcDbEntity
  8
ROUTE_T58CF3E1Z4
  6
Continuous
100
AcDbPolyline
 90
       23
 70
     0
 43
0.0
 10
-292.4858748533782
 20
91.78907542407413
 10
-292.4858748533782
 20
35.57789343526901
 42
0.414213562373095
 10
-285.6358748533781
 20
28.727893435269
 10
-265.3357664274782
 20
28.727893435269
 42
0.414213562373095
 10
-258.4857664274782
 20
35.577893435269
 10
-258.4857664274782
 20
82.89137619066904
 10
-217.5453268584828
 20
82.89137619066904
 10
-217.5354492455464
 20
67.590951291869
 10
-227.3358206403782
 20
67.590951291869
 10
-227.3358206403782
 20
64.590809658969
 10
-234.9149756021928
 20
64.590809658969
 42
0.414213562373095
 10
-241.7649756021928
 20
57.740809658969
 10
-241.7649756021928
 20
25.63414211934887
 42
-0.414213562373095
 10
-254.9149756021928
 20
12.48414211934886
 10
-296.1257867324226
 20
12.48414211934887
 42
-0.414213562373095
 10
-309.2757867324226
 20
25.63414211934887
 10
-309.2757867324226
 20
57.740809658969
 42
0.414213562373095
 10
-316.1257867324226
 20
64.590809658969
 10
-323.6358206403781
 20
64.590809658969
 10
-323.6358206403781
 20
67.590951291869
 10
-333.4361920353099
 20
67.590951291869
 10
-333.4263144223735
 20
82.89137619066604
 10
-285.1871524383774
 20
82.89137619069903
  0
LWPOLYLINE
  5
6CE3
330
4D7C
100
AcDbEntity
  8
0
100
AcDbPolyline
 90
       24
 70
     0
 43
0.0
 10
319.0704799002339
 20
-175.5821892010695
 10
319.0704799002339
 20
-160.7730323465559
 10
319.0704799002339
 20
-122.1306517122296
 42
-0.414213562373095
 10
329.0704799002339
 20
-112.1306517122295
 10
349.0704800354339
 20
-112.1306517122296
 42
-0.414213562373095
 10
359.0704800354339
 20
-122.1306517122296
 10
359.0704800354339
 20
-167.1441024513296
 10
403.0116393042339
 20
-167.1441024513296
 10
403.0174497776338
 20
-158.1436775526296
 10
384.0704799678339
 20
-158.1436775526296
 10
384.0704799678339
 20
-155.1435359196296
 10
379.0686445727424
 20
-155.1435359196296
 42
-0.4142135623730852
 10
369.0686445727424
 20
-145.14353591963
 10
369.0686445727427
 20
-112.1245830283005
 42
0.4142135623730921
 10
359.0686445727427
 20
-102.1245830283007
 10
319.0718931965015
 20
-102.1245830283007
 42
0.4142135623730972
 10
309.0718931965015
 20
-112.1245830283007
 10
309.0718931965015
 20
-145.1435359196296
 42
-0.414213562373095
 10
299.0718931965015
 20
-155.1435359196296
 10
294.0704799678339
 20
-155.1435359196296
 10
294.0704799678339
 20
-158.1436775526296
 10
275.1235101580338
 20
-158.1436775526296
 10
275.1293206315338
 20
-167.1441024513296
 10
326.0607654414337
 20
-167.1441024513296
  0
LWPOLYLINE
  5
6D43
330
4D7C
100
AcDbEntity
  8
ROUTE_T58CF3E1Z4
100
AcDbPolyline
 90
       24
 70
     0
 43
0.0
 10
322.2204799002338
 20
-180.3088982456533
 10
322.2204799002338
 20
-160.7730323465559
 10
322.2204799002338
 20
-122.1306517122296
 42
-0.414213562373095
 10
329.0704799002339
 20
-115.2806517122295
 10
349.0704800354339
 20
-115.2806517122296
 42
-0.414213562373095
 10
355.9204800354339
 20
-122.1306517122296
 10
355.9204800354339
 20
-170.2941024513296
 10
406.1596063909642
 20
-170.2941024513296
 10
406.1694840037305
 20
-154.9936775526296
 10
387.2204799678339
 20
-154.9936775526296
 10
387.2204799678339
 20
-151.9935359196296
 10
379.0686445727424
 20
-151.9935359196296
 42
-0.4142135623730852
 10
372.2186445727424
 20
-145.1435359196298
 10
372.2186445727427
 20
-112.1245830283005
 42
0.4142135623730921
 10
359.0686445727427
 20
-98.97458302830074
 10
319.0718931965015
 20
-98.97458302830074
 42
0.4142135623730972
 10
305.9218931965015
 20
-112.1245830283007
 10
305.9218931965015
 20
-145.1435359196296
 42
-0.414213562373095
 10
299.0718931965015
 20
-151.9935359196296
 10
290.9204799678339
 20
-151.9935359196296
 10
290.9204799678339
 20
-154.9936775526296
 10
271.971475931902
 20
-154.9936775526296
 10
271.9813535448384
 20
-170.2941024513296
 10
330.6616685418651
 20
-170.2941024513296
  0
LWPOLYLINE
  5
6D47
330
4D7C
100
AcDbEntity
  8
0
100
AcDbPolyline
 90
       24
 70
     0
 43
0.0
 10
-198.2019024443449
 20
-53.907593079431
 10
-217.8831200682782
 20
-53.907593079431
 10
-247.3130582649782
 20
-53.907593079431
 10
-247.3188687383782
 20
-62.90801797813097
 10
-232.8831212308781
 20
-62.90801797813097
 10
-232.8831212308781
 20
-65.908159611131
 10
-227.8862090245003
 20
-65.908159611131
 42
-0.414213562373095
 10
-217.8862090245003
 20
-75.908159611131
 10
-217.8862090245003
 20
-109.0284233691317
 42
0.414213562373095
 10
-207.8862090245003
 20
-119.0284233691317
 10
-167.6570971801424
 20
-119.0284233691317
 42
0.414213562373095
 10
-157.6570971801424
 20
-109.0284233691317
 10
-157.6570971801424
 20
-75.908159611131
 42
-0.414213562373095
 10
-147.6570971801424
 20
-65.908159611131
 10
-142.8831212308782
 20
-65.908159611131
 10
-142.8831212308782
 20
-62.90801797813097
 10
-128.4473737234782
 20
-62.90801797813097
 10
-128.4531841968782
 20
-53.907593079431
 10
-167.8831223935782
 20
-53.907593079431
 10
-167.8831223935782
 20
-99.05214556123099
 42
-0.414213562373095
 10
-177.8831223935782
 20
-109.052145561231
 10
-197.8831200682782
 20
-109.052145561231
 42
-0.414213562373095
 10
-207.8831200682782
 20
-99.05214556123099
 10
-207.8831200682782
 20
-47.02917776211687
  0
LWPOLYLINE
  5
6DC8
330
4D7C
100
AcDbEntity
  8
ROUTE_T58CF3E1Z4
100
AcDbPolyline
 90
       24
 70
     0
 43
0.0
 10
-195.6745508877114
 20
-50.757593079431
 10
-217.8831200682782
 20
-50.757593079431
 10
-250.4610253517085
 20
-50.757593079431
 10
-250.4709029644749
 20
-66.05801797813098
 10
-236.0331212308782
 20
-66.05801797813098
 10
-236.0331212308782
 20
-69.058159611131
 10
-227.8862090245003
 20
-69.058159611131
 42
-0.414213562373095
 10
-221.0362090245004
 20
-75.908159611131
 10
-221.0362090245004
 20
-109.0284233691317
 42
0.414213562373095
 10
-207.8862090245003
 20
-122.1784233691317
 10
-167.6570971801424
 20
-122.1784233691317
 42
0.414213562373095
 10
-154.5070971801424
 20
-109.0284233691317
 10
-154.5070971801424
 20
-75.908159611131
 42
-0.414213562373095
 10
-147.6570971801424
 20
-69.058159611131
 10
-139.7331212308782
 20
-69.058159611131
 10
-139.7331212308782
 20
-66.05801797813098
 10
-125.2953394973814
 20
-66.05801797813098
 10
-125.3052171101479
 20
-50.757593079431
 10
-171.0331223935782
 20
-50.757593079431
 10
-171.0331223935782
 20
-99.05214556123099
 42
-0.414213562373095
 10
-177.8831223935782
 20
-105.902145561231
 10
-197.8831200682782
 20
-105.902145561231
 42
-0.414213562373095
 10
-204.7331200682782
 20
-99.05214556123099
 10
-204.7331200682782
 20
-42.2552914884759
  0
LWPOLYLINE
  5
7A67
330
4D7C
100
AcDbEntity
  8
0
  6
Continuous
100
AcDbPolyline
 90
       23
 70
     0
 43
0.0
 10
681.8221490170295
 20
170.114357090269
 10
622.2150625985219
 20
170.114357090269
 10
622.2150625985219
 20
183.173002079769
 10
644.6724806231218
 20
183.173002079769
 10
644.6724806231218
 20
186.173143712669
 10
651.6704740560687
 20
186.173143712669
 42
0.414213562373095
 10
659.6704740560687
 20
194.173143712669
 10
659.6704740560687
 20
227.9681343338265
 42
-0.414213562373095
 10
667.6704740560687
 20
235.9681343338265
 10
711.6739364528531
 20
235.9681343338265
 42
-0.414213562373095
 10
719.6739364528531
 20
227.9681343338265
 10
719.6739364528531
 20
194.1731437126815
 42
0.4142135623725701
 10
727.6739364528388
 20
186.1731437126815
 10
734.6724806231218
 20
186.173143712669
 10
734.6724806231218
 20
183.173002079769
 10
757.1298986477218
 20
183.173002079769
 10
757.1298986477218
 20
170.114357090269
 10
709.6729598877218
 20
170.114357090269
 10
709.6729598877218
 20
215.712226016269
 42
0.414213562373095
 10
699.6729598877218
 20
225.712226016269
 10
679.6720013585218
 20
225.712226016269
 42
0.414213562373095
 10
669.6720013585218
 20
215.712226016269
 10
669.6720013585218
 20
160.5296150350362
  0
LWPOLYLINE
  5
7AD8
330
4D7C
100
AcDbEntity
  8
ROUTE_T58CF3E1Z4
  6
Continuous
100
AcDbPolyline
 90
       23
 70
     0
 43
0.0
 10
687.8877927529497
 20
166.964357090269
 10
619.0650625985219
 20
166.964357090269
 10
619.0650625985219
 20
186.323002079769
 10
641.5224806231219
 20
186.323002079769
 10
641.5224806231219
 20
189.323143712669
 10
651.6704740560687
 20
189.323143712669
 42
0.414213562373095
 10
656.5204740560687
 20
194.173143712669
 10
656.5204740560687
 20
227.9681343338265
 42
-0.414213562373095
 10
667.6704740560687
 20
239.1181343338265
 10
711.6739364528531
 20
239.1181343338265
 42
-0.414213562373095
 10
722.8239364528531
 20
227.9681343338265
 10
722.8239364528531
 20
194.1731437126815
 42
0.4142135623725701
 10
727.6739364528445
 20
189.3231437126815
 10
737.8224806231218
 20
189.3231437126634
 10
737.8224806231218
 20
186.323002079769
 10
760.2798986477218
 20
186.323002079769
 10
760.2798986477218
 20
166.964357090269
 10
706.5229598877219
 20
166.964357090269
 10
706.5229598877219
 20
215.712226016269
 42
0.414213562373095
 10
699.6729598877218
 20
222.562226016269
 10
679.6720013585218
 20
222.562226016269
 42
0.414213562373095
 10
672.8220013585218
 20
215.712226016269
 10
672.8220013585218
 20
157.3844664312256
  0
LWPOLYLINE
  5
7ADC
330
4D7C
100
AcDbEntity
  8
0
  6
Continuous
100
AcDbPolyline
 90
       17
 70
     0
 43
0.0
 10
447.6205042340218
 20
272.8058024831034
 10
447.6146937606218
 20
249.5974611048691
 10
363.1637981527218
 20
249.5974611048691
 10
363.1579876792218
 20
258.597886003569
 10
375.3892459566218
 20
258.597886003569
 10
375.3892459566218
 20
261.680620575069
 10
376.1539111309223
 20
261.680620575069
 42
0.414213562373095
 10
384.1539111309223
 20
269.680620575069
 10
384.1539111309223
 20
294.7208516260127
 42
-0.414213562373095
 10
394.1539111309223
 20
304.7208516260127
 10
416.6237608203488
 20
304.7208516260127
 42
-0.414213562373095
 10
426.6237608203488
 20
294.7208516260127
 10
426.6237608203488
 20
269.680620575069
 42
0.414213562373095
 10
434.6237608203488
 20
261.680620575069
 10
435.3892459566218
 20
261.680620575069
 10
435.3892459566218
 20
258.597886003569
 10
474.4420906535947
 20
258.597886003569
  0
LWPOLYLINE
  5
7B2C
330
4D7C
100
AcDbEntity
  8
ROUTE_T58CF3E1Z4
  6
Continuous
100
AcDbPolyline
 90
       17
 70
     0
 43
0.0
 10
450.7661585800537
 20
268.5476026823454
 10
450.763905220858
 20
246.4474611048691
 10
360.0158310660265
 20
246.4474611048691
 10
360.0059534530901
 20
261.747886003569
 10
372.2392459566219
 20
261.747886003569
 10
372.2392459566219
 20
264.830620575069
 10
376.1539111309223
 20
264.830620575069
 42
0.414213562373095
 10
381.0039111309223
 20
269.680620575069
 10
381.0039111309223
 20
294.7208516260127
 42
-0.414213562373095
 10
394.1539111309223
 20
307.8708516260127
 10
416.6237608203488
 20
307.8708516260127
 42
-0.414213562373095
 10
429.7737608203488
 20
294.7208516260127
 10
429.7737608203488
 20
269.680620575069
 42
0.414213562373095
 10
434.6237608203488
 20
264.830620575069
 10
438.5392459566218
 20
264.830620575069
 10
438.5392459566218
 20
261.747886003569
 10
459.8165551229282
 20
261.747886003569
  0
LWPOLYLINE
  5
7B30
330
4D7C
100
AcDbEntity
  8
0
100
AcDbPolyline
 90
       18
 70
     0
 43
0.0
 10
-127.7486549792128
 20
-167.964465239231
 10
-150.9328932587304
 20
-167.964465239231
 10
-231.6392368162782
 20
-167.964465239231
 10
-231.6450472897782
 20
-176.964890137931
 10
-230.4274965981782
 20
-176.964890137931
 10
-230.4274965981782
 20
-179.965031770831
 10
-223.4877220177542
 20
-179.9650317708387
 42
-0.4142135623727696
 10
-213.4877220177653
 20
-189.9650317708387
 10
-213.4877220177653
 20
-217.1980296541907
 42
0.4142135623731052
 10
-203.487722017765
 20
-227.1980296541907
 10
-167.2490109682406
 20
-227.1980296541909
 42
0.4142135623730962
 10
-157.2490109682405
 20
-217.1980296541909
 10
-157.2490109682405
 20
-189.965031770931
 42
-0.414213562373095
 10
-147.2490109682405
 20
-179.965031770931
 10
-140.4274965981782
 20
-179.965031770931
 10
-140.4274965981782
 20
-176.964890137931
 10
-139.2099459065782
 20
-176.964890137931
 10
-139.2157563800782
 20
-161.2947929733288
  0
LWPOLYLINE
  5
7B6C
330
4D7C
100
AcDbEntity
  8
ROUTE_T58CF3E1Z4
100
AcDbPolyline
 90
       18
 70
     0
 43
0.0
 10
-129.1864371980976
 20
-164.814465239231
 10
-150.9328932587304
 20
-164.814465239231
 10
-234.7872039029735
 20
-164.814465239231
 10
-234.79708151591
 20
-180.114890137931
 10
-233.5774965981782
 20
-180.114890137931
 10
-233.5774965981782
 20
-183.1150317708275
 10
-223.4877220177577
 20
-183.1150317708387
 42
-0.4142135623727696
 10
-216.6377220177653
 20
-189.9650317708387
 10
-216.6377220177653
 20
-217.1980296541907
 42
0.4142135623731052
 10
-203.487722017765
 20
-230.3480296541908
 10
-167.2490109682406
 20
-230.3480296541909
 42
0.4142135623730962
 10
-154.0990109682405
 20
-217.1980296541909
 10
-154.0990109682405
 20
-189.965031770931
 42
-0.414213562373095
 10
-147.2490109682405
 20
-183.115031770931
 10
-137.2774965981782
 20
-183.115031770931
 10
-137.2774965981782
 20
-180.114890137931
 10
-136.0587776697314
 20
-180.114890137931
 10
-136.0621150281289
 20
-160.2164563091652
  0
LWPOLYLINE
  5
7B79
330
4D7C
100
AcDbEntity
  8
0
100
AcDbPolyline
 90
       29
 70
     0
 43
0.0
 10
170.3412450395382
 20
-1.95152029473009
 10
236.5755554032415
 20
2.775009161858862
 10
236.5553402310416
 20
11.21895384145887
 10
165.7645241078653
 20
50.19948955351958
 42
0.1323369977940811
 10
156.2170635068418
 20
52.67503805375885
 10
119.5222165061246
 20
52.67897935093949
 42
-0.1287148344392452
 10
114.0087119340506
 20
54.32692770065666
 42
-0.0826359324607823
 10
110.8374929585165
 20
57.06845134619784
 42
0.1051069269422632
 10
108.8220220323416
 20
58.38363867495883
 10
107.9424259165417
 20
58.38363870245888
 10
107.9424259165417
 20
42.26655410545885
 10
104.9424259165417
 20
42.26655410545885
 10
104.9424259165417
 20
58.38363870245888
 10
104.0628298669416
 20
58.38363870245888
 42
0.1054144996574412
 10
102.0473588745667
 20
57.06845134619782
 42
-0.0826359324607815
 10
98.87613989903274
 20
54.32692770065667
 42
-0.1287148344392452
 10
93.36263532695877
 20
52.67897935093951
 10
56.66778832624163
 20
52.67503805375885
 42
0.132336997794081
 10
47.12032772517034
 20
50.19948955351947
 10
-23.67048839805835
 20
11.21895384145887
 10
-23.69070357015835
 20
2.775009161858862
 10
18.34242591654163
 20
-0.2245060981411484
 10
18.34242591654163
 20
16.28459306035887
 10
21.44242591654165
 20
16.28459306035887
 10
21.44242591654165
 20
8.843711960758867
 10
191.4424259165415
 20
8.843711960758867
 10
191.4424259165415
 20
16.28459306035887
 10
194.5424259165416
 20
16.28459306035887
 10
194.5424259165416
 20
-6.876940301561014
  0
LWPOLYLINE
  5
7E8A
330
4D7C
100
AcDbEntity
  8
0
100
AcDbPolyline
 90
       29
 70
     0
 43
0.0
 10
243.9026283076803
 20
-16.57216711230695
 10
186.4440202260415
 20
-12.55445351611195
 10
186.4442137940416
 20
-31.32098783511191
 10
183.3442137942416
 20
-31.32101981021191
 10
183.3440952214415
 20
-19.82532146231193
 10
13.34409523044161
 20
-19.82707493291196
 10
13.34421380324164
 20
-31.32277328071194
 10
10.2442138034416
 20
-31.32280525581194
 10
10.24402023534162
 20
-12.55627093671194
 10
-29.10994359085839
 20
-15.30885816241192
 10
-29.10977297205835
 20
-31.85045650531191
 10
35.23979473169481
 20
-64.73331284098083
 42
0.1290237089452096
 10
44.35420170025012
 20
-66.92021777451353
 10
75.09634008314893
 20
-66.92001730979909
 42
-0.4142154722856039
 10
85.09640529159681
 20
-76.92001730958648
 10
85.09640529159681
 20
-86.46307258401194
 42
0.414213562373095
 10
95.09640529159681
 20
-96.46307258401194
 10
96.84488569944165
 20
-96.46307258401194
 10
96.84447166214164
 20
-56.32191201721193
 10
99.84447166194161
 20
-56.32188107361193
 10
99.84488569924162
 20
-96.46304164051193
 10
101.5943698500284
 20
-96.46304164051193
 42
0.4142135623731799
 10
111.5943698500284
 20
-86.46304164050903
 10
111.5943698500311
 20
-76.91930215045188
 42
-0.4142116744514907
 10
121.5943053923126
 20
-66.91930215065963
 10
152.3349602458416
 20
-66.91910400341192
 42
0.1291521753441528
 10
161.4491485923884
 20
-64.73331284098083
 10
225.7982114460416
 20
-31.84782724851192
 10
225.7980408271416
 20
-11.33196650831926
  0
LWPOLYLINE
  5
8065
330
4D7C
100
AcDbEntity
  8
0
  6
Continuous
100
AcDbPolyline
 90
       33
 70
     0
 43
0.0
 10
232.3501477658416
 20
-143.4706307711532
 10
232.3501477658416
 20
-111.4036143546119
 10
235.4369609527415
 20
-111.4036143546119
 10
235.4369609527415
 20
-104.3207918593119
 10
175.0665125543879
 20
-76.44137234995273
 42
0.0557135537241912
 10
171.0432928650416
 20
-75.06699170681193
 10
171.0432928650416
 20
-77.56950728881193
 10
162.0215138849416
 20
-77.56950728881193
 10
162.0137665869416
 20
-89.57007382051194
 10
150.0947218738416
 20
-89.57007382051194
 10
150.0947218738416
 20
-105.3030203178119
 42
-0.414213562373095
 10
140.0947218738416
 20
-115.3030203178119
 10
67.4602920978416
 20
-115.3030203178119
 42
-0.414213562373095
 10
57.4602920978416
 20
-105.3030203178119
 10
57.4602920978416
 20
-89.57007382051194
 10
45.54124738474161
 20
-89.57007382051194
 10
45.53350008684163
 20
-77.56950728881193
 10
36.51172110674162
 20
-77.56950728881193
 10
36.51172110674162
 20
-75.06699170681193
 42
0.0557135537305546
 10
32.48850141729528
 20
-76.44137234995273
 10
-27.88194698095839
 20
-104.3207918593119
 10
-27.88194698095839
 20
-111.4036143546119
 10
-24.7951337941584
 20
-111.4036143546119
 10
-24.7951337941584
 20
-133.5201645836119
 10
15.6775069858416
 20
-136.6752572620119
 10
15.6775069858416
 20
-111.4036143546119
 10
18.77750698584163
 20
-111.4036143546119
 10
18.77750698584163
 20
-130.2520130566119
 10
188.7775069858416
 20
-130.2520130566119
 10
188.7775069858416
 20
-111.4036143546119
 10
191.8775069858416
 20
-111.4036143546119
 10
191.8775069858416
 20
-136.6752572620119
 10
252.2896516921318
 20
-131.9657569236142
  0
LWPOLYLINE
  5
83D1
330
4D7C
100
AcDbEntity
  8
0
100
AcDbPolyline
 90
       33
 70
     0
 43
0.0
 10
241.3495270076415
 20
-191.4879442264122
 10
241.3495393262416
 20
-171.6863358720119
 10
238.2627269254416
 20
-171.6863246075119
 10
238.2627975688416
 20
-152.3278641971119
 10
198.3494918127416
 20
-149.3842221491119
 10
198.3494104277415
 20
-171.6861789547119
 10
195.2494104277416
 20
-171.6861676421119
 10
195.2494685256415
 20
-155.7655754765119
 10
25.24946852674162
 20
-155.7649551077119
 10
25.24941042894164
 20
-171.6855472733119
 10
22.14941042894162
 20
-171.6855359607119
 10
22.14949181384162
 20
-149.3835791551119
 10
-17.76383542525838
 20
-152.3269298975119
 10
-17.7639060686584
 20
-171.6853903079119
 10
-20.85071846955839
 20
-171.6853790434119
 10
-20.85073057345835
 20
-175.0316338500119
 10
43.06649309596401
 20
-205.8932854294247
 42
0.1206276091065666
 10
51.82102593834157
 20
-207.902077814712
 10
79.40943952539054
 20
-207.9017181830707
 42
-0.4142128531374707
 10
89.40941531056559
 20
-217.9017181830414
 10
89.40941531056559
 20
-240.5894074474119
 42
0.414213562373095
 10
99.40941531056559
 20
-250.5894074474119
 10
108.7491224912416
 20
-250.5894074474119
 10
108.7493191976416
 20
-196.685851983912
 10
111.7493191976416
 20
-196.685862931612
 10
111.7491224912416
 20
-250.5894183951119
 10
121.0483444029903
 20
-250.5894183951119
 42
0.414213562373095
 10
131.0483444029903
 20
-240.5894183951119
 10
131.0483444029903
 20
-217.9020137761161
 42
-0.4142142412359157
 10
141.0483675808112
 20
-207.902013776143
 10
168.6776124569416
 20
-207.902077814712
 42
0.1185969912535554
 10
177.4320780975308
 20
-205.8937757600991
 10
259.3600648532066
 20
-166.336584324244
  0
LWPOLYLINE
  5
860F
330
4D7C
100
AcDbEntity
  8
0
100
AcDbPolyline
 90
       95
 70
     0
 43
0.0
 10
-57.94766544477812
 20
-263.8606466485294
 10
-57.94766544477812
 20
-232.347580813531
 10
-54.86085225797814
 20
-232.347580813531
 10
-54.86085225797814
 20
-222.192329719031
 10
-111.6463978602487
 20
-196.6773167204274
 10
-111.7417208387022
 20
-196.6345180871949
 10
-111.8372684636493
 20
-196.5922168245458
 10
-111.9330362690839
 20
-196.5504144225011
 10
-112.0290197889998
 20
-196.5091123710818
 10
-112.1252145573909
 20
-196.4683121603086
 10
-112.2216161082511
 20
-196.4280152802027
 10
-112.3182199755743
 20
-196.388223220785
 10
-112.4150216933544
 20
-196.3489374720764
 10
-112.5120167955852
 20
-196.310159524098
 10
-112.6092008162607
 20
-196.2718908668706
 10
-112.7065692893747
 20
-196.2341329904153
 10
-112.8041177489212
 20
-196.1968873847529
 10
-112.901841728894
 20
-196.1601555399045
 10
-112.9997367632869
 20
-196.123938945891
 10
-113.097798386094
 20
-196.0882390927333
 10
-113.1960221313091
 20
-196.0530574704524
 10
-113.294403532926
 20
-196.0183955690694
 10
-113.3929381249387
 20
-195.984254878605
 10
-113.491621441341
 20
-195.9506368890804
 10
-113.5904490161269
 20
-195.9175430905163
 10
-113.6893930145863
 20
-195.884980839168
 10
-113.7884284839914
 20
-195.8529559377743
 10
-113.8875552813093
 20
-195.8214675460824
 10
-113.9867732635071
 20
-195.7905148238393
 10
-114.0860822875518
 20
-195.760096930792
 10
-114.1854822104105
 20
-195.7302130266877
 10
-114.2849728890504
 20
-195.7008622712733
 10
-114.3845541804384
 20
-195.6720438242959
 10
-114.4842259415417
 20
-195.6437568455025
 10
-114.5839880293273
 20
-195.6160004946402
 10
-114.6838403007624
 20
-195.588773931456
 10
-114.7837826128141
 20
-195.5620763156971
 10
-114.8838148224492
 20
-195.5359068071104
 10
-114.9839367866351
 20
-195.510264565443
 10
-115.0841483623388
 20
-195.4851487504419
 10
-115.1844494065273
 20
-195.4605585218542
 10
-115.2848397761677
 20
-195.4364930394269
 10
-115.3853193282272
 20
-195.4129514629071
 10
-115.4858879196727
 20
-195.3899329520419
 10
-115.5865454074714
 20
-195.3674366665782
 10
-115.5865454074782
 20
-197.895234340531
 10
-124.6083243875782
 20
-197.895234340531
 10
-124.6160716854782
 20
-209.895800872231
 10
-136.5351163986782
 20
-209.895800872231
 10
-136.5351163986782
 20
-227.647402613231
 42
-0.414213562373095
 10
-146.5351163986782
 20
-237.647402613231
 10
-227.6241446152782
 20
-237.647402613231
 42
-0.414213562373095
 10
-237.6241446152782
 20
-227.647402613231
 10
-237.6241446152782
 20
-209.895800872231
 10
-249.5431893284781
 20
-209.895800872231
 10
-249.5509366263782
 20
-197.895234340531
 10
-258.5727156064781
 20
-197.895234340531
 10
-258.5727156064781
 20
-195.367436666531
 10
-258.7412348454285
 20
-195.4053999046288
 10
-258.9093809987107
 20
-195.4447893390335
 10
-259.0771534030137
 20
-195.4856075054372
 10
-259.2445513950256
 20
-195.5278569394857
 10
-259.4115743114345
 20
-195.5715401768248
 10
-259.5782214889284
 20
-195.6166597531004
 10
-259.7444922641953
 20
-195.6632182039583
 10
-259.9103859739231
 20
-195.7112180650441
 10
-260.0759019548001
 20
-195.7606618720039
 10
-260.2410395435141
 20
-195.8115521604834
 10
-260.4057980767533
 20
-195.8638914661285
 10
-260.5701768912056
 20
-195.9176823245849
 10
-260.7341753235591
 20
-195.9729272714984
 10
-260.8977927105018
 20
-196.029628842515
 10
-261.0610283887217
 20
-196.0877895732804
 10
-261.2238816949069
 20
-196.1474119994405
 10
-261.3863519657454
 20
-196.208498656641
 10
-261.5484385379252
 20
-196.2710520805278
 10
-261.7101407481344
 20
-196.3350748067467
 10
-261.871457933061
 20
-196.4005693709435
 10
-262.032389429393
 20
-196.467538308764
 10
-262.1929345738184
 20
-196.5359841558542
 10
-262.3530927030254
 20
-196.6059094478597
 10
-262.5128631537018
 20
-196.6773167204264
 10
-319.2984087559782
 20
-222.192329719031
 10
-319.2984087559782
 20
-232.347580813531
 10
-316.2115955690782
 20
-232.347580813531
 10
-316.2115955691781
 20
-256.637167353631
 10
-275.1796305069782
 20
-260.027965238631
 10
-275.1796305069782
 20
-232.347580813531
 10
-272.0796305069782
 20
-232.347580813531
 10
-272.0796305069782
 20
-252.631538826131
 10
-102.0796305069782
 20
-252.631538826131
 10
-102.0796305069782
 20
-232.347580813531
 10
-98.97963050697817
 20
-232.347580813531
 10
-98.97963050697817
 20
-260.027965238631
 10
-38.0156079800345
 20
-254.9900227873715
  0
LWPOLYLINE
  5
885A
330
4D7C
100
AcDbEntity
  8
0
100
AcDbPolyline
 90
       33
 70
     0
 43
0.0
 10
-60.20615812347813
 20
-177.2722001728852
 10
-60.20615812347813
 20
-141.324717105631
 10
-57.11934493667815
 20
-141.324717105631
 10
-57.11934493667815
 20
-126.838992806731
 10
-106.1046689883096
 20
-104.3336121653586
 42
0.0676353606067678
 10
-110.0437481055782
 20
-103.026861775931
 10
-110.0437481055782
 20
-105.557458460731
 10
-119.0655270856782
 20
-105.557458460731
 10
-119.0732743836782
 20
-117.558024992431
 10
-130.9923190967782
 20
-117.558024992431
 10
-130.9923190967782
 20
-131.188043856031
 42
-0.414213562373095
 10
-140.9923190967782
 20
-141.188043856031
 10
-240.0631425044782
 20
-141.188043856031
 42
-0.414213562373095
 10
-250.0631425044782
 20
-131.188043856031
 10
-250.0631425044782
 20
-117.558024992431
 10
-261.9821872176782
 20
-117.558024992431
 10
-261.9899345155782
 20
-105.557458460731
 10
-271.0117134956782
 20
-105.557458460731
 10
-271.0117134956782
 20
-103.026861775931
 42
0.0661784018168489
 10
-274.7920930150444
 20
-104.2628034609707
 10
-323.9361166645782
 20
-126.838992806731
 10
-323.9361166645782
 20
-141.324717105631
 10
-320.8493034777782
 20
-141.324717105631
 10
-320.8493034777782
 20
-168.294650821231
 10
-278.6277308006781
 20
-172.290149190231
 10
-278.6277308006781
 20
-141.324717105631
 10
-275.5277308006782
 20
-141.324717105631
 10
-275.5277308006782
 20
-156.424203874631
 10
-105.5277308006782
 20
-156.424203874631
 10
-105.5277308006782
 20
-141.324717105631
 10
-102.4277308006782
 20
-141.324717105631
 10
-102.4277308006782
 20
-172.290149190231
 10
-40.29511266530904
 20
-166.4104351322176
  0
LWPOLYLINE
  5
90A4
330
4D7C
100
AcDbEntity
  8
0
100
AcDbPolyline
 90
       31
 70
     0
 43
0.0
 10
-61.62294846767816
 20
-90.05239035984542
 10
-61.62272427811914
 20
-45.60176837334135
 10
-58.31185068956103
 20
-45.60145229337442
 10
-58.31173407648845
 20
-30.6013302715856
 10
-97.6693309791568
 20
-7.90402072934857
 42
0.0843227375146217
 10
-100.8097631129956
 20
-6.740348821420481
 42
0.051869097419051
 10
-104.4236393731782
 20
-6.439828057330999
 10
-148.5612254442782
 20
-6.439429675030965
 42
-0.4316880163806067
 10
-158.5611508402373
 20
3.561396843395702
 10
-158.5611508402373
 20
32.78189212284281
 42
0.414213562373095
 10
-168.5611508402373
 20
42.78189212284281
 10
-208.5620771880191
 20
42.78189212284281
 42
0.414213562373095
 10
-218.5620771880191
 20
32.78189212284281
 10
-218.5620771880191
 20
3.561396843395698
 42
-0.4316880163806068
 10
-228.5620025839783
 20
-6.43942967503096
 10
-272.6995886550782
 20
-6.439828057330999
 42
0.0518690974190514
 10
-276.3134649152609
 20
-6.74034882142049
 42
0.0410260887689231
 10
-279.4538970490996
 20
-7.904020729348549
 10
-318.8116669708328
 20
-30.5989790205376
 10
-318.8116669708328
 20
-45.59910104203519
 10
-315.5009475520965
 20
-45.59913092431024
 10
-315.5011717447782
 20
-70.43790452603099
 10
-276.6621027841782
 20
-75.16702681263098
 10
-276.6618359064597
 20
-45.59910104203519
 10
-273.5618359058977
 20
-45.59904460460084
 10
-273.5616140106782
 20
-21.01482163773096
 10
-103.5616140175782
 20
-21.01635604373098
 10
-103.5618359206799
 20
-45.60145229337442
 10
-100.4618359205274
 20
-45.60145229337442
 10
-100.4621027913782
 20
-75.16861717943098
 10
-41.76953618654618
 20
-68.023168745932
  0
LWPOLYLINE
  5
9143
330
4D7C
100
AcDbEntity
  8
0
  6
Continuous
100
AcDbPolyline
 90
        9
 70
     0
 43
0.0
 10
88.34427963414163
 20
-37.70468922464914
 42
0.4142135623730951
 10
80.34419711784165
 20
-29.70477174091195
 10
36.34419712017882
 20
-29.70522558031195
 42
0.4142135623730952
 10
28.34427963644163
 20
-37.70530809657476
 10
28.34428600414162
 20
-38.32261856271191
 42
0.4142135623730949
 10
36.34436852000443
 20
-46.32253604651191
 10
80.34436851764161
 20
-46.32208220701193
 42
0.414213562373095
 10
88.34428600144165
 20
-38.32199969074912
 10
88.34427963374162
 20
-37.70468922461191
  0
LWPOLYLINE
  5
916C
330
4D7C
100
AcDbEntity
  8
ROUTE_T58CF3E1Z4
100
AcDbPolyline
 90
       11
 70
     0
 43
0.0
 10
54.66875892292362
 20
-43.17230912692948
 10
49.95103601720785
 20
-43.17230912692948
 10
36.34433602931706
 20
-43.17253604667947
 42
-0.4142135623730949
 10
31.49428600397403
 20
-38.32258606973459
 10
31.49427963627404
 20
-37.70527560359744
 42
-0.4142135623730952
 10
36.3442296109573
 20
-32.85522558014438
 10
80.34422960862744
 20
-32.85477174074439
 42
-0.4142135623730951
 10
85.1942796339092
 20
-37.70472171758939
 10
85.19428600160923
 20
-38.32203218372661
 42
-0.414213562373095
 10
80.34433602687551
 20
-43.17208220717949
 10
47.92915477190112
 20
-43.17227520564728
  0
LWPOLYLINE
  5
9185
330
4D7C
100
AcDbEntity
  8
ROUTE_T58CF3E1Z4
100
AcDbPolyline
 90
       11
 70
     0
 43
0.0
 10
134.668758918705
 20
-43.17148396427946
 10
129.9510360129893
 20
-43.17148396427946
 10
116.3443360250985
 20
-43.17171088402945
 42
-0.4142135623730949
 10
111.4942859997554
 20
-38.32176090708457
 10
111.4942796320555
 20
-37.70445044094743
 42
-0.4142135623730952
 10
116.3442296067387
 20
-32.85440041749436
 10
160.3442296044089
 20
-32.85394657809437
 42
-0.4142135623730951
 10
165.1942796296906
 20
-37.70389655493938
 10
165.1942859973906
 20
-38.32120702107659
 42
-0.414213562373095
 10
160.3443360226569
 20
-43.17125704452947
 10
127.9291547676825
 20
-43.17145004299726
  0
LWPOLYLINE
  5
9189
330
4D7C
100
AcDbEntity
  8
0
100
AcDbPolyline
 90
       13
 70
     0
 43
0.0
 10
258.0959726522218
 20
4.722063314368993
 10
258.0959726522218
 20
-64.99352634343097
 10
261.0959726522218
 20
-64.99352634343097
 10
261.0959726522218
 20
-80.11286313543098
 10
321.7191097434218
 20
-80.11286313543098
 10
321.7191097434218
 20
-64.99352634343097
 10
324.7191097434218
 20
-64.99352634343097
 10
324.7191097434218
 20
-80.11286313543098
 10
374.5086427033218
 20
-80.11286313543098
 10
379.0189174739218
 20
-64.17655894603098
 10
381.9055356114218
 20
-64.99352634343097
 10
413.6036488189218
 20
47.00647365656903
 10
244.0205942117506
 20
-15.46288815671708
  0
LWPOLYLINE
  5
91CD
330
4D7C
100
AcDbEntity
  8
0
100
AcDbPolyline
 90
        5
 70
     0
 43
0.0
 10
439.8040350261317
 20
-157.4240243140966
 10
496.6614157999218
 20
43.47205441996903
 10
450.2518100006218
 20
26.37613370426902
 10
411.0331390453218
 20
-112.196503671331
 10
454.8332296645498
 20
-153.2486641553436
  0
LWPOLYLINE
  5
91DE
330
4D7C
100
AcDbEntity
  8
0
100
AcDbPolyline
 90
       33
 70
     0
 43
0.0
 10
499.6390422191197
 20
-274.2480126969533
 10
499.6390422191197
 20
-237.3005133931685
 10
502.7258554059197
 20
-237.3005133931685
 10
502.7258554059197
 20
-224.6741879784685
 10
449.6831455659519
 20
-200.955880705277
 42
0.0716193523478695
 10
445.7776289839197
 20
-199.6728132513685
 10
445.7776289839197
 20
-202.2114726053685
 10
436.7558500038198
 20
-202.2114726053685
 10
436.7481027058197
 20
-214.2120391370685
 10
424.8290579927198
 20
-214.2120391370685
 10
424.8290579927198
 20
-232.4853309860685
 42
-0.414213562373095
 10
414.8290579927198
 20
-242.4853309860685
 10
325.0330552625197
 20
-242.4853309860685
 42
-0.414213562373095
 10
315.0330552625197
 20
-232.4853309860685
 10
315.0330552625197
 20
-214.2120391370685
 10
303.1140105493197
 20
-214.2120391370685
 10
303.1062632514198
 20
-202.2114726053685
 10
294.0844842713198
 20
-202.2114726053685
 10
294.0844842713198
 20
-199.6728132513685
 42
0.0716193523478693
 10
290.1789676892877
 20
-200.955880705277
 10
237.1362578493197
 20
-224.6741879784685
 10
237.1362578493197
 20
-237.3005133931685
 10
240.2230710361197
 20
-237.3005133931685
 10
240.2230710361197
 20
-263.2174328543686
 10
281.8310566276198
 20
-266.8811891782685
 10
281.8310566276198
 20
-237.3005133931685
 10
284.9310566276197
 20
-237.3005133931685
 10
284.9310566276197
 20
-257.5056330473685
 10
454.9310566276197
 20
-257.5056330473685
 10
454.9310566276197
 20
-237.3005133931685
 10
458.0310566276196
 20
-237.3005133931685
 10
458.0310566276196
 20
-266.8811891782685
 10
514.5812266923012
 20
-261.9017113149033
  0
LWPOLYLINE
  5
929B
330
4D7C
100
AcDbEntity
  8
0
100
AcDbPolyline
 90
        7
 70
     0
 43
0.0
 10
628.1998871558466
 20
-248.6028398826666
 10
628.1998871558466
 20
4.293456307479119
 10
569.1196034335399
 20
-16.72285082030874
 10
563.1998871558466
 20
-23.2873081767209
 10
563.1998871558466
 20
-200.1080752643209
 10
569.1196034335287
 20
-206.6725326207281
 10
642.3323534951987
 20
-232.7161049254206
  0
LWPOLYLINE
  5
92BC
330
4D7C
100
AcDbEntity
  8
0
100
AcDbPolyline
 90
       63
 70
     0
 43
0.0
 10
838.6073615287651
 20
144.957719872169
 10
805.7789554236217
 20
144.957719872169
 10
805.7789554236217
 20
141.957578239269
 10
790.7789554236217
 20
141.957578239269
 10
790.7789554236217
 20
90.504406005269
 10
805.7789554236217
 20
90.504406005269
 10
805.7789554236217
 20
87.504264372369
 10
790.7789554236217
 20
87.504264372369
 10
790.7789554236217
 20
22.60486768726901
 10
805.7789554236217
 20
22.60486768726901
 10
805.7789554236217
 20
19.604726054369
 10
790.7789554236217
 20
19.604726054369
 10
790.7789554236217
 20
-47.19395841583099
 10
805.7789554236217
 20
-47.19395841583099
 10
805.7789554236217
 20
-50.19410004873097
 10
790.7789554236217
 20
-50.19410004873097
 10
790.7789554236217
 20
-112.719387002431
 10
805.7789554236217
 20
-112.719387002431
 10
805.7789554236217
 20
-115.719528635331
 10
790.7789554236217
 20
-115.719528635331
 10
790.7789554236217
 20
-176.345527803831
 10
805.7789554236217
 20
-176.345527803831
 10
805.7789554236217
 20
-179.345669436831
 10
790.7789554236217
 20
-179.345669436831
 10
790.7789554236217
 20
-213.540518181331
 42
-0.414213562373095
 10
784.7789554236217
 20
-219.540518181331
 10
736.7789554236217
 20
-219.540518181331
 42
-0.414213562373095
 10
730.7789554236217
 20
-213.540518181331
 10
730.7789554236217
 20
-179.345669436831
 10
715.7789554236217
 20
-179.345669436831
 10
715.7789554236217
 20
-176.345527803831
 10
730.7789554236217
 20
-176.345527803831
 10
730.7789554236217
 20
-115.719528635331
 10
715.7789554236217
 20
-115.719528635331
 10
715.7789554236217
 20
-112.719387002431
 10
730.7789554236217
 20
-112.719387002431
 10
730.7789554236217
 20
-50.19410004873097
 10
715.7789554236217
 20
-50.19410004873097
 10
715.7789554236217
 20
-47.19395841583099
 10
730.7789554236217
 20
-47.19395841583099
 10
730.7789554236217
 20
19.604726054369
 10
715.7789554236217
 20
19.604726054369
 10
715.7789554236217
 20
22.60486768726901
 10
730.7789554236217
 20
22.60486768726901
 10
730.7789554236217
 20
87.504264372369
 10
715.7789554236217
 20
87.504264372369
 10
715.7789554236217
 20
90.504406005269
 10
730.7789554236217
 20
90.504406005269
 10
730.7789554236217
 20
141.957578239269
 10
715.7789554236217
 20
141.957578239269
 10
715.7789554236217
 20
144.957719872169
 10
690.4305886527218
 20
144.957719872169
 42
0.2130590949683415
 10
687.6084102751911
 20
137.3095007828583
 10
712.0258463225218
 20
-230.203453228231
 42
0.3949132166287945
 10
722.0038479823218
 20
-239.5405181813312
 10
730.7789554236217
 20
-239.540518181331
 10
730.7789554236217
 20
-236.971526972431
 10
790.7789554236217
 20
-236.971526972431
 10
790.7789554236217
 20
-239.540518181331
 10
799.5540628648218
 20
-239.540518181331
 42
0.3949132166287945
 10
809.5320645246522
 20
-230.2034532282417
 10
833.9495005720219
 20
137.309500782869
 42
0.4282600995086198
 10
824.1577235151276
 20
147.9707016992705
  0
LWPOLYLINE
  5
942A
330
4D7C
100
AcDbEntity
  8
0
100
AcDbPolyline
 90
        9
 70
     0
 43
0.0
 10
690.5018759793218
 20
-271.6001836079219
 10
690.5018759793218
 20
-202.333213703331
 10
668.6465718835218
 20
126.715332129369
 10
650.5084210319218
 20
126.715692912569
 10
650.5083690377218
 20
124.101716089569
 42
-0.2111921419711496
 10
654.2613356542156
 20
116.9382930345959
 10
678.6714615526218
 20
-250.575146660031
 42
-0.2127238959442578
 10
675.8580851007885
 20
-258.214125543024
 10
705.9151932787313
 20
-258.214416798331
  0
LWPOLYLINE
  5
947C
330
4D7C
100
AcDbEntity
  8
0
100
AcDbPolyline
 90
        9
 70
     0
 43
0.0
 10
479.5778326538009
 20
-190.6253624476707
 10
494.3213364474938
 20
-122.9456593185281
 10
585.7139437105819
 20
193.9107611141172
 10
603.4365319203343
 20
190.0504005619004
 10
602.8801966524919
 20
187.4963124851811
 42
0.2111921419711496
 10
597.6884924110612
 20
181.2958612630079
 10
495.6123387080917
 20
-172.6002272259155
 42
0.2127238959442578
 10
496.7352861824275
 20
-180.6629857119689
 10
467.3668807890714
 20
-174.2656021251512
  0
LWPOLYLINE
  5
9480
330
4D7C
100
AcDbEntity
  8
0
100
AcDbPolyline
 90
       37
 70
     0
 43
0.0
 10
815.0608719561219
 20
210.8932253627781
 10
815.0608719561219
 20
255.752942896169
 10
818.1531327743219
 20
255.752942896169
 10
818.1531327743219
 20
271.283125795569
 10
775.5553061715218
 20
292.1804326747691
 10
760.1245891339217
 20
292.1804326747691
 10
760.1168418359218
 20
280.179866143069
 10
748.0903856285217
 20
280.179866143069
 10
748.0981329264218
 20
292.1804326747691
 10
729.1479618405217
 20
292.1804326747691
 10
729.1479618405217
 20
283.180007775969
 10
704.1479619081217
 20
283.180007775969
 10
704.1479619081217
 20
280.752942896169
 42
-0.414213562373095
 10
694.1479619081217
 20
270.752942896169
 10
674.1479617729218
 20
270.752942896169
 42
-0.414213562373095
 10
664.1479617729218
 20
280.752942896169
 10
664.1479617729218
 20
283.180007775969
 10
639.1479618405218
 20
283.180007775969
 10
639.1479618405218
 20
292.1804326747691
 10
620.1977907546218
 20
292.1804326747691
 10
620.2055380525218
 20
280.179866143069
 10
608.1790818451218
 20
280.179866143069
 10
608.1713345471218
 20
292.1804326747691
 10
592.7406175095218
 20
292.1804326747691
 10
550.1427909067218
 20
271.283125795569
 10
550.1427909067218
 20
255.752942896169
 10
553.2350517249218
 20
255.752942896169
 10
553.2350517249218
 20
228.573304071169
 10
596.0479618405218
 20
224.072961350069
 10
596.0479618405218
 20
255.752942896169
 10
599.1479618405218
 20
255.752942896169
 10
599.1479618405218
 20
257.1418263096691
 10
769.1479618405217
 20
257.1418263096691
 10
769.1479618405217
 20
255.752942896169
 10
772.2479618405218
 20
255.752942896169
 10
772.2479618405218
 20
224.072961350069
 10
829.9786813852243
 20
230.1414117960992
  0
LWPOLYLINE
  5
9592
330
4D7C
100
AcDbEntity
  8
ROUTE_T58CF3E1Z4
100
AcDbPolyline
 90
       25
 70
     0
 43
0.0
 10
-55.16187517567415
 20
-82.77419752097933
 10
-55.16171992995516
 20
-28.7816518003504
 10
-96.09567325111138
 20
-5.175266186528178
 42
0.0843227375146217
 10
-100.2253415071094
 20
-3.645037627602738
 42
0.051457732249115
 10
-104.4548494800877
 20
-3.289827775502776
 10
-148.6123905221234
 20
-3.289429213090779
 42
-0.4355001549958226
 10
-155.4111508402373
 20
3.510063117340319
 10
-155.4111508402373
 20
32.78189212284281
 42
0.414213562373095
 10
-168.5611508402373
 20
45.93189212284281
 10
-208.5620771880191
 20
45.93189212284281
 42
0.414213562373095
 10
-221.7120771880191
 20
32.78189212284281
 10
-221.7120771880191
 20
3.510063117340417
 42
-0.435500154995826
 10
-228.510837506133
 20
-3.289429213090776
 10
-272.6683785481684
 20
-3.289827775502775
 42
0.0531145015677119
 10
-277.0320732918767
 20
-3.670832770476935
 42
0.0439543788994468
 10
-280.9139709847099
 20
-5.1097701080338
 10
-321.9616669708328
 20
-28.77919421938456
 10
-321.9616669708328
 20
-48.7490726105284
 10
-318.6509759836033
 20
-48.74910249254683
 10
-318.6511969246095
 20
-73.22761620202294
 10
-270.4118544829653
 20
-79.10133448458869
 10
-270.4116424424532
 20
-24.16485006924324
 10
-106.7116424490966
 20
-24.16632761196208
 10
-106.7118525329745
 20
-79.10274267953268
 10
-44.9194552098776
 20
-71.57990947942316
  0
LWPOLYLINE
  5
9723
330
4D7C
100
AcDbEntity
  8
ROUTE_T58CF3E1Z4
100
AcDbPolyline
 90
       25
 70
     0
 43
0.0
 10
-53.96934493667815
 20
-180.4418998171595
 10
-53.96934493667815
 20
-124.8196591134844
 10
-104.7558851283199
 20
-101.4867437842617
 42
0.1180362702219573
 10
-113.1937481055782
 20
-99.6158046141843
 10
-113.1937481055782
 20
-102.407458460731
 10
-122.2134941723735
 20
-102.407458460731
 10
-122.2212414703735
 20
-114.408024992431
 10
-134.1423190967782
 20
-114.408024992431
 10
-134.1423190967782
 20
-131.188043856031
 42
-0.414213562373095
 10
-140.9923190967782
 20
-138.038043856031
 10
-240.0631425044782
 20
-138.038043856031
 42
-0.414213562373095
 10
-246.9131425044782
 20
-131.188043856031
 10
-246.9131425044782
 20
-114.408024992431
 10
-258.8342201309566
 20
-114.408024992431
 10
-258.8419674288567
 20
-102.407458460731
 10
-267.8617134956782
 20
-102.407458460731
 10
-267.8617134956782
 20
-99.62683503329056
 42
0.1175458548754402
 10
-276.1309274126107
 20
-101.411362968033
 10
-327.0861166645782
 20
-124.8195805959841
 10
-327.0861166645782
 20
-170.8685236423054
 10
-275.4777308006781
 20
-175.752311916203
 10
-275.4777308006781
 20
-159.574203874631
 10
-105.5777308006782
 20
-159.574203874631
 10
-105.5777308006782
 20
-175.7523119162022
 10
-43.44511266530905
 20
-169.8725978581889
  0
LWPOLYLINE
  5
A00F
330
4D7C
100
AcDbEntity
  8
ROUTE_T58CF3E1Z4
100
AcDbPolyline
 90
       27
 70
     0
 43
0.0
 10
-51.71085225797814
 20
-272.7433098562622
 10
-51.71085225797814
 20
-220.154325806065
 10
-110.3557712794896
 20
-193.8038548320555
 42
0.0505930835507003
 10
-114.7909514928499
 20
-192.3175350949211
 10
-118.7365454074609
 20
-191.4357208457468
 10
-118.7365454074697
 20
-194.745234340531
 10
-127.7562914742998
 20
-194.745234340531
 10
-127.7640387721998
 20
-206.745800872231
 10
-139.6851163986782
 20
-206.745800872231
 10
-139.6851163986782
 20
-227.647402613231
 42
-0.414213562373095
 10
-146.5351163986782
 20
-234.497402613231
 10
-227.6241446152782
 20
-234.497402613231
 42
-0.414213562373095
 10
-234.4741446152782
 20
-227.647402613231
 10
-234.4741446152782
 20
-206.745800872231
 10
-246.3952222417565
 20
-206.745800872231
 10
-246.4029695396566
 20
-194.745234340531
 10
-255.4227156064781
 20
-194.745234340531
 10
-255.4227156064781
 20
-191.4288786362958
 10
-259.4466121125479
 20
-192.3353635106181
 42
0.033964041764622
 10
-263.8010382599454
 20
-193.8027533298419
 10
-322.4484087559782
 20
-220.1543258060649
 10
-322.4484087559782
 20
-259.2609695337677
 10
-272.0296305069782
 20
-263.4490122381358
 10
-272.0296305069782
 20
-255.781538826131
 10
-102.1296305069781
 20
-255.781538826131
 10
-102.1296305069782
 20
-263.4490122381358
 10
-41.16560798003449
 20
-258.4110697868763
  0
LWPOLYLINE
  5
A12B
330
4D7C
100
AcDbEntity
  8
ROUTE_T58CF3E1Z4
100
AcDbPolyline
 90
       23
 70
     0
 43
0.0
 10
244.4995403667774
 20
-193.8640195829514
 10
244.4995412197047
 20
-149.62927451327
 10
195.199504186788
 20
-145.9933526263471
 10
195.1994800207654
 20
-152.6155752940715
 10
25.29948002183798
 20
-152.6149552901943
 10
25.29950418783087
 20
-145.9927326224844
 10
-24.00071107574716
 20
-149.6283058816934
 10
-24.0007377246607
 20
-177.0086558309766
 10
41.67527205532649
 20
-208.7195158245047
 42
0.1200561683959338
 10
51.84306868971288
 20
-211.052077527639
 10
79.4094539468495
 20
-211.0517181831503
 42
-0.4142119103586499
 10
86.25941531056559
 20
-217.9017181830414
 10
86.25941531056559
 20
-240.5894074474119
 42
0.414213562373095
 10
99.40941531056559
 20
-253.7394074474119
 10
108.5991109961902
 20
-253.7394074474119
 10
108.5991109961503
 20
-253.7394183951119
 10
121.0483444029903
 20
-253.7394183951119
 42
0.414213562373095
 10
134.1983444029903
 20
-240.5894183951119
 10
134.1983444029903
 20
-217.9020137761161
 42
-0.4142142412359157
 10
141.0483602797976
 20
-211.0520137761345
 10
168.6615628196854
 20
-211.0520777775209
 42
0.1181823082142591
 10
178.8177676769357
 20
-208.7226770982675
 10
256.2100719678602
 20
-171.3554437787454
  0
LWPOLYLINE
  5
A23C
330
4D7C
100
AcDbEntity
  8
ROUTE_T58CF3E1Z4
  6
Continuous
100
AcDbPolyline
 90
       25
 70
     0
 43
0.0
 10
238.5869609527415
 20
-144.3818728605362
 10
238.5869609527415
 20
-102.3058088562787
 10
176.3979963198635
 20
-73.58658811416493
 42
0.0992345234797449
 10
167.8932928650416
 20
-71.48643848779322
 10
167.8932928650416
 20
-74.41950728881193
 10
158.8735467982463
 20
-74.41950728881193
 10
158.8657995002463
 20
-86.42007382051193
 10
146.9447218738416
 20
-86.42007382051193
 10
146.9447218738416
 20
-105.3030203178119
 42
-0.414213562373095
 10
140.0947218738416
 20
-112.1530203178119
 10
67.4602920978416
 20
-112.1530203178119
 42
-0.414213562373095
 10
60.61029209784161
 20
-105.3030203178119
 10
60.6102920978416
 20
-86.42007382051193
 10
48.6892144714632
 20
-86.42007382051193
 10
48.68146717356322
 20
-74.41950728881193
 10
39.66172110674162
 20
-74.41950728881193
 10
39.66172110674162
 20
-71.48643848788664
 42
0.0992345234886117
 10
31.15701765181371
 20
-73.58658811416767
 10
-31.03194698095839
 20
-102.3058088562801
 10
-31.03194698095839
 20
-136.1935234598164
 10
18.8275069858416
 20
-140.0803762850319
 10
18.8275069858416
 20
-133.4020130566119
 10
188.7275069858416
 20
-133.4020130566119
 10
188.7275069858416
 20
-140.0803762850319
 10
249.1396516921318
 20
-135.3708759466342
  0
LWPOLYLINE
  5
A30D
330
4D7C
100
AcDbEntity
  8
ROUTE_T58CF3E1Z4
100
AcDbPolyline
 90
       23
 70
     0
 43
0.0
 10
242.599331229618
 20
-13.32334459252598
 10
183.2939853838719
 20
-9.176500415706425
 10
183.2940627306994
 20
-16.67532197820614
 10
13.3940627396864
 20
-16.67707441735288
 10
13.39398539281896
 20
-9.178252854740684
 10
-32.2599738886047
 20
-12.37148913649513
 10
-32.25975308794987
 20
-33.77824938417658
 10
33.7798840962239
 20
-67.52473719252015
 42
0.1282375852394302
 10
44.38620146315144
 20
-70.07021756591502
 10
75.09636062381001
 20
-70.07001730973212
 42
-0.4142154722856039
 10
81.9464052915968
 20
-76.92001730958648
 10
81.9464052915968
 20
-86.46307258401194
 42
0.414213562373095
 10
95.09640529159681
 20
-99.61307258401195
 10
99.99491819038617
 20
-99.61307258401195
 10
99.99491819006701
 20
-99.61304164051194
 10
101.5943698500284
 20
-99.61304164051194
 42
0.4142135623731799
 10
114.7443698500284
 20
-86.46304164050994
 10
114.7443698500311
 20
-76.91930215045232
 42
-0.4142116744514907
 10
121.5943256964939
 20
-70.0693021505942
 10
152.3024339331451
 20
-70.06910421313455
 42
0.1283560156283166
 10
162.9093017298635
 20
-67.5246120732401
 10
228.9482274777288
 20
-33.77552475300017
 10
228.9481019715159
 20
-7.22945620494718
  0
LWPOLYLINE
  5
A337
330
4D7C
100
AcDbEntity
  8
ROUTE_T58CF3E1Z4
100
AcDbPolyline
 90
        3
 70
     0
 43
0.0
 10
107.6214853758669
 20
5.693711960758866
 10
191.3924259165416
 20
5.693711960758867
 10
191.3924259165416
 20
-6.445605635895575
  0
LWPOLYLINE
  5
A339
330
4D7C
100
AcDbEntity
  8
ROUTE_T58CF3E1Z4
100
AcDbPolyline
 90
        6
 70
     0
 43
0.0
 10
5.003592986078843
 20
30.60414607588422
 10
-26.81603515272117
 20
13.08285985635742
 10
-26.84773366228127
 20
-0.1577131067208697
 10
21.49242591654163
 20
-3.607302706595762
 10
21.49242591654163
 20
5.693711960758865
 10
93.86146023419616
 20
5.693711960758866
  0
LWPOLYLINE
  5
A33E
330
4D7C
100
AcDbEntity
  8
ROUTE_T58CF3E1Z4
100
AcDbPolyline
 90
        4
 70
     0
 43
0.0
 10
177.635165608832
 20
-4.58903099408443
 10
239.7325854953992
 20
-0.1577131067183872
 10
239.7008869856824
 20
13.08285985636886
 10
211.394043283425
 20
28.66985252377389
  0
LWPOLYLINE
  5
A33F
330
4D7C
100
AcDbEntity
  8
ROUTE_T58CF3E1Z4
100
AcDbPolyline
 90
       18
 70
     0
 43
0.0
 10
199.1214828239653
 20
35.42766388218502
 10
167.3018546852029
 20
52.94895010170411
 42
0.1319030924265241
 10
156.2029371537691
 20
55.82503958920309
 10
119.5809796440464
 20
55.82897305751486
 42
-0.1271059874541828
 10
115.6476559552808
 20
57.0169778834874
 42
-0.0856318897030143
 10
113.186703589344
 20
59.17126599225958
 42
0.1282493899495931
 10
109.3440907611362
 20
61.53363865863666
 10
108.0924259165417
 20
61.53363869776922
 10
107.9424259857286
 20
61.53363870245888
 10
104.7924259165417
 20
61.53363880094177
 10
104.7924259165417
 20
61.53363870245888
 10
103.5417857192255
 20
61.53363870245888
 42
0.128543385124845
 10
99.6976295443258
 20
59.17062579755312
 42
-0.0856103171690008
 10
97.23719587780788
 20
57.01697788349068
 42
-0.12710598745425
 10
93.30387218903681
 20
55.82897305751487
 10
56.68191467931832
 20
55.82503958920309
 42
0.1319030924265533
 10
45.58299714783536
 20
52.94895010170544
 10
18.41832965578014
 20
37.99088987201338
  0
LWPOLYLINE
  5
A361
330
4D7C
100
AcDbEntity
  8
ROUTE_T58CF3E1Z4
100
AcDbPolyline
 90
       25
 70
     0
 43
0.0
 10
505.8758554059197
 20
-273.8896318347986
 10
505.8758554059197
 20
-222.632149266436
 10
451.0235687148237
 20
-198.1046808489703
 42
0.1239999069104654
 10
442.6276289839197
 20
-196.3158755684437
 10
442.6276289839197
 20
-199.0614726053685
 10
433.6078829171245
 20
-199.0614726053685
 10
433.6001356191243
 20
-211.0620391370685
 10
421.6790579927198
 20
-211.0620391370685
 10
421.6790579927198
 20
-232.4853309860685
 42
-0.414213562373095
 10
414.8290579927198
 20
-239.3353309860685
 10
325.0330552625197
 20
-239.3353309860685
 42
-0.414213562373095
 10
318.1830552625197
 20
-232.4853309860685
 10
318.1830552625197
 20
-211.0620391370685
 10
306.2619776360413
 20
-211.0620391370685
 10
306.2542303381414
 20
-199.0614726053685
 10
297.2344842713198
 20
-199.0614726053685
 10
297.2344842713198
 20
-196.3158755684437
 42
0.1239999069104661
 10
288.8385445404158
 20
-198.1046808489703
 10
233.9862578493197
 20
-222.632149266436
 10
233.9862578493197
 20
-265.8304437312309
 10
284.9810566276198
 20
-270.3207480286869
 10
284.9810566276198
 20
-260.6556330473685
 10
454.8810566276196
 20
-260.6556330473685
 10
454.8810566276196
 20
-270.3207480286869
 10
516.4119548500285
 20
-264.9026963188332
  0
LWPOLYLINE
  5
A462
330
4D7C
100
AcDbEntity
  8
ROUTE_T58CF3E1Z4
100
AcDbPolyline
 90
        5
 70
     0
 43
0.0
 10
254.9459726522218
 20
10.6949019102243
 10
254.9459726522218
 20
-83.26286313543099
 10
321.5691097434218
 20
-83.26286313543099
 10
380.0086956865121
 20
-83.26286313543099
 10
409.4013991892484
 20
20.5913559077252
  0
LWPOLYLINE
  5
A490
330
4D7C
100
AcDbEntity
  8
ROUTE_T58CF3E1Z4
100
AcDbPolyline
 90
        3
 70
     0
 43
0.0
 10
441.4829831693788
 20
-163.0589099319168
 10
501.3768246870919
 20
48.56599676401056
 10
479.191647631675
 20
40.39363629097902
  0
LWPOLYLINE
  5
A496
330
4D7C
100
AcDbEntity
  8
ROUTE_T58CF3E1Z4
100
AcDbPolyline
 90
        3
 70
     0
 43
0.0
 10
476.3494836734908
 20
-190.6458966021996
 10
491.2657613376161
 20
-122.1730791345006
 10
506.8176827009983
 20
-68.25486537935518
  0
LWPOLYLINE
  5
A49C
330
4D7C
100
AcDbEntity
  8
ROUTE_T58CF3E1Z4
100
AcDbPolyline
 90
        3
 70
     0
 43
0.0
 10
693.6518759793217
 20
-271.2488518132515
 10
693.6518759793217
 20
-202.2287178045784
 10
688.3194108013483
 20
-121.944320716145
  0
LWPOLYLINE
  5
A4A1
330
4D7C
100
AcDbEntity
  8
ROUTE_T58CF3E1Z4
100
AcDbPolyline
 90
        7
 70
     0
 43
0.0
 10
631.3498871558465
 20
-252.4142053822264
 10
631.3498871558465
 20
8.757354101111439
 10
567.3136022332994
 20
-14.02192430554677
 10
560.0498871558466
 20
-22.0767609967484
 10
560.0498871558466
 20
-201.3186224442924
 10
567.3136022333018
 20
-209.3734591355057
 10
642.6648509592872
 20
-236.1777479074893
  0
LWPOLYLINE
  5
A4CC
330
4D7C
100
AcDbEntity
  8
ROUTE_T58CF3E1Z4
100
AcDbPolyline
 90
       33
 70
     0
 43
0.0
 10
821.3031327743219
 20
210.1909375839764
 10
821.3031327743219
 20
273.2464499294209
 10
776.286343140921
 20
295.3304326747691
 10
756.9766220472263
 20
295.3304326747691
 10
756.9688747492264
 20
283.329866143069
 10
751.2424198546273
 20
283.329866143069
 10
751.2501671525274
 20
295.3304326747691
 10
725.9979618405217
 20
295.3304326747691
 10
725.9979618405217
 20
286.330007775969
 10
700.9979619081217
 20
286.330007775969
 10
700.9979619081217
 20
280.752942896169
 42
-0.414213562373095
 10
694.1479619081217
 20
273.902942896169
 10
674.1479617729218
 20
273.902942896169
 42
-0.414213562373095
 10
667.2979617729218
 20
280.752942896169
 10
667.2979617729218
 20
286.330007775969
 10
642.2979618405218
 20
286.330007775969
 10
642.2979618405218
 20
295.3304326747691
 10
617.0457565285163
 20
295.3304326747691
 10
617.0535038264163
 20
283.329866143069
 10
611.3270489318171
 20
283.329866143069
 10
611.3193016338171
 20
295.3304326747691
 10
592.0095805401227
 20
295.3304326747691
 10
546.9927909067218
 20
273.2464499294209
 10
546.9927909067218
 20
226.0621134859836
 10
599.1979618405218
 20
220.5744893001635
 10
599.1979618405218
 20
252.602942896169
 10
602.2979618405218
 20
252.602942896169
 10
602.2979618405218
 20
253.9918263096691
 10
765.9979618405217
 20
253.9918263096691
 10
765.9979618405217
 20
252.602942896169
 10
769.0979618405219
 20
252.602942896169
 10
769.0979618405219
 20
220.5744893001635
 10
831.8012845282583
 20
227.1656423211706
  0
LWPOLYLINE
  5
A611
330
4D7C
100
AcDbEntity
  8
ROUTE_T58CF3E1Z4
100
AcDbPolyline
 90
       33
 70
     0
 43
0.0
 10
848.5275815754951
 20
148.107719872169
 10
802.6289554236217
 20
148.107719872169
 10
802.6289554236217
 20
145.107578239269
 10
787.6289554236217
 20
145.107578239269
 10
787.6289554236217
 20
90.65426437236901
 10
787.6289554236217
 20
22.754726054369
 10
787.6289554236217
 20
-47.04410004873097
 10
787.6289554236217
 20
-112.569528635331
 10
787.6289554236217
 20
-176.195669436831
 10
787.6289554236217
 20
-213.540518181331
 42
-0.414213562373095
 10
784.7789554236217
 20
-216.390518181331
 10
736.7789554236217
 20
-216.390518181331
 42
-0.414213562373095
 10
733.9289554236217
 20
-213.540518181331
 10
733.9289554236217
 20
-179.495527803831
 10
733.9289554236217
 20
-115.869387002431
 10
733.9289554236217
 20
-50.343958415831
 10
733.9289554236217
 20
19.45486768726899
 10
733.9289554236217
 20
87.35440600526903
 10
733.9289554236217
 20
145.107578239269
 10
718.9289554236217
 20
145.107578239269
 10
718.9289554236217
 20
148.107719872169
 10
689.2079563863823
 20
148.107719872169
 42
0.241102910705502
 10
684.4653397523458
 20
137.1006762430625
 10
708.8827757996748
 20
-230.4122777680013
 42
0.3949132166287945
 10
722.0038479823218
 20
-242.6905181813312
 10
733.9289554236217
 20
-242.690518181331
 10
733.9289554236217
 20
-240.121526972431
 10
787.6289554236217
 20
-240.121526972431
 10
787.6289554236217
 20
-242.690518181331
 10
799.5540628648218
 20
-242.690518181331
 42
0.3949132166287945
 10
812.6751350474988
 20
-230.4122777680186
 10
837.0925710948693
 20
137.1006762431048
 42
0.3719061557520117
 10
826.7502439237873
 20
150.8254929042694
 42
0.07759580779545
  0
LWPOLYLINE
  5
A624
330
4D7C
100
AcDbEntity
  8
ROUTE_T58CF3E1Z4
100
AcDbPolyline
 90
        2
 70
     0
 43
0.0
 10
430.9683532241452
 20
-135.198315481063
 10
460.6938669916409
 20
-163.0589099319169
  0
LWPOLYLINE
  5
A625
330
4D7C
100
AcDbEntity
  8
ROUTE_T58CF3E1Z4
100
AcDbPolyline
 90
        4
 70
     0
 43
0.0
 10
466.4595201474683
 20
35.70349858643799
 10
447.6577059744019
 20
28.77746853558772
 10
407.4800413037978
 20
-113.1836133007587
 10
420.7536194161457
 20
-125.6244336543579
  0
LWPOLYLINE
  5
A629
330
4D7C
100
AcDbEntity
  8
ROUTE_T58CF3E1Z4
100
AcDbPolyline
 90
        3
 70
     0
 43
0.0
 10
413.213913710434
 20
34.06224054926778
 10
418.3190577060888
 20
52.10041600060793
 10
242.4788013982602
 20
-12.67391312136673
  0
LWPOLYLINE
  5
A634
330
4D7C
100
AcDbEntity
  8
ROUTE_T58CF3E1Z4
100
AcDbPolyline
 90
        6
 70
     0
 43
0.0
 10
558.4331415125473
 20
110.6949425732346
 10
583.5042352827794
 20
197.6159448978434
 10
607.1847799718211
 20
192.4578133941007
 10
605.5951054897384
 20
185.1597525390013
 42
0.2657356792392348
 10
600.715107803824
 20
180.422878293935
 10
587.5049872859524
 20
134.6236410563545
  0
LWPOLYLINE
  5
A635
330
4D7C
100
AcDbEntity
  8
ROUTE_T58CF3E1Z4
100
AcDbPolyline
 90
        2
 70
     0
 43
0.0
 10
583.625062979436
 20
121.1720170883829
 10
521.4223215124075
 20
-94.48370758288036
  0
LWPOLYLINE
  5
A636
330
4D7C
100
AcDbEntity
  8
ROUTE_T58CF3E1Z4
100
AcDbPolyline
 90
        2
 70
     0
 43
0.0
 10
510.6976071795431
 20
-54.8032414610029
 10
554.5532170340024
 20
97.2433186548822
  0
LWPOLYLINE
  5
A637
330
4D7C
100
AcDbEntity
  8
ROUTE_T58CF3E1Z4
100
AcDbPolyline
 90
        5
 70
     0
 43
0.0
 10
517.5423972058913
 20
-107.9353315508517
 10
498.6389541007678
 20
-173.4732101952889
 42
0.2127238959442578
 10
499.4081731207032
 20
-178.9961997583458
 42
-0.6633683811289204
 10
496.0648371765475
 20
-183.7408093148601
 10
464.9710655471344
 20
-176.9675854503031
  0
LWPOLYLINE
  5
A63E
330
4D7C
100
AcDbEntity
  8
ROUTE_T58CF3E1Z4
100
AcDbPolyline
 90
        2
 70
     0
 43
0.0
 10
655.6616139890299
 20
48.32581610930946
 10
668.4916623281523
 20
-144.8405451042178
  0
LWPOLYLINE
  5
A63F
330
4D7C
100
AcDbEntity
  8
ROUTE_T58CF3E1Z4
100
AcDbPolyline
 90
        6
 70
     0
 43
0.0
 10
678.5601558806211
 20
24.98882768571355
 10
671.5942943239371
 20
129.8652734972934
 10
647.3584836886972
 20
129.8657555681168
 10
647.358335120275
 20
122.3965683846512
 42
-0.2657356792392337
 10
651.1182609782985
 20
116.7295310131256
 10
654.733782782988
 20
62.29503689119628
  0
LWPOLYLINE
  5
A640
330
4D7C
100
AcDbEntity
  8
ROUTE_T58CF3E1Z4
100
AcDbPolyline
 90
        5
 70
     0
 43
0.0
 10
669.4194935341942
 20
-158.8097658861045
 10
675.5283868767254
 20
-250.7839086818134
 42
-0.2127238959442578
 10
673.6012240071811
 20
-256.016609216768
 42
0.6633683811289213
 10
675.8580545770864
 20
-261.3641255428761
 10
704.6934819690646
 20
-261.364236918743
  0
LWPOLYLINE
  5
A641
330
4D7C
100
AcDbEntity
  8
ROUTE_T58CF3E1Z4
100
AcDbPolyline
 90
        2
 70
     0
 43
0.0
 10
687.3915794166584
 20
-107.9750999461241
 10
679.4879872653111
 20
11.01960691569255
  0
ENDSEC
  0
SECTION
  2
OBJECTS
  0
DICTIONARY
  5
4D6C
330
0
100
AcDbDictionary
281
     1
  3
ACAD_DETAILVIEWSTYLE
350
50C1
  3
ACAD_GROUP
350
4D6D
  3
ACAD_IMAGE_VARS
350
4DE0
  3
ACAD_LAYOUT
350
4D79
  3
ACAD_MATERIAL
350
4D83
  3
ACAD_MLEADERSTYLE
350
4DDC
  3
ACAD_MLINESTYLE
350
4D76
  3
ACAD_PLOTSETTINGS
350
4D78
  3
ACAD_PLOTSTYLENAME
350
4D6E
  3
ACAD_SCALELIST
350
4D9F
  3
ACAD_SECTIONVIEWSTYLE
350
50C2
  3
ACAD_TABLESTYLE
350
4DDA
  3
ACAD_VISUALSTYLE
350
4DC1
  3
ACDB_RECOMPOSE_DATA
350
A659
  3
AcDbVariableDictionary
350
50B9
  3
APPDATA
350
4DDE
  0
SUN
  5
4DDF
330
4D7F
100
AcDbSun
 90
        1
290
     0
 63
     7
421
 16777215
 40
1.0
291
     1
 91
  2455826
 92
 54000000
292
     0
 70
     2
 71
   256
280
     1
  0
DICTIONARY
  5
4FAF
330
4D62
100
AcDbDictionary
280
     1
281
     1
  3
ACAD_LAYERSTATES
360
4FB0
  3
ACLYDICTIONARY
360
A61A
  0
DICTIONARY
  5
6731
330
4D7C
100
AcDbDictionary
280
     1
281
     1
  3
ACAD_SORTENTS
360
6732
  0
DICTIONARY
  5
50C1
102
{ACAD_REACTORS
330
4D6C
102
}
330
4D6C
100
AcDbDictionary
281
     1
  0
DICTIONARY
  5
4D6D
102
{ACAD_REACTORS
330
4D6C
102
}
330
4D6C
100
AcDbDictionary
281
     1
  0
RASTERVARIABLES
  5
4DE0
102
{ACAD_REACTORS
330
4D6C
102
}
330
4D6C
100
AcDbRasterVariables
 90
        0
 70
     1
 71
     1
 72
     0
  0
DICTIONARY
  5
4D79
102
{ACAD_REACTORS
330
4D6C
102
}
330
4D6C
100
AcDbDictionary
281
     1
  3
Model
350
4D7D
  3
Sheet 1
350
4D7B
  0
DICTIONARY
  5
4D83
102
{ACAD_REACTORS
330
4D6C
102
}
330
4D6C
100
AcDbDictionary
281
     1
  3
ByBlock
350
4D85
  3
ByLayer
350
4D84
  3
Global
350
4D86
  0
DICTIONARY
  5
4DDC
102
{ACAD_REACTORS
330
4D6C
102
}
330
4D6C
100
AcDbDictionary
281
     1
  3
Standard
350
4DDD
  0
DICTIONARY
  5
4D76
102
{ACAD_REACTORS
330
4D6C
102
}
330
4D6C
100
AcDbDictionary
281
     1
  3
Standard
350
4D77
  0
DICTIONARY
  5
4D78
102
{ACAD_REACTORS
330
4D6C
102
}
330
4D6C
100
AcDbDictionary
281
     1
  0
ACDBDICTIONARYWDFLT
  5
4D6E
102
{ACAD_REACTORS
330
4D6C
102
}
330
4D6C
100
AcDbDictionary
281
     1
  3
Normal
350
4D6F
100
AcDbDictionaryWithDefault
340
4D6F
  0
DICTIONARY
  5
4D9F
102
{ACAD_REACTORS
330
4D6C
102
}
330
4D6C
100
AcDbDictionary
281
     1
  3
A0
350
4DA0
  3
A1
350
4DA1
  3
A2
350
4DA2
  3
A3
350
4DA3
  3
A4
350
4DA4
  3
A5
350
4DA5
  3
A6
350
4DA6
  3
A7
350
4DA7
  3
A8
350
4DA8
  3
A9
350
4DA9
  3
B0
350
4DAA
  3
B1
350
4DAB
  3
B2
350
4DAC
  3
B3
350
4DAD
  3
B4
350
4DAE
  3
B5
350
4DAF
  3
B6
350
4DB0
  3
B7
350
4DB1
  3
B8
350
4DB2
  3
B9
350
4DB3
  3
C0
350
4DB4
  3
C1
350
4DB5
  3
C2
350
4DB6
  3
C3
350
4DB7
  3
C4
350
4DB8
  3
C5
350
4DB9
  3
C6
350
4DBA
  3
C7
350
4DBB
  3
C8
350
4DBC
  3
C9
350
4DBD
  3
D0
350
4DBE
  3
D1
350
4DBF
  3
D2
350
4DC0
  0
DICTIONARY
  5
50C2
102
{ACAD_REACTORS
330
4D6C
102
}
330
4D6C
100
AcDbDictionary
281
     1
  0
DICTIONARY
  5
4DDA
102
{ACAD_REACTORS
330
4D6C
102
}
330
4D6C
100
AcDbDictionary
281
     1
  3
Standard
350
4DDB
  0
DICTIONARY
  5
4DC1
102
{ACAD_REACTORS
330
4D6C
102
}
330
4D6C
100
AcDbDictionary
281
     1
  3
2dWireframe
350
4DC6
  3
Basic
350
4DC9
  3
Brighten
350
4DCD
  3
ColorChange
350
4DD1
  3
Conceptual
350
4DCB
  3
Dim
350
4DCC
  3
EdgeColorOff
350
4DD4
  3
Facepattern
350
4DD0
  3
Flat
350
4DC2
  3
FlatWithEdges
350
4DC3
  3
Gouraud
350
4DC4
  3
GouraudWithEdges
350
4DC5
  3
Hidden
350
4DC8
  3
JitterOff
350
4DD2
  3
Linepattern
350
4DCF
  3
OverhangOff
350
4DD3
  3
Realistic
350
4DCA
  3
Shaded
350
4DD9
  3
Shaded with edges
350
4DD8
  3
Shades of Gray
350
4DD5
  3
Sketchy
350
4DD6
  3
Thicken
350
4DCE
  3
Wireframe
350
4DC7
  3
X-Ray
350
4DD7
  0
XRECORD
  5
A659
102
{ACAD_REACTORS
330
4D6C
102
}
330
4D6C
100
AcDbXrecord
280
     1
 90
        1
330
4DDB
  0
DICTIONARY
  5
50B9
102
{ACAD_REACTORS
330
4D6C
102
}
330
4D6C
100
AcDbDictionary
281
     1
  3
CANNOSCALE
350
50BA
  3
CMLEADERSTYLE
350
50BF
  3
CTABLESTYLE
350
50BE
  3
HPTRANSPARENCY
350
A621
  3
MSLTSCALE
350
50C0
  0
DICTIONARY
  5
4DDE
102
{ACAD_REACTORS
330
4D6C
102
}
330
4D6C
100
AcDbDictionary
281
     1
  0
DICTIONARY
  5
4FB0
102
{ACAD_REACTORS
330
4FAF
102
}
330
4FAF
100
AcDbDictionary
281
     1
  3
ARGON_LAYERP_1
350
4FB1
  3
ARGON_LAYERP_10
350
6950
  3
ARGON_LAYERP_11
350
A619
  3
ARGON_LAYERP_12
350
A648
  3
ARGON_LAYERP_13
350
A649
  3
ARGON_LAYERP_14
350
A64A
  3
ARGON_LAYERP_15
350
A64B
  3
ARGON_LAYERP_16
350
A64C
  3
ARGON_LAYERP_17
350
A64D
  3
ARGON_LAYERP_18
350
A64E
  3
ARGON_LAYERP_19
350
A64F
  3
ARGON_LAYERP_2
350
50CE
  3
ARGON_LAYERP_20
350
A650
  3
ARGON_LAYERP_21
350
A651
  3
ARGON_LAYERP_3
350
50DD
  3
ARGON_LAYERP_4
350
50E5
  3
ARGON_LAYERP_5
350
6864
  3
ARGON_LAYERP_6
350
68A9
  3
ARGON_LAYERP_7
350
68AE
  3
ARGON_LAYERP_8
350
68B2
  3
ARGON_LAYERP_9
350
6942
  0
DICTIONARY
  5
A61A
102
{ACAD_REACTORS
330
4FAF
102
}
330
4FAF
100
AcDbDictionary
281
     1
1001
ACAD
1000
<All
  0
SORTENTSTABLE
  5
6732
102
{ACAD_REACTORS
330
6731
102
}
330
6731
100
AcDbSortentsTable
330
4D7C
331
0
  5
C56
331
C83
  5
C94
331
C84
  5
C95
331
C85
  5
C96
331
C87
  5
C98
331
C88
  5
C99
331
C89
  5
C9A
331
C8B
  5
C9C
331
C8C
  5
C9D
331
C8D
  5
C9E
331
C8F
  5
CA0
331
C90
  5
CA3
331
C91
  5
CA4
331
C93
  5
CA6
331
C94
  5
CA7
331
C95
  5
CA8
331
C97
  5
CAA
331
C98
  5
CAB
331
C99
  5
CAC
331
C9B
  5
CAE
331
C9C
  5
CAF
331
C9D
  5
CB0
331
CA3
  5
CB4
331
CA4
  5
CB5
331
CA5
  5
CB6
331
CA6
  5
CB7
331
CA7
  5
CB8
331
CA8
  5
CB9
331
CA9
  5
CBA
331
CAA
  5
CBB
331
CAB
  5
CBC
331
CAC
  5
CBD
331
CAD
  5
CBE
331
CAE
  5
CBF
331
CAF
  5
CC0
331
CB0
  5
CC1
331
CB1
  5
CC2
331
CB2
  5
CC3
331
CB3
  5
CC4
331
CB4
  5
CC5
331
CB5
  5
CC6
331
CB6
  5
CC7
331
CB7
  5
CC8
331
CB8
  5
CC9
331
CB9
  5
CCA
331
CBA
  5
CCB
331
CBB
  5
CCC
331
CBC
  5
CCD
331
CBD
  5
CCE
331
CBE
  5
CCF
331
CBF
  5
CD0
331
CC0
  5
CD1
331
CC1
  5
CD2
331
CC2
  5
CD3
331
CC3
  5
CD4
331
CC4
  5
CD5
331
CC5
  5
CD6
331
CC6
  5
CD7
331
CC7
  5
CD8
331
CC8
  5
CD9
331
CC9
  5
CDA
331
CCA
  5
CDB
331
0
  5
CDC
331
0
  5
CDD
331
0
  5
CDE
331
0
  5
CDF
331
0
  5
CE0
331
0
  5
CE1
331
0
  5
CE2
331
0
  5
CE3
331
CD3
  5
CE4
331
CD4
  5
CE5
331
0
  5
CE6
331
0
  5
CE7
331
CD7
  5
CE8
331
CD8
  5
CE9
331
CD9
  5
CEA
331
0
  5
CEB
331
0
  5
CEC
331
0
  5
CED
331
0
  5
CEE
331
0
  5
CEF
331
0
  5
CF0
331
0
  5
CF1
331
0
  5
CF2
331
0
  5
CF3
331
0
  5
CF4
331
0
  5
CF5
331
0
  5
CF6
331
0
  5
CF7
331
0
  5
CF8
331
0
  5
CF9
331
0
  5
CFA
331
0
  5
CFC
331
0
  5
CFD
331
0
  5
CFE
331
0
  5
D01
331
0
  5
D02
331
0
  5
D03
331
0
  5
D04
331
0
  5
D05
331
0
  5
D06
331
0
  5
D07
331
0
  5
D08
331
0
  5
D09
331
0
  5
D0A
331
0
  5
D0B
331
0
  5
D0C
331
0
  5
D0D
331
0
  5
D0E
331
0
  5
D0F
331
0
  5
D10
331
0
  5
D11
331
0
  5
D12
331
0
  5
D13
331
0
  5
D16
331
0
  5
D17
331
0
  5
D18
331
0
  5
D1A
331
0
  5
D1B
331
0
  5
D1C
331
0
  5
D1D
331
0
  5
D1E
331
0
  5
D1F
331
0
  5
D20
331
0
  5
D21
331
0
  5
D22
331
0
  5
D23
331
0
  5
D24
331
0
  5
D25
331
0
  5
D26
331
0
  5
D27
331
0
  5
D28
331
0
  5
D29
331
0
  5
D2A
331
D1A
  5
D2B
331
D1B
  5
D2C
331
D1C
  5
D2D
331
D1D
  5
D2E
331
D1E
  5
D2F
331
D1F
  5
D30
331
D20
  5
D31
331
D21
  5
D32
331
D22
  5
D33
331
D23
  5
D34
331
D24
  5
D35
331
D25
  5
D36
331
D26
  5
D37
331
D27
  5
D38
331
D28
  5
D39
331
D29
  5
D3A
331
D2A
  5
D3B
331
D2B
  5
D3C
331
D2C
  5
D3D
331
D2D
  5
D3E
331
D2E
  5
D3F
331
D2F
  5
D42
331
D30
  5
D43
331
D31
  5
D45
331
D32
  5
D46
331
D33
  5
D47
331
D34
  5
D48
331
D35
  5
D49
331
D36
  5
D4A
331
D37
  5
D4B
331
D38
  5
D4C
331
D39
  5
D4D
331
D3A
  5
D4E
331
D3B
  5
D4F
331
D3C
  5
D50
331
D3D
  5
D51
331
D3E
  5
D52
331
D3F
  5
D53
331
D42
  5
D54
331
D47
  5
D58
331
D48
  5
D59
331
D49
  5
D5A
331
D4A
  5
D5B
331
D4B
  5
D5C
331
D4C
  5
D5D
331
D4D
  5
D5E
331
D4E
  5
D5F
331
D4F
  5
D60
331
D50
  5
D61
331
D51
  5
D62
331
D52
  5
D63
331
D53
  5
D64
331
D54
  5
D65
331
D7F
  5
D92
331
0
  5
D95
331
0
  5
D96
331
0
  5
D99
331
0
  5
D9A
331
0
  5
D9B
331
0
  5
D9C
331
0
  5
D9D
331
0
  5
D9E
331
0
  5
D9F
331
0
  5
DA0
331
0
  5
DA2
331
0
  5
DA3
331
0
  5
DA6
331
0
  5
DA7
331
0
  5
DA8
331
0
  5
DA9
331
0
  5
DAA
331
D9A
  5
DAB
331
D9B
  5
DAC
331
DB9
  5
DCA
331
DBA
  5
DCB
331
DBB
  5
DCC
331
0
  5
DCD
331
0
  5
DCE
331
0
  5
DCF
331
0
  5
DD0
331
0
  5
DD1
331
0
  5
DD2
331
0
  5
DD3
331
0
  5
DD4
331
0
  5
DD5
331
0
  5
DD6
331
0
  5
DD7
331
0
  5
DD8
331
0
  5
DD9
331
0
  5
DDA
331
0
  5
DDB
331
0
  5
DDC
331
0
  5
DDD
331
0
  5
DDF
331
0
  5
DE0
331
0
  5
DE1
331
0
  5
DE3
331
0
  5
DE4
331
0
  5
DE5
331
0
  5
DE6
331
0
  5
DE7
331
0
  5
DE8
331
0
  5
DE9
331
0
  5
DEB
331
0
  5
DEC
331
0
  5
DED
331
DDE
  5
DEF
331
DDF
  5
DF0
331
DF5
  5
E06
331
DFE
  5
E0F
331
DFF
  5
E10
331
0
  5
E11
331
0
  5
E12
331
0
  5
E13
331
0
  5
E15
331
0
  5
E16
331
0
  5
E17
331
0
  5
E18
331
0
  5
E19
331
0
  5
E1A
331
0
  5
E1B
331
0
  5
E1D
331
0
  5
E1E
331
0
  5
E1F
331
0
  5
E21
331
0
  5
E22
331
0
  5
E23
331
0
  5
E24
331
0
  5
E25
331
0
  5
E26
331
0
  5
E27
331
0
  5
E28
331
0
  5
E29
331
0
  5
E2A
331
0
  5
E2B
331
0
  5
E2C
331
0
  5
E2D
331
0
  5
E2E
331
0
  5
E2F
331
E20
  5
E31
331
E21
  5
E32
331
E32
  5
E43
331
0
  5
E44
331
0
  5
E45
331
0
  5
E47
331
0
  5
E48
331
0
  5
E49
331
0
  5
E4A
331
0
  5
E4B
331
0
  5
E4C
331
0
  5
E4D
331
0
  5
E4F
331
0
  5
E50
331
0
  5
E51
331
0
  5
E53
331
0
  5
E54
331
0
  5
E55
331
0
  5
E56
331
0
  5
E57
331
0
  5
E58
331
0
  5
E59
331
0
  5
E5A
331
0
  5
E5B
331
0
  5
E5C
331
0
  5
E5D
331
0
  5
E5E
331
0
  5
E5F
331
0
  5
E60
331
0
  5
E61
331
0
  5
E63
331
E53
  5
E64
331
E54
  5
E65
331
E5D
  5
E6E
331
E5E
  5
E6F
331
E5F
  5
E70
331
E60
  5
E71
331
E61
  5
E72
331
E62
  5
E73
331
E63
  5
E74
331
E68
  5
E79
331
0
  5
E7E
331
0
  5
E80
331
0
  5
E81
331
0
  5
E84
331
0
  5
E85
331
0
  5
E86
331
0
  5
E89
331
0
  5
E8A
331
0
  5
E8C
331
0
  5
E8D
331
0
  5
E8E
331
0
  5
E90
331
0
  5
E91
331
0
  5
E92
331
0
  5
E93
331
0
  5
E94
331
0
  5
E95
331
0
  5
E96
331
0
  5
E98
331
0
  5
E99
331
E89
  5
E9A
331
E8A
  5
E9B
331
E8B
  5
E9C
331
E8C
  5
E9D
331
E8D
  5
E9E
331
E8E
  5
E9F
331
E8F
  5
EA0
331
E90
  5
EA1
331
E91
  5
EA2
331
E92
  5
EA3
331
E93
  5
EA4
331
E9C
  5
EAD
331
E9D
  5
EAE
331
0
  5
EAF
331
0
  5
EB0
331
0
  5
EB1
331
0
  5
EB2
331
0
  5
EB3
331
0
  5
EB4
331
0
  5
EB5
331
0
  5
EB6
331
0
  5
EB7
331
0
  5
EB8
331
0
  5
EB9
331
0
  5
EBA
331
0
  5
EBB
331
0
  5
EBC
331
0
  5
EBD
331
0
  5
EBF
331
0
  5
EC0
331
0
  5
EC1
331
0
  5
EC3
331
0
  5
EC4
331
0
  5
EC5
331
0
  5
EC6
331
0
  5
EC7
331
0
  5
EC8
331
0
  5
EC9
331
0
  5
ECB
331
0
  5
ECC
331
0
  5
ECD
331
EC6
  5
ED7
331
EC7
  5
ED8
331
EC8
  5
ED9
331
EC9
  5
EDA
331
ECA
  5
EDB
331
ECB
  5
EDC
331
ECC
  5
EDD
331
ECD
  5
EDE
331
ECE
  5
EDF
331
ECF
  5
EE0
331
ED0
  5
EE1
331
ED1
  5
EE2
331
0
  5
EE4
331
0
  5
EE6
331
0
  5
EE7
331
0
  5
EE8
331
0
  5
EE9
331
0
  5
EEA
331
0
  5
EEB
331
0
  5
EEC
331
0
  5
EEE
331
0
  5
EF0
331
0
  5
EF4
331
0
  5
EF5
331
0
  5
EF6
331
0
  5
EFA
331
EEA
  5
EFB
331
0
  5
EFC
331
0
  5
EFD
331
0
  5
EFE
331
0
  5
EFF
331
0
  5
F00
331
0
  5
F01
331
0
  5
F02
331
0
  5
F03
331
EF3
  5
F04
331
EF4
  5
F05
331
0
  5
F06
331
0
  5
F07
331
0
  5
F08
331
0
  5
F09
331
0
  5
F0A
331
0
  5
F0D
331
0
  5
F0E
331
0
  5
F10
331
0
  5
F12
331
0
  5
F13
331
0
  5
F14
331
0
  5
F15
331
0
  5
F16
331
0
  5
F17
331
0
  5
F18
331
0
  5
F1A
331
0
  5
F1C
331
0
  5
F1D
331
0
  5
F3E
331
0
  5
F3F
331
0
  5
F40
331
0
  5
F41
331
0
  5
F42
331
0
  5
F43
331
0
  5
F44
331
0
  5
F45
331
0
  5
F46
331
0
  5
F47
331
0
  5
F48
331
0
  5
F49
331
0
  5
F4A
331
0
  5
F4B
331
0
  5
F4C
331
0
  5
F4D
331
0
  5
F4E
331
0
  5
F4F
331
0
  5
F50
331
0
  5
F51
331
0
  5
F52
331
0
  5
F53
331
0
  5
F54
331
0
  5
F55
331
0
  5
F56
331
0
  5
F57
331
0
  5
F58
331
0
  5
F59
331
0
  5
F5A
331
0
  5
F5B
331
0
  5
F5C
331
0
  5
F5D
331
0
  5
F5E
331
0
  5
F5F
331
0
  5
F60
331
0
  5
F61
331
0
  5
F62
331
0
  5
F63
331
0
  5
F64
331
0
  5
F65
331
0
  5
F66
331
0
  5
F67
331
0
  5
F68
331
0
  5
F69
331
0
  5
F6A
331
0
  5
F6B
331
0
  5
F6C
331
0
  5
F6D
331
0
  5
F6E
331
0
  5
F6F
331
0
  5
F70
331
0
  5
F71
331
0
  5
F72
331
0
  5
F73
331
0
  5
F74
331
0
  5
F75
331
0
  5
F76
331
0
  5
F77
331
0
  5
F78
331
0
  5
F79
331
0
  5
F7A
331
0
  5
F7B
331
F6B
  5
F7C
331
F6C
  5
F7D
331
F6D
  5
F7E
331
F6E
  5
F80
331
F6F
  5
F81
331
F70
  5
F82
331
F71
  5
F83
331
F72
  5
F84
331
F73
  5
F85
331
F74
  5
F86
331
F75
  5
F87
331
F76
  5
F88
331
F77
  5
F89
331
F78
  5
F8A
331
F79
  5
F8B
331
F7A
  5
F8C
331
F7B
  5
F8D
331
F7C
  5
F8E
331
F7D
  5
F8F
331
F7E
  5
F90
331
0
  5
FAD
331
0
  5
FAE
331
0
  5
FB0
331
0
  5
FB1
331
0
  5
FB2
331
0
  5
FB4
331
0
  5
FB6
331
0
  5
FB7
331
FA0
  5
FB8
331
FA6
  5
FBB
331
FA7
  5
FBC
331
FA8
  5
FBD
331
FA9
  5
FBE
331
FAB
  5
FBF
331
FAC
  5
FC0
331
FAD
  5
FC8
331
FAE
  5
FCC
331
FB0
  5
4EE9
331
FB1
  5
4EEA
331
FB2
  5
4EEB
331
FB4
  5
4FAE
331
FB6
  5
4FB3
331
FB7
  5
4FB4
331
FB8
  5
4FB5
331
FB9
  5
4FB6
331
FBA
  5
4FB7
331
FBB
  5
4FB8
331
FBC
  5
4FB9
331
FBD
  5
4FBA
331
FBE
  5
4FBB
331
FBF
  5
4FBC
331
FC0
  5
4FBD
331
FC8
  5
4FBE
331
50C3
  5
50D7
331
50D1
  5
50FB
331
50D2
  5
50FC
331
50D3
  5
50FD
331
50D4
  5
50FE
331
50D5
  5
50FF
331
50D6
  5
5100
331
50D7
  5
5101
331
50D8
  5
5102
331
50EC
  5
5103
331
50ED
  5
5104
331
50F6
  5
5107
331
50F7
  5
5108
331
50F8
  5
5109
331
50F9
  5
510A
331
50FA
  5
510B
331
50FB
  5
510C
331
50FC
  5
510D
331
50FD
  5
510E
331
50FE
  5
510F
331
50FF
  5
5110
331
5100
  5
5111
331
5101
  5
5112
331
5102
  5
5113
331
5103
  5
5114
331
5104
  5
5115
331
5105
  5
5116
331
5106
  5
5117
331
5107
  5
5118
331
5108
  5
5119
331
5109
  5
511A
331
510A
  5
511B
331
510B
  5
511C
331
510C
  5
511D
331
510D
  5
511E
331
510E
  5
511F
331
510F
  5
5120
331
5110
  5
5121
331
5111
  5
5122
331
5112
  5
5123
331
5113
  5
5124
331
5114
  5
5125
331
5115
  5
5126
331
5116
  5
5127
331
5117
  5
5128
331
5118
  5
5129
331
5119
  5
512A
331
511A
  5
512B
331
511B
  5
512C
331
511C
  5
512D
331
511D
  5
512E
331
511E
  5
512F
331
511F
  5
5130
331
5120
  5
5131
331
5121
  5
5132
331
5122
  5
5133
331
5123
  5
5134
331
5124
  5
5135
331
5125
  5
5136
331
5126
  5
5137
331
5127
  5
5138
331
5128
  5
5139
331
5129
  5
513A
331
512A
  5
513B
331
5134
  5
514C
331
5135
  5
514D
331
5136
  5
548B
331
5137
  5
5799
331
5138
  5
5DAF
331
5139
  5
5DB0
331
513A
  5
5DB1
331
513B
  5
5DB2
331
513C
  5
5DB3
331
513D
  5
5DB4
331
5DB0
  5
5DC1
331
5DB1
  5
5DC2
331
6683
  5
674C
331
6733
  5
C55
331
6734
  5
C54
331
6735
  5
C53
331
6736
  5
C52
331
6737
  5
C51
331
6738
  5
C50
331
6763
  5
676D
331
6764
  5
676E
331
6765
  5
676F
331
6766
  5
6770
331
6767
  5
6771
331
6768
  5
6772
331
6769
  5
677F
331
676C
  5
678D
331
676D
  5
678E
331
676E
  5
678F
331
677F
  5
67E8
331
67E8
  5
680D
331
680A
  5
6817
331
680B
  5
6818
331
680C
  5
6819
331
680D
  5
681A
331
680E
  5
681B
331
680F
  5
681C
331
6810
  5
681D
331
6814
  5
681E
331
6815
  5
681F
331
6816
  5
6820
331
6817
  5
6821
331
6818
  5
6822
331
6819
  5
6823
331
681A
  5
6824
331
681B
  5
6825
331
681C
  5
6826
331
681D
  5
6827
331
681E
  5
6828
331
681F
  5
6829
331
6820
  5
682A
331
6821
  5
682B
331
6822
  5
682F
331
6823
  5
6830
331
6824
  5
6831
331
6825
  5
6832
331
6826
  5
6833
331
6827
  5
6834
331
6828
  5
6835
331
6829
  5
6836
331
682A
  5
6837
331
682B
  5
6838
331
682F
  5
6839
331
6831
  5
683E
331
6832
  5
6842
331
6833
  5
6843
331
6834
  5
6847
331
6835
  5
6848
331
6836
  5
6849
331
6837
  5
684A
331
6838
  5
684E
331
6839
  5
684F
331
683D
  5
6850
331
683E
  5
6851
331
6842
  5
6852
331
6843
  5
6853
331
6847
  5
6854
331
6848
  5
6855
331
6849
  5
6856
331
684A
  5
6857
331
684E
  5
6858
331
684F
  5
6859
331
6850
  5
685A
331
6851
  5
685B
331
6852
  5
685C
331
6853
  5
685D
331
6854
  5
685E
331
6855
  5
685F
331
6856
  5
6860
331
6857
  5
6861
331
6858
  5
6862
331
6859
  5
6863
331
685A
  5
6865
331
685B
  5
6866
331
685C
  5
6867
331
685D
  5
6868
331
685E
  5
6869
331
685F
  5
686D
331
6860
  5
686E
331
6861
  5
6872
331
6865
  5
C4E
331
6866
  5
6878
331
6867
  5
6879
331
6868
  5
6880
331
6869
  5
6881
331
686D
  5
6885
331
686E
  5
6886
331
6872
  5
688A
331
6876
  5
688B
331
6877
  5
688C
331
6878
  5
6890
331
6879
  5
6891
331
6880
  5
6892
331
6881
  5
6893
331
0
  5
689B
331
6893
  5
689F
331
6896
  5
68A8
331
689A
  5
68AA
331
689B
  5
68AB
331
689C
  5
68AC
331
689D
  5
68AD
331
689E
  5
68AF
331
689F
  5
68B0
331
68A6
  5
68B1
331
68A7
  5
68B3
331
0
  5
68B8
331
68B0
  5
68BA
331
0
  5
68BB
331
0
  5
68BC
331
0
  5
68BD
331
0
  5
68C1
331
0
  5
68C2
331
0
  5
68C3
331
0
  5
68C4
331
0
  5
68C5
331
0
  5
68C6
331
0
  5
68CA
331
0
  5
68CB
331
0
  5
68CC
331
0
  5
68D7
331
0
  5
68D8
331
0
  5
68DC
331
0
  5
68DD
331
0
  5
68E7
331
0
  5
68E8
331
68D1
  5
68EC
331
68D2
  5
68ED
331
68D3
  5
68EE
331
68D7
  5
68EF
331
68D8
  5
68F6
331
68DC
  5
68F7
331
68DD
  5
68F8
331
0
  5
68FB
331
0
  5
68FC
331
0
  5
68FD
331
0
  5
68FE
331
0
  5
68FF
331
0
  5
6900
331
0
  5
6901
331
0
  5
6902
331
0
  5
6903
331
0
  5
690D
331
0
  5
690E
331
0
  5
690F
331
0
  5
6910
331
0
  5
6911
331
0
  5
6912
331
0
  5
6913
331
0
  5
6914
331
0
  5
6915
331
690D
  5
6916
331
690E
  5
6917
331
6943
  5
6959
331
6944
  5
695A
331
694E
  5
695B
331
694F
  5
695C
331
0
  5
C4D
331
0
  5
6973
331
0
  5
6974
331
0
  5
6975
331
0
  5
6976
331
0
  5
6977
331
0
  5
6986
331
0
  5
6988
331
0
  5
6999
331
0
  5
69C1
331
0
  5
69C2
331
0
  5
69C3
331
0
  5
69C4
331
0
  5
69C8
331
0
  5
69C9
331
0
  5
69CA
331
69C2
  5
69CD
331
6A66
  5
6A9F
  0
LAYOUT
  5
4D7D
102
{ACAD_REACTORS
330
4D79
102
}
330
4D79
100
AcDbPlotSettings
  1

  2
none_device
  4
Letter_(8.50_x_11.00_Inches)
  6

 40
6.35
 41
6.35
 42
6.35
 43
6.35
 44
215.9
 45
279.4
 46
0.0
 47
0.0
 48
0.0
 49
0.0
140
0.0
141
0.0
142
1.0
143
1.0
 70
  1712
 72
     0
 73
     0
 74
     0
  7

 75
     0
 76
     0
 77
     2
 78
   300
147
1.0
148
0.0
149
0.0
100
AcDbLayout
  1
Model
 70
     1
 71
     0
 10
0.0
 20
0.0
 11
12.0
 21
9.0
 12
0.0
 22
0.0
 32
0.0
 14
-339.7559613993577
 24
-277.305609241146
 34
-0.0000000000000001
 15
860.2440386006423
 25
322.694390758854
 35
0.0000000000000002
146
0.0
 13
0.0
 23
0.0
 33
0.0
 16
1.0
 26
0.0
 36
0.0
 17
0.0
 27
1.0
 37
0.0
 76
     0
330
4D7C
331
4D7F
  0
LAYOUT
  5
4D7B
102
{ACAD_REACTORS
330
4D79
102
}
330
4D79
100
AcDbPlotSettings
  1

  2
none_device
  4

  6

 40
0.0
 41
0.0
 42
0.0
 43
0.0
 44
0.0
 45
0.0
 46
0.0
 47
0.0
 48
0.0
 49
0.0
140
0.0
141
0.0
142
1.0
143
1.0
 70
   688
 72
     0
 73
     0
 74
     5
  7

 75
    16
 76
     0
 77
     2
 78
   300
147
1.0
148
0.0
149
0.0
100
AcDbLayout
  1
Sheet 1
 70
     1
 71
     1
 10
0.0
 20
0.0
 11
0.0
 21
0.0
 12
0.0
 22
0.0
 32
0.0
 14
1.000000000000000E+20
 24
1.000000000000000E+20
 34
1.000000000000000E+20
 15
-1.000000000000000E+20
 25
-1.000000000000000E+20
 35
-1.000000000000000E+20
146
0.0
 13
0.0
 23
0.0
 33
0.0
 16
1.0
 26
0.0
 36
0.0
 17
0.0
 27
1.0
 37
0.0
 76
     0
330
4D7A
  0
MATERIAL
  5
4D85
102
{ACAD_REACTORS
330
4D83
102
}
330
4D83
100
AcDbMaterial
  1
ByBlock
 72
     1
 94
      127
  0
MATERIAL
  5
4D84
102
{ACAD_REACTORS
330
4D83
102
}
330
4D83
100
AcDbMaterial
  1
ByLayer
 72
     1
 94
      127
  0
MATERIAL
  5
4D86
102
{ACAD_REACTORS
330
4D83
102
}
330
4D83
100
AcDbMaterial
  1
Global
 72
     1
 94
      127
  0
MLEADERSTYLE
  5
4DDD
102
{ACAD_REACTORS
330
4DDC
102
}
330
4DDC
100
AcDbMLeaderStyle
179
     2
170
     2
171
     1
172
     0
 90
        2
 40
0.0
 41
0.0
173
     1
 91
-1056964608
340
4D73
 92
       -2
290
     1
 42
0.09
291
     1
 43
0.36
  3
Standard
341
0
 44
0.18
300

342
4D71
174
     1
178
     6
175
     1
176
     0
 93
-1056964608
 45
0.18
292
     0
297
     0
 46
0.18
343
0
 94
-1056964608
 47
1.0
 49
1.0
140
1.0
293
     1
141
0.0
294
     1
177
     0
142
1.0
295
     0
296
     0
143
0.125
271
     0
272
     9
273
     9
298
     0
  0
MLINESTYLE
  5
4D77
102
{ACAD_REACTORS
330
4D76
102
}
330
4D76
100
AcDbMlineStyle
  2
Standard
 70
     0
  3

 62
   256
 51
90.0
 52
90.0
 71
     2
 49
0.5
 62
   256
  6
BYLAYER
 49
-0.5
 62
   256
  6
BYLAYER
  0
ACDBPLACEHOLDER
  5
4D6F
102
{ACAD_REACTORS
330
4D6E
102
}
330
4D6E
  0
SCALE
  5
4DA0
102
{ACAD_REACTORS
330
4D9F
102
}
330
4D9F
100
AcDbScale
 70
     0
300
1:1
140
1.0
141
1.0
290
     1
  0
SCALE
  5
4DA1
102
{ACAD_REACTORS
330
4D9F
102
}
330
4D9F
100
AcDbScale
 70
     0
300
1:2
140
1.0
141
2.0
290
     0
  0
SCALE
  5
4DA2
102
{ACAD_REACTORS
330
4D9F
102
}
330
4D9F
100
AcDbScale
 70
     0
300
1:4
140
1.0
141
4.0
290
     0
  0
SCALE
  5
4DA3
102
{ACAD_REACTORS
330
4D9F
102
}
330
4D9F
100
AcDbScale
 70
     0
300
1:5
140
1.0
141
5.0
290
     0
  0
SCALE
  5
4DA4
102
{ACAD_REACTORS
330
4D9F
102
}
330
4D9F
100
AcDbScale
 70
     0
300
1:8
140
1.0
141
8.0
290
     0
  0
SCALE
  5
4DA5
102
{ACAD_REACTORS
330
4D9F
102
}
330
4D9F
100
AcDbScale
 70
     0
300
1:10
140
1.0
141
10.0
290
     0
  0
SCALE
  5
4DA6
102
{ACAD_REACTORS
330
4D9F
102
}
330
4D9F
100
AcDbScale
 70
     0
300
1:16
140
1.0
141
16.0
290
     0
  0
SCALE
  5
4DA7
102
{ACAD_REACTORS
330
4D9F
102
}
330
4D9F
100
AcDbScale
 70
     0
300
1:20
140
1.0
141
20.0
290
     0
  0
SCALE
  5
4DA8
102
{ACAD_REACTORS
330
4D9F
102
}
330
4D9F
100
AcDbScale
 70
     0
300
1:30
140
1.0
141
30.0
290
     0
  0
SCALE
  5
4DA9
102
{ACAD_REACTORS
330
4D9F
102
}
330
4D9F
100
AcDbScale
 70
     0
300
1:40
140
1.0
141
40.0
290
     0
  0
SCALE
  5
4DAA
102
{ACAD_REACTORS
330
4D9F
102
}
330
4D9F
100
AcDbScale
 70
     0
300
1:50
140
1.0
141
50.0
290
     0
  0
SCALE
  5
4DAB
102
{ACAD_REACTORS
330
4D9F
102
}
330
4D9F
100
AcDbScale
 70
     0
300
1:100
140
1.0
141
100.0
290
     0
  0
SCALE
  5
4DAC
102
{ACAD_REACTORS
330
4D9F
102
}
330
4D9F
100
AcDbScale
 70
     0
300
2:1
140
2.0
141
1.0
290
     0
  0
SCALE
  5
4DAD
102
{ACAD_REACTORS
330
4D9F
102
}
330
4D9F
100
AcDbScale
 70
     0
300
4:1
140
4.0
141
1.0
290
     0
  0
SCALE
  5
4DAE
102
{ACAD_REACTORS
330
4D9F
102
}
330
4D9F
100
AcDbScale
 70
     0
300
8:1
140
8.0
141
1.0
290
     0
  0
SCALE
  5
4DAF
102
{ACAD_REACTORS
330
4D9F
102
}
330
4D9F
100
AcDbScale
 70
     0
300
10:1
140
10.0
141
1.0
290
     0
  0
SCALE
  5
4DB0
102
{ACAD_REACTORS
330
4D9F
102
}
330
4D9F
100
AcDbScale
 70
     0
300
100:1
140
100.0
141
1.0
290
     0
  0
SCALE
  5
4DB1
102
{ACAD_REACTORS
330
4D9F
102
}
330
4D9F
100
AcDbScale
 70
     0
300
1/128" = 1'-0"
140
0.0078125
141
12.0
290
     0
  0
SCALE
  5
4DB2
102
{ACAD_REACTORS
330
4D9F
102
}
330
4D9F
100
AcDbScale
 70
     0
300
1/64" = 1'-0"
140
0.015625
141
12.0
290
     0
  0
SCALE
  5
4DB3
102
{ACAD_REACTORS
330
4D9F
102
}
330
4D9F
100
AcDbScale
 70
     0
300
1/32" = 1'-0"
140
0.03125
141
12.0
290
     0
  0
SCALE
  5
4DB4
102
{ACAD_REACTORS
330
4D9F
102
}
330
4D9F
100
AcDbScale
 70
     0
300
1/16" = 1'-0"
140
0.0625
141
12.0
290
     0
  0
SCALE
  5
4DB5
102
{ACAD_REACTORS
330
4D9F
102
}
330
4D9F
100
AcDbScale
 70
     0
300
3/32" = 1'-0"
140
0.09375
141
12.0
290
     0
  0
SCALE
  5
4DB6
102
{ACAD_REACTORS
330
4D9F
102
}
330
4D9F
100
AcDbScale
 70
     0
300
1/8" = 1'-0"
140
0.125
141
12.0
290
     0
  0
SCALE
  5
4DB7
102
{ACAD_REACTORS
330
4D9F
102
}
330
4D9F
100
AcDbScale
 70
     0
300
3/16" = 1'-0"
140
0.1875
141
12.0
290
     0
  0
SCALE
  5
4DB8
102
{ACAD_REACTORS
330
4D9F
102
}
330
4D9F
100
AcDbScale
 70
     0
300
1/4" = 1'-0"
140
0.25
141
12.0
290
     0
  0
SCALE
  5
4DB9
102
{ACAD_REACTORS
330
4D9F
102
}
330
4D9F
100
AcDbScale
 70
     0
300
3/8" = 1'-0"
140
0.375
141
12.0
290
     0
  0
SCALE
  5
4DBA
102
{ACAD_REACTORS
330
4D9F
102
}
330
4D9F
100
AcDbScale
 70
     0
300
1/2" = 1'-0"
140
0.5
141
12.0
290
     0
  0
SCALE
  5
4DBB
102
{ACAD_REACTORS
330
4D9F
102
}
330
4D9F
100
AcDbScale
 70
     0
300
3/4" = 1'-0"
140
0.75
141
12.0
290
     0
  0
SCALE
  5
4DBC
102
{ACAD_REACTORS
330
4D9F
102
}
330
4D9F
100
AcDbScale
 70
     0
300
1" = 1'-0"
140
1.0
141
12.0
290
     0
  0
SCALE
  5
4DBD
102
{ACAD_REACTORS
330
4D9F
102
}
330
4D9F
100
AcDbScale
 70
     0
300
1-1/2" = 1'-0"
140
1.5
141
12.0
290
     0
  0
SCALE
  5
4DBE
102
{ACAD_REACTORS
330
4D9F
102
}
330
4D9F
100
AcDbScale
 70
     0
300
3" = 1'-0"
140
3.0
141
12.0
290
     0
  0
SCALE
  5
4DBF
102
{ACAD_REACTORS
330
4D9F
102
}
330
4D9F
100
AcDbScale
 70
     0
300
6" = 1'-0"
140
6.0
141
12.0
290
     0
  0
SCALE
  5
4DC0
102
{ACAD_REACTORS
330
4D9F
102
}
330
4D9F
100
AcDbScale
 70
     0
300
1'-0" = 1'-0"
140
12.0
141
12.0
290
     0
  0
TABLESTYLE
  5
4DDB
102
{ACAD_REACTORS
330
4DDA
102
}
102
{ACAD_XDICTIONARY
360
A657
102
}
330
4DDA
100
AcDbTableStyle
  3
Standard
 70
     0
 71
     0
 40
0.06
 41
0.06
280
     0
281
     0
  7
STANDARD
140
0.18
170
     2
 62
     0
 63
   257
283
     0
 90
        4
 91
        0
  1

274
    -2
284
     1
 64
     0
275
    -2
285
     1
 65
     0
276
    -2
286
     1
 66
     0
277
    -2
287
     1
 67
     0
278
    -2
288
     1
 68
     0
279
    -2
289
     1
 69
     0
  7
STANDARD
140
0.25
170
     5
 62
     0
 63
   257
283
     0
 90
        4
 91
        0
  1

274
    -2
284
     1
 64
     0
275
    -2
285
     1
 65
     0
276
    -2
286
     1
 66
     0
277
    -2
287
     1
 67
     0
278
    -2
288
     1
 68
     0
279
    -2
289
     1
 69
     0
  7
STANDARD
140
0.18
170
     5
 62
     0
 63
   257
283
     0
 90
        4
 91
        0
  1

274
    -2
284
     1
 64
     0
275
    -2
285
     1
 65
     0
276
    -2
286
     1
 66
     0
277
    -2
287
     1
 67
     0
278
    -2
288
     1
 68
     0
279
    -2
289
     1
 69
     0
  0
VISUALSTYLE
  5
4DC6
102
{ACAD_REACTORS
330
4DC1
102
}
330
4DC1
100
AcDbVisualStyle
  2
2dWireframe
 70
     4
177
     3
291
     0
 70
    58
 90
        0
176
     1
 90
        2
176
     1
 90
        0
176
     1
 90
        0
176
     1
 40
0.6
176
     1
 40
30.0
176
     1
 62
     7
420
 16777215
176
     1
 90
        1
176
     1
 90
        4
176
     1
 62
     7
176
     1
 62
   257
176
     1
 90
        1
176
     1
 90
        1
176
     1
 40
1.0
176
     1
 90
        0
176
     1
 62
   257
176
     1
 40
1.0
176
     1
 90
        1
176
     1
 90
        6
176
     1
 90
        2
176
     1
 62
     7
176
     1
 90
        5
176
     1
 90
        0
176
     1
 90
        0
176
     1
290
     0
176
     1
 90
        1
176
     1
 40
0.0
176
     1
 90
        0
176
     1
290
     1
176
     1
290
     1
176
     1
290
     0
176
     1
290
     0
176
     1
290
     0
176
     1
290
     0
176
     1
290
     0
176
     1
290
     0
176
     1
290
     0
176
     1
 90
       50
176
     1
 40
0.0
176
     1
 40
1.0
176
     1
 90
        0
176
     1
 62
    18
420
        0
176
     1
 90
       50
176
     1
 90
        3
176
     1
 62
     5
420
      255
176
     1
290
     0
176
     1
 90
       50
176
     1
 90
       50
176
     1
 90
       50
176
     1
290
     0
176
     1
 90
       50
176
     1
 62
   256
176
     0
 40
1.0
176
     0
 90
        2
176
     1
  1
strokes_ogs.tif
176
     1
290
     0
176
     1
 40
1.0
176
     1
 40
1.0
176
     1
  0
VISUALSTYLE
  5
4DC9
102
{ACAD_REACTORS
330
4DC1
102
}
330
4DC1
100
AcDbVisualStyle
  2
Basic
 70
     7
177
     3
291
     1
 70
    58
 90
        1
176
     1
 90
        0
176
     1
 90
        1
176
     1
 90
        0
176
     1
 40
0.6
176
     1
 40
30.0
176
     1
 62
     7
420
 16777215
176
     1
 90
        0
176
     1
 90
        4
176
     1
 62
     7
176
     1
 62
   257
176
     1
 90
        1
176
     1
 90
        1
176
     1
 40
1.0
176
     1
 90
        8
176
     1
 62
     7
176
     1
 40
1.0
176
     1
 90
        1
176
     1
 90
        6
176
     1
 90
        2
176
     1
 62
     7
176
     1
 90
        5
176
     1
 90
        0
176
     1
 90
        0
176
     1
290
     0
176
     1
 90
        1
176
     1
 40
0.0
176
     1
 90
        0
176
     1
290
     0
176
     1
290
     1
176
     1
290
     1
176
     1
290
     0
176
     1
290
     0
176
     1
290
     0
176
     1
290
     0
176
     1
290
     0
176
     1
290
     0
176
     1
 90
       50
176
     1
 40
0.0
176
     1
 40
1.0
176
     1
 90
        0
176
     1
 62
    18
420
        0
176
     1
 90
       50
176
     1
 90
        3
176
     1
 62
     5
420
      255
176
     1
290
     0
176
     1
 90
       50
176
     1
 90
       50
176
     1
 90
       50
176
     1
290
     0
176
     1
 90
       50
176
     1
 62
   256
176
     0
 40
1.0
176
     0
 90
        2
176
     1
  1
strokes_ogs.tif
176
     1
290
     0
176
     1
 40
1.0
176
     1
 40
1.0
176
     1
  0
VISUALSTYLE
  5
4DCD
102
{ACAD_REACTORS
330
4DC1
102
}
330
4DC1
100
AcDbVisualStyle
  2
Brighten
 70
    12
177
     3
291
     1
 70
    58
 90
        2
176
     1
 90
        2
176
     1
 90
        0
176
     1
 90
        0
176
     1
 40
0.6
176
     1
 40
30.0
176
     1
 62
     7
420
 16777215
176
     1
 90
        1
176
     1
 90
        4
176
     1
 62
     7
176
     1
 62
   257
176
     1
 90
        1
176
     1
 90
        1
176
     1
 40
1.0
176
     1
 90
        8
176
     1
 62
     7
176
     1
 40
1.0
176
     1
 90
        1
176
     1
 90
        6
176
     1
 90
        2
176
     1
 62
     7
176
     1
 90
        5
176
     1
 90
        0
176
     1
 90
        0
176
     1
290
     0
176
     1
 90
        1
176
     1
 40
50.0
176
     1
 90
        0
176
     1
290
     0
176
     1
290
     1
176
     1
290
     1
176
     1
290
     0
176
     1
290
     0
176
     1
290
     0
176
     1
290
     0
176
     1
290
     0
176
     1
290
     0
176
     1
 90
       50
176
     1
 40
0.0
176
     1
 40
1.0
176
     1
 90
        0
176
     1
 62
    18
420
        0
176
     1
 90
       50
176
     1
 90
        3
176
     1
 62
     5
420
      255
176
     1
290
     0
176
     1
 90
       50
176
     1
 90
       50
176
     1
 90
       50
176
     1
290
     0
176
     1
 90
       50
176
     1
 62
   256
176
     0
 40
1.0
176
     0
 90
        2
176
     1
  1
strokes_ogs.tif
176
     1
290
     0
176
     1
 40
1.0
176
     1
 40
1.0
176
     1
  0
VISUALSTYLE
  5
4DD1
102
{ACAD_REACTORS
330
4DC1
102
}
330
4DC1
100
AcDbVisualStyle
  2
ColorChange
 70
    16
177
     3
291
     1
 70
    58
 90
        2
176
     1
 90
        2
176
     1
 90
        3
176
     1
 90
        0
176
     1
 40
0.6
176
     1
 40
30.0
176
     1
 62
     8
420
  8421504
176
     1
 90
        1
176
     1
 90
        4
176
     1
 62
     7
176
     1
 62
   257
176
     1
 90
        1
176
     1
 90
        1
176
     1
 40
1.0
176
     1
 90
        8
176
     1
 62
     8
420
  8421504
176
     1
 40
1.0
176
     1
 90
        1
176
     1
 90
        6
176
     1
 90
        2
176
     1
 62
     7
176
     1
 90
        5
176
     1
 90
        0
176
     1
 90
        0
176
     1
290
     0
176
     1
 90
        1
176
     1
 40
0.0
176
     1
 90
        0
176
     1
290
     0
176
     1
290
     1
176
     1
290
     1
176
     1
290
     0
176
     1
290
     0
176
     1
290
     0
176
     1
290
     0
176
     1
290
     0
176
     1
290
     0
176
     1
 90
       50
176
     1
 40
0.0
176
     1
 40
1.0
176
     1
 90
        0
176
     1
 62
    18
420
        0
176
     1
 90
       50
176
     1
 90
        3
176
     1
 62
     5
420
      255
176
     1
290
     0
176
     1
 90
       50
176
     1
 90
       50
176
     1
 90
       50
176
     1
290
     0
176
     1
 90
       50
176
     1
 62
   256
176
     0
 40
1.0
176
     0
 90
        2
176
     1
  1
strokes_ogs.tif
176
     1
290
     0
176
     1
 40
1.0
176
     1
 40
1.0
176
     1
  0
VISUALSTYLE
  5
4DCB
102
{ACAD_REACTORS
330
4DC1
102
}
330
4DC1
100
AcDbVisualStyle
  2
Conceptual
 70
     9
177
     3
291
     0
 70
    58
 90
        3
176
     1
 90
        2
176
     1
 90
        0
176
     1
 90
        0
176
     1
 40
0.6
176
     1
 40
30.0
176
     1
 62
     7
420
 16777215
176
     1
 90
        2
176
     1
 90
        2
176
     1
 62
     7
176
     1
 62
   257
176
     1
 90
        1
176
     1
 90
        1
176
     1
 40
179.0
176
     1
 90
        8
176
     1
 62
     7
176
     1
 40
1.0
176
     1
 90
        1
176
     1
 90
        6
176
     1
 90
        2
176
     1
 62
     7
176
     1
 90
        3
176
     1
 90
        0
176
     1
 90
        0
176
     1
290
     0
176
     1
 90
        1
176
     1
 40
0.0
176
     1
 90
        0
176
     1
290
     0
176
     1
290
     1
176
     1
290
     1
176
     1
290
     0
176
     1
290
     0
176
     1
290
     0
176
     1
290
     0
176
     1
290
     0
176
     1
290
     0
176
     1
 90
       50
176
     1
 40
0.0
176
     1
 40
1.0
176
     1
 90
        0
176
     1
 62
    18
420
        0
176
     1
 90
       50
176
     1
 90
        3
176
     1
 62
     5
420
      255
176
     1
290
     0
176
     1
 90
       50
176
     1
 90
       50
176
     1
 90
       50
176
     1
290
     0
176
     1
 90
       50
176
     1
 62
   256
176
     0
 40
1.0
176
     0
 90
        2
176
     1
  1
strokes_ogs.tif
176
     1
290
     0
176
     1
 40
1.0
176
     1
 40
1.0
176
     1
  0
VISUALSTYLE
  5
4DCC
102
{ACAD_REACTORS
330
4DC1
102
}
330
4DC1
100
AcDbVisualStyle
  2
Dim
 70
    11
177
     3
291
     1
 70
    58
 90
        2
176
     1
 90
        2
176
     1
 90
        0
176
     1
 90
        0
176
     1
 40
0.6
176
     1
 40
30.0
176
     1
 62
     7
420
 16777215
176
     1
 90
        1
176
     1
 90
        4
176
     1
 62
     7
176
     1
 62
   257
176
     1
 90
        1
176
     1
 90
        1
176
     1
 40
1.0
176
     1
 90
        8
176
     1
 62
     7
176
     1
 40
1.0
176
     1
 90
        1
176
     1
 90
        6
176
     1
 90
        2
176
     1
 62
     7
176
     1
 90
        5
176
     1
 90
        0
176
     1
 90
        0
176
     1
290
     0
176
     1
 90
        1
176
     1
 40
-50.0
176
     1
 90
        0
176
     1
290
     0
176
     1
290
     1
176
     1
290
     1
176
     1
290
     0
176
     1
290
     0
176
     1
290
     0
176
     1
290
     0
176
     1
290
     0
176
     1
290
     0
176
     1
 90
       50
176
     1
 40
0.0
176
     1
 40
1.0
176
     1
 90
        0
176
     1
 62
    18
420
        0
176
     1
 90
       50
176
     1
 90
        3
176
     1
 62
     5
420
      255
176
     1
290
     0
176
     1
 90
       50
176
     1
 90
       50
176
     1
 90
       50
176
     1
290
     0
176
     1
 90
       50
176
     1
 62
   256
176
     0
 40
1.0
176
     0
 90
        2
176
     1
  1
strokes_ogs.tif
176
     1
290
     0
176
     1
 40
1.0
176
     1
 40
1.0
176
     1
  0
VISUALSTYLE
  5
4DD4
102
{ACAD_REACTORS
330
4DC1
102
}
330
4DC1
100
AcDbVisualStyle
  2
EdgeColorOff
 70
    22
177
     3
291
     1
 70
    58
 90
        2
176
     0
 90
        2
176
     0
 90
        0
176
     0
 90
        0
176
     0
 40
0.6
176
     0
 40
30.0
176
     0
 62
     7
420
 16777215
176
     0
 90
        1
176
     0
 90
        4
176
     0
 62
     7
176
     0
 62
   257
176
     0
 90
        1
176
     0
 90
        1
176
     0
 40
1.0
176
     0
 90
        8
176
     2
 62
     7
176
     0
 40
1.0
176
     0
 90
        1
176
     0
 90
        6
176
     0
 90
        2
176
     0
 62
     7
176
     0
 90
        5
176
     0
 90
        0
176
     0
 90
        0
176
     0
290
     0
176
     0
 90
        1
176
     0
 40
0.0
176
     0
 90
        0
176
     0
290
     0
176
     0
290
     1
176
     0
290
     1
176
     0
290
     0
176
     0
290
     0
176
     0
290
     0
176
     0
290
     0
176
     0
290
     0
176
     0
290
     0
176
     0
 90
       50
176
     0
 40
0.0
176
     0
 40
1.0
176
     0
 90
        0
176
     0
 62
    18
420
        0
176
     0
 90
       50
176
     0
 90
        3
176
     0
 62
     5
420
      255
176
     0
290
     0
176
     0
 90
       50
176
     0
 90
       50
176
     0
 90
       50
176
     0
290
     0
176
     0
 90
       50
176
     0
 62
   256
176
     0
 40
1.0
176
     0
 90
        2
176
     0
  1
strokes_ogs.tif
176
     0
290
     0
176
     0
 40
1.0
176
     0
 40
1.0
176
     0
  0
VISUALSTYLE
  5
4DD0
102
{ACAD_REACTORS
330
4DC1
102
}
330
4DC1
100
AcDbVisualStyle
  2
Facepattern
 70
    15
177
     3
291
     1
 70
    58
 90
        2
176
     1
 90
        2
176
     1
 90
        0
176
     1
 90
        0
176
     1
 40
0.6
176
     1
 40
30.0
176
     1
 62
     7
420
 16777215
176
     1
 90
        1
176
     1
 90
        4
176
     1
 62
     7
176
     1
 62
   257
176
     1
 90
        1
176
     1
 90
        1
176
     1
 40
1.0
176
     1
 90
        8
176
     1
 62
     7
176
     1
 40
1.0
176
     1
 90
        1
176
     1
 90
        6
176
     1
 90
        2
176
     1
 62
     7
176
     1
 90
        5
176
     1
 90
        0
176
     1
 90
        0
176
     1
290
     0
176
     1
 90
        1
176
     1
 40
0.0
176
     1
 90
        0
176
     1
290
     0
176
     1
290
     1
176
     1
290
     1
176
     1
290
     0
176
     1
290
     0
176
     1
290
     0
176
     1
290
     0
176
     1
290
     0
176
     1
290
     0
176
     1
 90
       50
176
     1
 40
0.0
176
     1
 40
1.0
176
     1
 90
        0
176
     1
 62
    18
420
        0
176
     1
 90
       50
176
     1
 90
        3
176
     1
 62
     5
420
      255
176
     1
290
     0
176
     1
 90
       50
176
     1
 90
       50
176
     1
 90
       50
176
     1
290
     0
176
     1
 90
       50
176
     1
 62
   256
176
     0
 40
1.0
176
     0
 90
        2
176
     1
  1
strokes_ogs.tif
176
     1
290
     0
176
     1
 40
1.0
176
     1
 40
1.0
176
     1
  0
VISUALSTYLE
  5
4DC2
102
{ACAD_REACTORS
330
4DC1
102
}
330
4DC1
100
AcDbVisualStyle
  2
Flat
 70
     0
177
     3
291
     1
 70
    58
 90
        2
176
     1
 90
        1
176
     1
 90
        1
176
     1
 90
        2
176
     1
 40
0.6
176
     1
 40
30.0
176
     1
 62
     7
420
 16777215
176
     1
 90
        0
176
     1
 90
        0
176
     1
 62
     7
176
     1
 62
   257
176
     1
 90
        1
176
     1
 90
        1
176
     1
 40
1.0
176
     1
 90
        8
176
     1
 62
     7
176
     1
 40
1.0
176
     1
 90
        1
176
     1
 90
        6
176
     1
 90
        2
176
     1
 62
     7
176
     1
 90
        5
176
     1
 90
        0
176
     1
 90
        0
176
     1
290
     0
176
     1
 90
       13
176
     1
 40
0.0
176
     1
 90
        0
176
     1
290
     0
176
     1
290
     1
176
     1
290
     1
176
     1
290
     0
176
     1
290
     0
176
     1
290
     0
176
     1
290
     0
176
     1
290
     0
176
     1
290
     0
176
     1
 90
       50
176
     1
 40
0.0
176
     1
 40
1.0
176
     1
 90
        0
176
     1
 62
    18
420
        0
176
     1
 90
       50
176
     1
 90
        3
176
     1
 62
     5
420
      255
176
     1
290
     0
176
     1
 90
       50
176
     1
 90
       50
176
     1
 90
       50
176
     1
290
     0
176
     1
 90
       50
176
     1
 62
   256
176
     0
 40
1.0
176
     0
 90
        2
176
     1
  1
strokes_ogs.tif
176
     1
290
     0
176
     1
 40
1.0
176
     1
 40
1.0
176
     1
  0
VISUALSTYLE
  5
4DC3
102
{ACAD_REACTORS
330
4DC1
102
}
330
4DC1
100
AcDbVisualStyle
  2
FlatWithEdges
 70
     1
177
     3
291
     1
 70
    58
 90
        2
176
     1
 90
        1
176
     1
 90
        1
176
     1
 90
        2
176
     1
 40
0.6
176
     1
 40
30.0
176
     1
 62
     7
420
 16777215
176
     1
 90
        1
176
     1
 90
        0
176
     1
 62
     7
176
     1
 62
   257
176
     1
 90
        1
176
     1
 90
        1
176
     1
 40
1.0
176
     1
 90
        0
176
     1
 62
   257
176
     1
 40
1.0
176
     1
 90
        1
176
     1
 90
        6
176
     1
 90
        2
176
     1
 62
     7
176
     1
 90
        5
176
     1
 90
        0
176
     1
 90
        0
176
     1
290
     0
176
     1
 90
       13
176
     1
 40
0.0
176
     1
 90
        0
176
     1
290
     0
176
     1
290
     1
176
     1
290
     1
176
     1
290
     0
176
     1
290
     0
176
     1
290
     0
176
     1
290
     0
176
     1
290
     0
176
     1
290
     0
176
     1
 90
       50
176
     1
 40
0.0
176
     1
 40
1.0
176
     1
 90
        0
176
     1
 62
    18
420
        0
176
     1
 90
       50
176
     1
 90
        3
176
     1
 62
     5
420
      255
176
     1
290
     0
176
     1
 90
       50
176
     1
 90
       50
176
     1
 90
       50
176
     1
290
     0
176
     1
 90
       50
176
     1
 62
   256
176
     0
 40
1.0
176
     0
 90
        2
176
     1
  1
strokes_ogs.tif
176
     1
290
     0
176
     1
 40
1.0
176
     1
 40
1.0
176
     1
  0
VISUALSTYLE
  5
4DC4
102
{ACAD_REACTORS
330
4DC1
102
}
330
4DC1
100
AcDbVisualStyle
  2
Gouraud
 70
     2
177
     3
291
     1
 70
    58
 90
        2
176
     1
 90
        2
176
     1
 90
        1
176
     1
 90
        2
176
     1
 40
0.6
176
     1
 40
30.0
176
     1
 62
     7
420
 16777215
176
     1
 90
        0
176
     1
 90
        0
176
     1
 62
     7
176
     1
 62
   257
176
     1
 90
        1
176
     1
 90
        1
176
     1
 40
1.0
176
     1
 90
        0
176
     1
 62
     7
176
     1
 40
1.0
176
     1
 90
        1
176
     1
 90
        6
176
     1
 90
        2
176
     1
 62
     7
176
     1
 90
        5
176
     1
 90
        0
176
     1
 90
        0
176
     1
290
     0
176
     1
 90
       13
176
     1
 40
0.0
176
     1
 90
        0
176
     1
290
     0
176
     1
290
     1
176
     1
290
     1
176
     1
290
     0
176
     1
290
     0
176
     1
290
     0
176
     1
290
     0
176
     1
290
     0
176
     1
290
     0
176
     1
 90
       50
176
     1
 40
0.0
176
     1
 40
1.0
176
     1
 90
        0
176
     1
 62
    18
420
        0
176
     1
 90
       50
176
     1
 90
        3
176
     1
 62
     5
420
      255
176
     1
290
     0
176
     1
 90
       50
176
     1
 90
       50
176
     1
 90
       50
176
     1
290
     0
176
     1
 90
       50
176
     1
 62
   256
176
     0
 40
1.0
176
     0
 90
        2
176
     1
  1
strokes_ogs.tif
176
     1
290
     0
176
     1
 40
1.0
176
     1
 40
1.0
176
     1
  0
VISUALSTYLE
  5
4DC5
102
{ACAD_REACTORS
330
4DC1
102
}
330
4DC1
100
AcDbVisualStyle
  2
GouraudWithEdges
 70
     3
177
     3
291
     1
 70
    58
 90
        2
176
     1
 90
        2
176
     1
 90
        1
176
     1
 90
        2
176
     1
 40
0.6
176
     1
 40
30.0
176
     1
 62
     7
420
 16777215
176
     1
 90
        1
176
     1
 90
        0
176
     1
 62
     7
176
     1
 62
   257
176
     1
 90
        1
176
     1
 90
        1
176
     1
 40
1.0
176
     1
 90
        0
176
     1
 62
   257
176
     1
 40
1.0
176
     1
 90
        1
176
     1
 90
        6
176
     1
 90
        2
176
     1
 62
     7
176
     1
 90
        5
176
     1
 90
        0
176
     1
 90
        0
176
     1
290
     0
176
     1
 90
       13
176
     1
 40
0.0
176
     1
 90
        0
176
     1
290
     0
176
     1
290
     1
176
     1
290
     1
176
     1
290
     0
176
     1
290
     0
176
     1
290
     0
176
     1
290
     0
176
     1
290
     0
176
     1
290
     0
176
     1
 90
       50
176
     1
 40
0.0
176
     1
 40
1.0
176
     1
 90
        0
176
     1
 62
    18
420
        0
176
     1
 90
       50
176
     1
 90
        3
176
     1
 62
     5
420
      255
176
     1
290
     0
176
     1
 90
       50
176
     1
 90
       50
176
     1
 90
       50
176
     1
290
     0
176
     1
 90
       50
176
     1
 62
   256
176
     0
 40
1.0
176
     0
 90
        2
176
     1
  1
strokes_ogs.tif
176
     1
290
     0
176
     1
 40
1.0
176
     1
 40
1.0
176
     1
  0
VISUALSTYLE
  5
4DC8
102
{ACAD_REACTORS
330
4DC1
102
}
330
4DC1
100
AcDbVisualStyle
  2
Hidden
 70
     6
177
     3
291
     0
 70
    58
 90
        1
176
     1
 90
        2
176
     1
 90
        2
176
     1
 90
        0
176
     1
 40
0.6
176
     1
 40
30.0
176
     1
 62
     7
420
 16777215
176
     1
 90
        2
176
     1
 90
        2
176
     1
 62
     7
176
     1
 62
   257
176
     1
 90
        2
176
     1
 90
        1
176
     1
 40
40.0
176
     1
 90
        0
176
     1
 62
   257
176
     1
 40
1.0
176
     1
 90
        1
176
     1
 90
        6
176
     1
 90
        2
176
     1
 62
     7
176
     1
 90
        3
176
     1
 90
        0
176
     1
 90
        0
176
     1
290
     0
176
     1
 90
        1
176
     1
 40
0.0
176
     1
 90
        0
176
     1
290
     0
176
     1
290
     1
176
     1
290
     1
176
     1
290
     0
176
     1
290
     0
176
     1
290
     0
176
     1
290
     0
176
     1
290
     0
176
     1
290
     0
176
     1
 90
       50
176
     1
 40
0.0
176
     1
 40
1.0
176
     1
 90
        0
176
     1
 62
    18
420
        0
176
     1
 90
       50
176
     1
 90
        3
176
     1
 62
     5
420
      255
176
     1
290
     0
176
     1
 90
       50
176
     1
 90
       50
176
     1
 90
       50
176
     1
290
     0
176
     1
 90
       50
176
     1
 62
   256
176
     0
 40
1.0
176
     0
 90
        2
176
     1
  1
strokes_ogs.tif
176
     1
290
     0
176
     1
 40
1.0
176
     1
 40
1.0
176
     1
  0
VISUALSTYLE
  5
4DD2
102
{ACAD_REACTORS
330
4DC1
102
}
330
4DC1
100
AcDbVisualStyle
  2
JitterOff
 70
    20
177
     3
291
     1
 70
    58
 90
        2
176
     0
 90
        2
176
     0
 90
        0
176
     0
 90
        0
176
     0
 40
0.6
176
     0
 40
30.0
176
     0
 62
     7
420
 16777215
176
     0
 90
        1
176
     0
 90
        4
176
     0
 62
     7
176
     0
 62
   257
176
     0
 90
        1
176
     0
 90
        1
176
     0
 40
1.0
176
     0
 90
       10
176
     2
 62
     7
176
     0
 40
1.0
176
     0
 90
        1
176
     0
 90
        6
176
     0
 90
        2
176
     0
 62
     7
176
     0
 90
        5
176
     0
 90
        0
176
     0
 90
        0
176
     0
290
     0
176
     0
 90
        1
176
     0
 40
0.0
176
     0
 90
        0
176
     0
290
     0
176
     0
290
     1
176
     0
290
     1
176
     0
290
     0
176
     0
290
     0
176
     0
290
     0
176
     0
290
     0
176
     0
290
     0
176
     0
290
     0
176
     0
 90
       50
176
     0
 40
0.0
176
     0
 40
1.0
176
     0
 90
        0
176
     0
 62
    18
420
        0
176
     0
 90
       50
176
     0
 90
        3
176
     0
 62
     5
420
      255
176
     0
290
     0
176
     0
 90
       50
176
     0
 90
       50
176
     0
 90
       50
176
     0
290
     0
176
     0
 90
       50
176
     0
 62
   256
176
     0
 40
1.0
176
     0
 90
        2
176
     0
  1
strokes_ogs.tif
176
     0
290
     0
176
     0
 40
1.0
176
     0
 40
1.0
176
     0
  0
VISUALSTYLE
  5
4DCF
102
{ACAD_REACTORS
330
4DC1
102
}
330
4DC1
100
AcDbVisualStyle
  2
Linepattern
 70
    14
177
     3
291
     1
 70
    58
 90
        2
176
     1
 90
        2
176
     1
 90
        0
176
     1
 90
        0
176
     1
 40
0.6
176
     1
 40
30.0
176
     1
 62
     7
420
 16777215
176
     1
 90
        1
176
     1
 90
        4
176
     1
 62
     7
176
     1
 62
   257
176
     1
 90
        7
176
     1
 90
        7
176
     1
 40
1.0
176
     1
 90
        8
176
     1
 62
     7
176
     1
 40
1.0
176
     1
 90
        1
176
     1
 90
        6
176
     1
 90
        2
176
     1
 62
     7
176
     1
 90
        5
176
     1
 90
        0
176
     1
 90
        0
176
     1
290
     0
176
     1
 90
        1
176
     1
 40
0.0
176
     1
 90
        0
176
     1
290
     0
176
     1
290
     1
176
     1
290
     1
176
     1
290
     0
176
     1
290
     0
176
     1
290
     0
176
     1
290
     0
176
     1
290
     0
176
     1
290
     0
176
     1
 90
       50
176
     1
 40
0.0
176
     1
 40
1.0
176
     1
 90
        0
176
     1
 62
    18
420
        0
176
     1
 90
       50
176
     1
 90
        3
176
     1
 62
     5
420
      255
176
     1
290
     0
176
     1
 90
       50
176
     1
 90
       50
176
     1
 90
       50
176
     1
290
     0
176
     1
 90
       50
176
     1
 62
   256
176
     0
 40
1.0
176
     0
 90
        2
176
     1
  1
strokes_ogs.tif
176
     1
290
     0
176
     1
 40
1.0
176
     1
 40
1.0
176
     1
  0
VISUALSTYLE
  5
4DD3
102
{ACAD_REACTORS
330
4DC1
102
}
330
4DC1
100
AcDbVisualStyle
  2
OverhangOff
 70
    21
177
     3
291
     1
 70
    58
 90
        2
176
     0
 90
        2
176
     0
 90
        0
176
     0
 90
        0
176
     0
 40
0.6
176
     0
 40
30.0
176
     0
 62
     7
420
 16777215
176
     0
 90
        1
176
     0
 90
        4
176
     0
 62
     7
176
     0
 62
   257
176
     0
 90
        1
176
     0
 90
        1
176
     0
 40
1.0
176
     0
 90
        9
176
     2
 62
     7
176
     0
 40
1.0
176
     0
 90
        1
176
     0
 90
        6
176
     0
 90
        2
176
     0
 62
     7
176
     0
 90
        5
176
     0
 90
        0
176
     0
 90
        0
176
     0
290
     0
176
     0
 90
        1
176
     0
 40
0.0
176
     0
 90
        0
176
     0
290
     0
176
     0
290
     1
176
     0
290
     1
176
     0
290
     0
176
     0
290
     0
176
     0
290
     0
176
     0
290
     0
176
     0
290
     0
176
     0
290
     0
176
     0
 90
       50
176
     0
 40
0.0
176
     0
 40
1.0
176
     0
 90
        0
176
     0
 62
    18
420
        0
176
     0
 90
       50
176
     0
 90
        3
176
     0
 62
     5
420
      255
176
     0
290
     0
176
     0
 90
       50
176
     0
 90
       50
176
     0
 90
       50
176
     0
290
     0
176
     0
 90
       50
176
     0
 62
   256
176
     0
 40
1.0
176
     0
 90
        2
176
     0
  1
strokes_ogs.tif
176
     0
290
     0
176
     0
 40
1.0
176
     0
 40
1.0
176
     0
  0
VISUALSTYLE
  5
4DCA
102
{ACAD_REACTORS
330
4DC1
102
}
330
4DC1
100
AcDbVisualStyle
  2
Realistic
 70
     8
177
     3
291
     0
 70
    58
 90
        2
176
     1
 90
        3
176
     1
 90
        0
176
     1
 90
        2
176
     1
 40
0.6
176
     1
 40
30.0
176
     1
 62
     7
420
 16777215
176
     1
 90
        0
176
     1
 90
        0
176
     1
 62
     7
176
     1
 62
   257
176
     1
 90
        1
176
     1
 90
        1
176
     1
 40
1.0
176
     1
 90
        8
176
     1
 62
   257
176
     1
 40
1.0
176
     1
 90
        1
176
     1
 90
        6
176
     1
 90
        2
176
     1
 62
     7
176
     1
 90
        3
176
     1
 90
        0
176
     1
 90
        0
176
     1
290
     0
176
     1
 90
       13
176
     1
 40
0.0
176
     1
 90
        0
176
     1
290
     0
176
     1
290
     1
176
     1
290
     1
176
     1
290
     0
176
     1
290
     0
176
     1
290
     0
176
     1
290
     0
176
     1
290
     0
176
     1
290
     0
176
     1
 90
       50
176
     1
 40
0.0
176
     1
 40
1.0
176
     1
 90
        0
176
     1
 62
    18
420
        0
176
     1
 90
       50
176
     1
 90
        3
176
     1
 62
     5
420
      255
176
     1
290
     0
176
     1
 90
       50
176
     1
 90
       50
176
     1
 90
       50
176
     1
290
     0
176
     1
 90
       50
176
     1
 62
   256
176
     0
 40
1.0
176
     0
 90
        2
176
     1
  1
strokes_ogs.tif
176
     1
290
     0
176
     1
 40
1.0
176
     1
 40
1.0
176
     1
  0
VISUALSTYLE
  5
4DD9
102
{ACAD_REACTORS
330
4DC1
102
}
330
4DC1
100
AcDbVisualStyle
  2
Shaded
 70
    27
177
     3
291
     0
 70
    58
 90
        2
176
     1
 90
        2
176
     1
 90
        1
176
     1
 90
        2
176
     1
 40
0.6
176
     1
 40
30.0
176
     1
 62
     7
420
 16777215
176
     1
 90
        0
176
     1
 90
        4
176
     1
 62
     7
176
     1
 62
   257
176
     1
 90
        1
176
     1
 90
        1
176
     1
 40
1.0
176
     1
 90
        8
176
     1
 62
   257
176
     1
 40
1.0
176
     1
 90
        1
176
     1
 90
        6
176
     1
 90
        2
176
     1
 62
     8
420
  7895160
176
     1
 90
        3
176
     1
 90
        0
176
     1
 90
        0
176
     1
290
     0
176
     1
 90
        5
176
     1
 40
0.0
176
     1
 90
        0
176
     1
290
     0
176
     1
290
     1
176
     1
290
     1
176
     1
290
     0
176
     1
290
     0
176
     1
290
     0
176
     1
290
     0
176
     1
290
     0
176
     1
290
     0
176
     1
 90
       50
176
     1
 40
0.0
176
     1
 40
1.0
176
     1
 90
        0
176
     1
 62
    18
420
        0
176
     1
 90
       50
176
     1
 90
        3
176
     1
 62
     5
420
      255
176
     1
290
     0
176
     1
 90
       50
176
     1
 90
       50
176
     1
 90
       50
176
     1
290
     0
176
     1
 90
       50
176
     1
 62
   256
176
     0
 40
1.0
176
     0
 90
        2
176
     1
  1
strokes_ogs.tif
176
     1
290
     0
176
     1
 40
1.0
176
     1
 40
1.0
176
     1
  0
VISUALSTYLE
  5
4DD8
102
{ACAD_REACTORS
330
4DC1
102
}
330
4DC1
100
AcDbVisualStyle
  2
Shaded with edges
 70
    26
177
     3
291
     0
 70
    58
 90
        2
176
     1
 90
        2
176
     1
 90
        1
176
     1
 90
        2
176
     1
 40
0.6
176
     1
 40
30.0
176
     1
 62
     7
420
 16777215
176
     1
 90
        1
176
     1
 90
       10
176
     1
 62
     7
176
     1
 62
   257
176
     1
 90
        2
176
     1
 90
        1
176
     1
 40
1.0
176
     1
 90
        8
176
     1
 62
   257
176
     1
 40
1.0
176
     1
 90
        1
176
     1
 90
        6
176
     1
 90
        2
176
     1
 62
     7
176
     1
 90
        3
176
     1
 90
        0
176
     1
 90
        0
176
     1
290
     0
176
     1
 90
        5
176
     1
 40
0.0
176
     1
 90
        0
176
     1
290
     0
176
     1
290
     1
176
     1
290
     1
176
     1
290
     0
176
     1
290
     0
176
     1
290
     0
176
     1
290
     0
176
     1
290
     0
176
     1
290
     0
176
     1
 90
       50
176
     1
 40
0.0
176
     1
 40
1.0
176
     1
 90
        0
176
     1
 62
    18
420
        0
176
     1
 90
       50
176
     1
 90
        3
176
     1
 62
     5
420
      255
176
     1
290
     0
176
     1
 90
       50
176
     1
 90
       50
176
     1
 90
       50
176
     1
290
     0
176
     1
 90
       50
176
     1
 62
   256
176
     0
 40
1.0
176
     0
 90
        2
176
     1
  1
strokes_ogs.tif
176
     1
290
     0
176
     1
 40
1.0
176
     1
 40
1.0
176
     1
  0
VISUALSTYLE
  5
4DD5
102
{ACAD_REACTORS
330
4DC1
102
}
330
4DC1
100
AcDbVisualStyle
  2
Shades of Gray
 70
    23
177
     3
291
     0
 70
    58
 90
        2
176
     1
 90
        2
176
     1
 90
        3
176
     1
 90
        0
176
     1
 40
0.6
176
     1
 40
30.0
176
     1
 62
     7
420
 16777215
176
     1
 90
        2
176
     1
 90
        2
176
     1
 62
     7
176
     1
 62
     7
176
     1
 90
        1
176
     1
 90
        1
176
     1
 40
40.0
176
     1
 90
        8
176
     1
 62
     7
176
     1
 40
1.0
176
     1
 90
        1
176
     1
 90
        6
176
     1
 90
        2
176
     1
 62
     7
176
     1
 90
        3
176
     1
 90
        0
176
     1
 90
        0
176
     1
290
     0
176
     1
 90
        1
176
     1
 40
0.0
176
     1
 90
        0
176
     1
290
     0
176
     1
290
     1
176
     1
290
     1
176
     1
290
     0
176
     1
290
     0
176
     1
290
     0
176
     1
290
     0
176
     1
290
     0
176
     1
290
     0
176
     1
 90
       50
176
     1
 40
0.0
176
     1
 40
1.0
176
     1
 90
        0
176
     1
 62
    18
420
        0
176
     1
 90
       50
176
     1
 90
        3
176
     1
 62
     5
420
      255
176
     1
290
     0
176
     1
 90
       50
176
     1
 90
       50
176
     1
 90
       50
176
     1
290
     0
176
     1
 90
       50
176
     1
 62
   256
176
     0
 40
1.0
176
     0
 90
        2
176
     1
  1
strokes_ogs.tif
176
     1
290
     0
176
     1
 40
1.0
176
     1
 40
1.0
176
     1
  0
VISUALSTYLE
  5
4DD6
102
{ACAD_REACTORS
330
4DC1
102
}
330
4DC1
100
AcDbVisualStyle
  2
Sketchy
 70
    24
177
     3
291
     0
 70
    58
 90
        1
176
     1
 90
        2
176
     1
 90
        2
176
     1
 90
        0
176
     1
 40
0.6
176
     1
 40
30.0
176
     1
 62
     7
420
 16777215
176
     1
 90
        2
176
     1
 90
        2
176
     1
 62
     7
176
     1
 62
     7
176
     1
 90
        1
176
     1
 90
        1
176
     1
 40
40.0
176
     1
 90
       11
176
     1
 62
     7
176
     1
 40
1.0
176
     1
 90
        1
176
     1
 90
        6
176
     1
 90
        2
176
     1
 62
     7
176
     1
 90
        6
176
     1
 90
        0
176
     1
 90
        0
176
     1
290
     0
176
     1
 90
        1
176
     1
 40
0.0
176
     1
 90
        0
176
     1
290
     0
176
     1
290
     1
176
     1
290
     1
176
     1
290
     0
176
     1
290
     0
176
     1
290
     0
176
     1
290
     0
176
     1
290
     0
176
     1
290
     0
176
     1
 90
       50
176
     1
 40
0.0
176
     1
 40
1.0
176
     1
 90
        0
176
     1
 62
    18
420
        0
176
     1
 90
       50
176
     1
 90
        3
176
     1
 62
     5
420
      255
176
     1
290
     0
176
     1
 90
       50
176
     1
 90
       50
176
     1
 90
       50
176
     1
290
     0
176
     1
 90
       50
176
     1
 62
   256
176
     0
 40
1.0
176
     0
 90
        2
176
     1
  1
strokes_ogs.tif
176
     1
290
     0
176
     1
 40
1.0
176
     1
 40
1.0
176
     1
  0
VISUALSTYLE
  5
4DCE
102
{ACAD_REACTORS
330
4DC1
102
}
330
4DC1
100
AcDbVisualStyle
  2
Thicken
 70
    13
177
     3
291
     1
 70
    58
 90
        2
176
     1
 90
        2
176
     1
 90
        0
176
     1
 90
        0
176
     1
 40
0.6
176
     1
 40
30.0
176
     1
 62
     7
420
 16777215
176
     1
 90
        1
176
     1
 90
        4
176
     1
 62
     7
176
     1
 62
   257
176
     1
 90
        1
176
     1
 90
        1
176
     1
 40
1.0
176
     1
 90
       12
176
     1
 62
     7
176
     1
 40
1.0
176
     1
 90
        1
176
     1
 90
        6
176
     1
 90
        2
176
     1
 62
     7
176
     1
 90
        5
176
     1
 90
        0
176
     1
 90
        0
176
     1
290
     0
176
     1
 90
        1
176
     1
 40
0.0
176
     1
 90
        0
176
     1
290
     0
176
     1
290
     1
176
     1
290
     1
176
     1
290
     0
176
     1
290
     0
176
     1
290
     0
176
     1
290
     0
176
     1
290
     0
176
     1
290
     0
176
     1
 90
       50
176
     1
 40
0.0
176
     1
 40
1.0
176
     1
 90
        0
176
     1
 62
    18
420
        0
176
     1
 90
       50
176
     1
 90
        3
176
     1
 62
     5
420
      255
176
     1
290
     0
176
     1
 90
       50
176
     1
 90
       50
176
     1
 90
       50
176
     1
290
     0
176
     1
 90
       50
176
     1
 62
   256
176
     0
 40
1.0
176
     0
 90
        2
176
     1
  1
strokes_ogs.tif
176
     1
290
     0
176
     1
 40
1.0
176
     1
 40
1.0
176
     1
  0
VISUALSTYLE
  5
4DC7
102
{ACAD_REACTORS
330
4DC1
102
}
330
4DC1
100
AcDbVisualStyle
  2
Wireframe
 70
     5
177
     3
291
     0
 70
    58
 90
        0
176
     1
 90
        2
176
     1
 90
        0
176
     1
 90
        0
176
     1
 40
0.6
176
     1
 40
30.0
176
     1
 62
     7
420
 16777215
176
     1
 90
        1
176
     1
 90
        4
176
     1
 62
     7
176
     1
 62
   257
176
     1
 90
        1
176
     1
 90
        1
176
     1
 40
1.0
176
     1
 90
        0
176
     1
 62
   257
176
     1
 40
1.0
176
     1
 90
        1
176
     1
 90
        6
176
     1
 90
        2
176
     1
 62
     7
176
     1
 90
        3
176
     1
 90
        0
176
     1
 90
        0
176
     1
290
     0
176
     1
 90
        1
176
     1
 40
0.0
176
     1
 90
        0
176
     1
290
     0
176
     1
290
     1
176
     1
290
     1
176
     1
290
     0
176
     1
290
     0
176
     1
290
     0
176
     1
290
     0
176
     1
290
     0
176
     1
290
     0
176
     1
 90
       50
176
     1
 40
0.0
176
     1
 40
1.0
176
     1
 90
        0
176
     1
 62
    18
420
        0
176
     1
 90
       50
176
     1
 90
        3
176
     1
 62
     5
420
      255
176
     1
290
     0
176
     1
 90
       50
176
     1
 90
       50
176
     1
 90
       50
176
     1
290
     0
176
     1
 90
       50
176
     1
 62
   256
176
     0
 40
1.0
176
     0
 90
        2
176
     1
  1
strokes_ogs.tif
176
     1
290
     0
176
     1
 40
1.0
176
     1
 40
1.0
176
     1
  0
VISUALSTYLE
  5
4DD7
102
{ACAD_REACTORS
330
4DC1
102
}
330
4DC1
100
AcDbVisualStyle
  2
X-Ray
 70
    25
177
     3
291
     0
 70
    58
 90
        2
176
     1
 90
        2
176
     1
 90
        1
176
     1
 90
        1
176
     1
 40
0.5
176
     1
 40
30.0
176
     1
 62
     7
420
 16777215
176
     1
 90
        1
176
     1
 90
        0
176
     1
 62
     7
176
     1
 62
   257
176
     1
 90
        1
176
     1
 90
        1
176
     1
 40
1.0
176
     1
 90
        8
176
     1
 62
     7
176
     1
 40
1.0
176
     1
 90
        1
176
     1
 90
        6
176
     1
 90
        2
176
     1
 62
     7
176
     1
 90
        3
176
     1
 90
        0
176
     1
 90
        0
176
     1
290
     0
176
     1
 90
       13
176
     1
 40
0.0
176
     1
 90
        0
176
     1
290
     0
176
     1
290
     1
176
     1
290
     1
176
     1
290
     0
176
     1
290
     0
176
     1
290
     0
176
     1
290
     0
176
     1
290
     0
176
     1
290
     0
176
     1
 90
       50
176
     1
 40
0.0
176
     1
 40
1.0
176
     1
 90
        0
176
     1
 62
    18
420
        0
176
     1
 90
       50
176
     1
 90
        3
176
     1
 62
     5
420
      255
176
     1
290
     0
176
     1
 90
       50
176
     1
 90
       50
176
     1
 90
       50
176
     1
290
     0
176
     1
 90
       50
176
     1
 62
   256
176
     0
 40
1.0
176
     0
 90
        2
176
     1
  1
strokes_ogs.tif
176
     1
290
     0
176
     1
 40
1.0
176
     1
 40
1.0
176
     1
  0
DICTIONARYVAR
  5
50BA
102
{ACAD_REACTORS
330
50B9
102
}
330
50B9
100
DictionaryVariables
280
     0
  1
1:1
  0
DICTIONARYVAR
  5
50BF
102
{ACAD_REACTORS
330
50B9
102
}
330
50B9
100
DictionaryVariables
280
     0
  1
Standard
  0
DICTIONARYVAR
  5
50BE
102
{ACAD_REACTORS
330
50B9
102
}
330
50B9
100
DictionaryVariables
280
     0
  1
Standard
  0
DICTIONARYVAR
  5
A621
102
{ACAD_REACTORS
330
50B9
102
}
330
50B9
100
DictionaryVariables
280
     0
  1
ByLayer
  0
DICTIONARYVAR
  5
50C0
102
{ACAD_REACTORS
330
50B9
102
}
330
50B9
100
DictionaryVariables
280
     0
  1
0
  0
XRECORD
  5
4FB1
102
{ACAD_REACTORS
330
4FB0
102
}
330
4FB0
100
AcDbXrecord
280
     1
 91
     1023
301

290
     0
302
0
330
4D70
 90
        8
 62
     7
370
    -3
331
4D75
  1
Normal
330
0
 90
        0
 62
     7
370
    -3
331
4D75
  1
Normal
330
4D88
 90
        8
 62
   150
370
    -3
331
4D75
  1
Normal
330
0
 90
        8
 62
     7
370
    -3
331
4D75
  1
Normal
330
4D8A
 90
        8
 62
    62
370
    -3
331
4D75
  1
Normal
330
0
 90
        8
 62
     1
370
    -3
331
4D75
  1
Normal
330
0
 90
        8
 62
    10
370
    -3
331
4D75
  1
Normal
330
0
 90
        8
 62
   150
370
    -3
331
4D75
  1
Normal
330
0
 90
        8
 62
   150
370
    -3
331
4D75
  1
Normal
330
0
 90
        8
 62
    90
370
    -3
331
4D75
  1
Normal
330
4D90
 90
        8
 62
     6
370
    -3
331
4D75
  1
Normal
330
0
 90
        8
 62
   140
370
    -3
331
4D75
  1
Normal
330
0
 90
        8
 62
     2
370
    -3
331
4D75
  1
Normal
330
0
 90
        8
 62
    94
370
    -3
331
4D75
  1
Normal
330
4D94
 90
        8
 62
    54
370
    -3
331
4D75
  1
Normal
330
0
 90
        8
 62
     6
370
    -3
331
4D75
  1
Normal
330
0
 90
        8
 62
    40
370
    -3
331
4D75
  1
Normal
  0
XRECORD
  5
6950
102
{ACAD_REACTORS
330
4FB0
102
}
330
4FB0
100
AcDbXrecord
280
     1
 91
     1023
301

290
     0
302
ROUTE_T57CF3E1Z4N4
330
4D70
 90
        8
 62
     7
370
    -3
331
4D75
  1
Normal
330
4D88
 90
        8
 62
   150
370
    -3
331
4D75
  1
Normal
330
4D8A
 90
        8
 62
   150
370
    -3
331
4D75
  1
Normal
330
4D90
 90
        8
 62
     6
370
    -3
331
4D75
  1
Normal
330
4D94
 90
        8
 62
     3
370
    -3
331
4D75
  1
Normal
  0
XRECORD
  5
A619
102
{ACAD_REACTORS
330
4FB0
102
}
330
4FB0
100
AcDbXrecord
280
     1
 91
     1023
301

290
     0
302
0
330
4D70
 90
        8
 62
     7
370
    -3
331
4D75
  1
Normal
330
4D88
 90
        8
 62
   150
370
    -3
331
4D75
  1
Normal
330
4D8A
 90
        8
 62
   150
370
    -3
331
4D75
  1
Normal
330
4D90
 90
        8
 62
     6
370
    -3
331
4D75
  1
Normal
330
4D94
 90
        8
 62
     3
370
    -3
331
4D75
  1
Normal
  0
XRECORD
  5
A648
102
{ACAD_REACTORS
330
4FB0
102
}
330
4FB0
100
AcDbXrecord
280
     1
 91
     1023
301

290
     0
302
0
330
4D70
 90
        8
 62
     7
370
    -3
331
4D75
  1
Normal
330
4D88
 90
        8
 62
   150
370
    -3
331
4D75
  1
Normal
330
4D8A
 90
        8
 62
   150
370
    -3
331
4D75
  1
Normal
330
4D90
 90
        8
 62
     6
370
    -3
331
4D75
  1
Normal
330
4D94
 90
        8
 62
     3
370
    -3
331
4D75
  1
Normal
  0
XRECORD
  5
A649
102
{ACAD_REACTORS
330
4FB0
102
}
330
4FB0
100
AcDbXrecord
280
     1
 91
     1023
301

290
     0
302
0
330
4D70
 90
        8
 62
     7
370
    -3
331
4D75
  1
Normal
330
4D88
 90
        8
 62
   150
370
    -3
331
4D75
  1
Normal
330
4D8A
 90
        8
 62
   150
370
    -3
331
4D75
  1
Normal
330
4D90
 90
        9
 62
     6
370
    -3
331
4D75
  1
Normal
330
4D94
 90
        8
 62
     3
370
    -3
331
4D75
  1
Normal
  0
XRECORD
  5
A64A
102
{ACAD_REACTORS
330
4FB0
102
}
330
4FB0
100
AcDbXrecord
280
     1
 91
     1023
301

290
     0
302
0
330
4D70
 90
        8
 62
     7
370
    -3
331
4D75
  1
Normal
330
4D88
 90
        8
 62
   150
370
    -3
331
4D75
  1
Normal
330
4D8A
 90
        8
 62
   150
370
    -3
331
4D75
  1
Normal
330
4D90
 90
        9
 62
     6
370
    -3
331
4D75
  1
Normal
330
4D94
 90
        9
 62
     3
370
    -3
331
4D75
  1
Normal
  0
XRECORD
  5
A64B
102
{ACAD_REACTORS
330
4FB0
102
}
330
4FB0
100
AcDbXrecord
280
     1
 91
     1023
301

290
     0
302
0
330
4D70
 90
        8
 62
     7
370
    -3
331
4D75
  1
Normal
330
4D88
 90
        8
 62
   150
370
    -3
331
4D75
  1
Normal
330
4D8A
 90
        8
 62
   150
370
    -3
331
4D75
  1
Normal
330
4D90
 90
        9
 62
     6
370
    -3
331
4D75
  1
Normal
330
4D94
 90
        8
 62
     3
370
    -3
331
4D75
  1
Normal
  0
XRECORD
  5
A64C
102
{ACAD_REACTORS
330
4FB0
102
}
330
4FB0
100
AcDbXrecord
280
     1
 91
     1023
301

290
     0
302
0
330
4D70
 90
        8
 62
     7
370
    -3
331
4D75
  1
Normal
330
4D88
 90
        8
 62
   150
370
    -3
331
4D75
  1
Normal
330
4D8A
 90
        9
 62
   150
370
    -3
331
4D75
  1
Normal
330
4D90
 90
        9
 62
     6
370
    -3
331
4D75
  1
Normal
330
4D94
 90
        8
 62
     3
370
    -3
331
4D75
  1
Normal
  0
XRECORD
  5
A64D
102
{ACAD_REACTORS
330
4FB0
102
}
330
4FB0
100
AcDbXrecord
280
     1
 91
     1023
301

290
     0
302
0
330
4D70
 90
        8
 62
     7
370
    -3
331
4D75
  1
Normal
330
4D88
 90
        8
 62
   150
370
    -3
331
4D75
  1
Normal
330
4D8A
 90
        9
 62
   150
370
    -3
331
4D75
  1
Normal
330
4D90
 90
        9
 62
     6
370
    -3
331
4D75
  1
Normal
330
4D94
 90
        9
 62
     3
370
    -3
331
4D75
  1
Normal
  0
XRECORD
  5
A64E
102
{ACAD_REACTORS
330
4FB0
102
}
330
4FB0
100
AcDbXrecord
280
     1
 91
     1023
301

290
     0
302
ROUTE_T58CF3E1Z4
330
4D70
 90
        8
 62
     7
370
    -3
331
4D75
  1
Normal
330
4D88
 90
        8
 62
   150
370
    -3
331
4D75
  1
Normal
330
4D8A
 90
        9
 62
   150
370
    -3
331
4D75
  1
Normal
330
4D90
 90
        9
 62
     6
370
    -3
331
4D75
  1
Normal
330
4D94
 90
        9
 62
     3
370
    -3
331
4D75
  1
Normal
  0
XRECORD
  5
A64F
102
{ACAD_REACTORS
330
4FB0
102
}
330
4FB0
100
AcDbXrecord
280
     1
 91
     1023
301

290
     0
302
ROUTE_T58CF3E1Z4
330
4D70
 90
        8
 62
     7
370
    -3
331
4D75
  1
Normal
330
4D88
 90
        8
 62
   150
370
    -3
331
4D75
  1
Normal
330
4D8A
 90
        9
 62
   150
370
    -3
331
4D75
  1
Normal
330
4D90
 90
        8
 62
     6
370
    -3
331
4D75
  1
Normal
330
4D94
 90
        9
 62
     3
370
    -3
331
4D75
  1
Normal
  0
XRECORD
  5
50CE
102
{ACAD_REACTORS
330
4FB0
102
}
330
4FB0
100
AcDbXrecord
280
     1
 91
     1023
301

290
     0
302
0
330
4D70
 90
        8
 62
     7
370
    -3
331
4D75
  1
Normal
330
0
 90
        0
 62
     7
370
    -3
331
4D75
  1
Normal
330
4D88
 90
        8
 62
   150
370
    -3
331
4D75
  1
Normal
330
0
 90
        8
 62
     7
370
    -3
331
4D75
  1
Normal
330
4D8A
 90
        8
 62
    62
370
    -3
331
4D75
  1
Normal
330
0
 90
        8
 62
     1
370
    -3
331
4D75
  1
Normal
330
0
 90
        8
 62
    10
370
    -3
331
4D75
  1
Normal
330
0
 90
        8
 62
   150
370
    -3
331
4D75
  1
Normal
330
0
 90
        8
 62
   150
370
    -3
331
4D75
  1
Normal
330
0
 90
        8
 62
    90
370
    -3
331
4D75
  1
Normal
330
4D90
 90
        8
 62
     6
370
    -3
331
4D75
  1
Normal
330
0
 90
        8
 62
   140
370
    -3
331
4D75
  1
Normal
330
0
 90
        8
 62
     2
370
    -3
331
4D75
  1
Normal
330
0
 90
        8
 62
    94
370
    -3
331
4D75
  1
Normal
330
4D94
 90
        8
 62
    54
370
    -3
331
4D75
  1
Normal
330
0
 90
        8
 62
     6
370
    -3
331
4D75
  1
Normal
330
0
 90
        8
 62
    40
370
    -3
331
4D75
  1
Normal
  0
XRECORD
  5
A650
102
{ACAD_REACTORS
330
4FB0
102
}
330
4FB0
100
AcDbXrecord
280
     1
 91
     1023
301

290
     0
302
ROUTE_T58CF3E1Z4
330
4D70
 90
        8
 62
     7
370
    -3
331
4D75
  1
Normal
330
4D88
 90
        8
 62
   150
370
    -3
331
4D75
  1
Normal
330
4D8A
 90
        9
 62
   150
370
    -3
331
4D75
  1
Normal
330
4D90
 90
        8
 62
     6
370
    -3
331
4D75
  1
Normal
330
4D94
 90
        8
 62
     3
370
    -3
331
4D75
  1
Normal
  0
XRECORD
  5
A651
102
{ACAD_REACTORS
330
4FB0
102
}
330
4FB0
100
AcDbXrecord
280
     1
 91
     1023
301

290
     0
302
ROUTE_T58CF3E1Z4
330
4D70
 90
        8
 62
     7
370
    -3
331
4D75
  1
Normal
330
4D88
 90
        8
 62
   150
370
    -3
331
4D75
  1
Normal
330
4D8A
 90
        8
 62
   150
370
    -3
331
4D75
  1
Normal
330
4D90
 90
        8
 62
     6
370
    -3
331
4D75
  1
Normal
330
4D94
 90
        8
 62
     3
370
    -3
331
4D75
  1
Normal
  0
XRECORD
  5
50DD
102
{ACAD_REACTORS
330
4FB0
102
}
330
4FB0
100
AcDbXrecord
280
     1
 91
     1023
301

290
     0
302
0
330
4D70
 90
        8
 62
     7
370
    -3
331
4D75
  1
Normal
330
0
 90
        0
 62
     7
370
    -3
331
4D75
  1
Normal
330
4D88
 90
        8
 62
   150
370
    -3
331
4D75
  1
Normal
330
0
 90
        8
 62
     7
370
    -3
331
4D75
  1
Normal
330
4D8A
 90
        8
 62
    62
370
    -3
331
4D75
  1
Normal
330
0
 90
        8
 62
     1
370
    -3
331
4D75
  1
Normal
330
0
 90
        8
 62
    10
370
    -3
331
4D75
  1
Normal
330
0
 90
        8
 62
   150
370
    -3
331
4D75
  1
Normal
330
0
 90
        8
 62
   150
370
    -3
331
4D75
  1
Normal
330
0
 90
        8
 62
    90
370
    -3
331
4D75
  1
Normal
330
4D90
 90
        8
 62
     6
370
    -3
331
4D75
  1
Normal
330
0
 90
        8
 62
   140
370
    -3
331
4D75
  1
Normal
330
0
 90
        8
 62
     2
370
    -3
331
4D75
  1
Normal
330
0
 90
        8
 62
    94
370
    -3
331
4D75
  1
Normal
330
4D94
 90
        8
 62
     3
370
    -3
331
4D75
  1
Normal
330
0
 90
        8
 62
     6
370
    -3
331
4D75
  1
Normal
330
0
 90
        8
 62
    40
370
    -3
331
4D75
  1
Normal
  0
XRECORD
  5
50E5
102
{ACAD_REACTORS
330
4FB0
102
}
330
4FB0
100
AcDbXrecord
280
     1
 91
     1023
301

290
     0
302
0
330
4D70
 90
        8
 62
     7
370
    -3
331
4D75
  1
Normal
330
0
 90
        0
 62
     7
370
    -3
331
4D75
  1
Normal
330
4D88
 90
        8
 62
   150
370
    -3
331
4D75
  1
Normal
330
0
 90
        8
 62
     7
370
    -3
331
4D75
  1
Normal
330
4D8A
 90
        8
 62
   150
370
    -3
331
4D75
  1
Normal
330
0
 90
        8
 62
     1
370
    -3
331
4D75
  1
Normal
330
0
 90
        8
 62
    10
370
    -3
331
4D75
  1
Normal
330
0
 90
        8
 62
   150
370
    -3
331
4D75
  1
Normal
330
0
 90
        8
 62
   150
370
    -3
331
4D75
  1
Normal
330
0
 90
        8
 62
    90
370
    -3
331
4D75
  1
Normal
330
4D90
 90
        8
 62
     6
370
    -3
331
4D75
  1
Normal
330
0
 90
        8
 62
   140
370
    -3
331
4D75
  1
Normal
330
0
 90
        8
 62
     2
370
    -3
331
4D75
  1
Normal
330
0
 90
        8
 62
    94
370
    -3
331
4D75
  1
Normal
330
4D94
 90
        8
 62
     3
370
    -3
331
4D75
  1
Normal
330
0
 90
        8
 62
     6
370
    -3
331
4D75
  1
Normal
330
0
 90
        8
 62
    40
370
    -3
331
4D75
  1
Normal
  0
XRECORD
  5
6864
102
{ACAD_REACTORS
330
4FB0
102
}
330
4FB0
100
AcDbXrecord
280
     1
 91
     1023
301

290
     0
302
0
330
4D70
 90
        8
 62
     7
370
    -3
331
4D75
  1
Normal
330
4D88
 90
        8
 62
   150
370
    -3
331
4D75
  1
Normal
330
4D8A
 90
        8
 62
   150
370
    -3
331
4D75
  1
Normal
330
4D90
 90
        8
 62
     6
370
    -3
331
4D75
  1
Normal
330
4D94
 90
        8
 62
     3
370
    -3
331
4D75
  1
Normal
  0
XRECORD
  5
68A9
102
{ACAD_REACTORS
330
4FB0
102
}
330
4FB0
100
AcDbXrecord
280
     1
 91
     1023
301

290
     0
302
ROUTE_T57CF3E1Z4N4
330
4D70
 90
        8
 62
     7
370
    -3
331
4D75
  1
Normal
330
4D88
 90
        8
 62
   150
370
    -3
331
4D75
  1
Normal
330
4D8A
 90
        8
 62
   150
370
    -3
331
4D75
  1
Normal
330
4D90
 90
        8
 62
     6
370
    -3
331
4D75
  1
Normal
330
4D94
 90
        8
 62
     3
370
    -3
331
4D75
  1
Normal
  0
XRECORD
  5
68AE
102
{ACAD_REACTORS
330
4FB0
102
}
330
4FB0
100
AcDbXrecord
280
     1
 91
     1023
301

290
     0
302
0
330
4D70
 90
        8
 62
     7
370
    -3
331
4D75
  1
Normal
330
4D88
 90
        8
 62
   150
370
    -3
331
4D75
  1
Normal
330
4D8A
 90
        8
 62
   150
370
    -3
331
4D75
  1
Normal
330
4D90
 90
        8
 62
     6
370
    -3
331
4D75
  1
Normal
330
4D94
 90
        8
 62
     3
370
    -3
331
4D75
  1
Normal
  0
XRECORD
  5
68B2
102
{ACAD_REACTORS
330
4FB0
102
}
330
4FB0
100
AcDbXrecord
280
     1
 91
     1023
301

290
     0
302
ROUTE_T57CF3E1Z4N4
330
4D70
 90
        8
 62
     7
370
    -3
331
4D75
  1
Normal
330
4D88
 90
        8
 62
   150
370
    -3
331
4D75
  1
Normal
330
4D8A
 90
        8
 62
   150
370
    -3
331
4D75
  1
Normal
330
4D90
 90
        8
 62
     6
370
    -3
331
4D75
  1
Normal
330
4D94
 90
        8
 62
     3
370
    -3
331
4D75
  1
Normal
  0
XRECORD
  5
6942
102
{ACAD_REACTORS
330
4FB0
102
}
330
4FB0
100
AcDbXrecord
280
     1
 91
     1023
301

290
     0
302
0
330
4D70
 90
        8
 62
     7
370
    -3
331
4D75
  1
Normal
330
4D88
 90
        8
 62
   150
370
    -3
331
4D75
  1
Normal
330
4D8A
 90
        8
 62
   150
370
    -3
331
4D75
  1
Normal
330
4D90
 90
        8
 62
     6
370
    -3
331
4D75
  1
Normal
330
4D94
 90
        8
 62
     3
370
    -3
331
4D75
  1
Normal
  0
DICTIONARY
  5
A657
330
4DDB
100
AcDbDictionary
280
     1
281
     1
  3
ACAD_ROUNDTRIP_2008_TABLESTYLE_CELLSTYLEMAP
360
A658
  0
CELLSTYLEMAP
  5
A658
102
{ACAD_REACTORS
330
A657
102
}
330
A657
100
AcDbCellStyleMap
 90
        3
300
CELLSTYLE
  1
TABLEFORMAT_BEGIN
 90
        5
170
     1
 91
        0
 92
    32768
 62
   257
 93
        1
300
CONTENTFORMAT
  1
CONTENTFORMAT_BEGIN
 90
        0
 91
        0
 92
        4
 93
        0
300

 40
0.0
140
1.0
 94
        5
 62
     0
340
4D71
144
0.25
309
CONTENTFORMAT_END
171
     1
301
MARGIN
  1
CELLMARGIN_BEGIN
 40
0.06
 40
0.06
 40
0.06
 40
0.06
 40
0.06
 40
0.06
309
CELLMARGIN_END
 94
        6
 95
        1
302
GRIDFORMAT
  1
GRIDFORMAT_BEGIN
 90
        0
 91
        1
 62
     0
 92
       -2
340
4D73
 93
        0
 40
0.045
309
GRIDFORMAT_END
 95
        2
302
GRIDFORMAT
  1
GRIDFORMAT_BEGIN
 90
        0
 91
        1
 62
     0
 92
       -2
340
4D73
 93
        0
 40
0.045
309
GRIDFORMAT_END
 95
        4
302
GRIDFORMAT
  1
GRIDFORMAT_BEGIN
 90
        0
 91
        1
 62
     0
 92
       -2
340
4D73
 93
        0
 40
0.045
309
GRIDFORMAT_END
 95
        8
302
GRIDFORMAT
  1
GRIDFORMAT_BEGIN
 90
        0
 91
        1
 62
     0
 92
       -2
340
4D73
 93
        0
 40
0.045
309
GRIDFORMAT_END
 95
       16
302
GRIDFORMAT
  1
GRIDFORMAT_BEGIN
 90
        0
 91
        1
 62
     0
 92
       -2
340
4D73
 93
        0
 40
0.045
309
GRIDFORMAT_END
 95
       32
302
GRIDFORMAT
  1
GRIDFORMAT_BEGIN
 90
        0
 91
        1
 62
     0
 92
       -2
340
4D73
 93
        0
 40
0.045
309
GRIDFORMAT_END
309
TABLEFORMAT_END
  1
CELLSTYLE_BEGIN
 90
        1
 91
        1
300
_TITLE
309
CELLSTYLE_END
300
CELLSTYLE
  1
TABLEFORMAT_BEGIN
 90
        5
170
     1
 91
        0
 92
        0
 62
   257
 93
        1
300
CONTENTFORMAT
  1
CONTENTFORMAT_BEGIN
 90
        0
 91
        0
 92
        4
 93
        0
300

 40
0.0
140
1.0
 94
        5
 62
     0
340
4D71
144
0.18
309
CONTENTFORMAT_END
171
     1
301
MARGIN
  1
CELLMARGIN_BEGIN
 40
0.06
 40
0.06
 40
0.06
 40
0.06
 40
0.06
 40
0.06
309
CELLMARGIN_END
 94
        6
 95
        1
302
GRIDFORMAT
  1
GRIDFORMAT_BEGIN
 90
        0
 91
        1
 62
     0
 92
       -2
340
4D73
 93
        0
 40
0.045
309
GRIDFORMAT_END
 95
        2
302
GRIDFORMAT
  1
GRIDFORMAT_BEGIN
 90
        0
 91
        1
 62
     0
 92
       -2
340
4D73
 93
        0
 40
0.045
309
GRIDFORMAT_END
 95
        4
302
GRIDFORMAT
  1
GRIDFORMAT_BEGIN
 90
        0
 91
        1
 62
     0
 92
       -2
340
4D73
 93
        0
 40
0.045
309
GRIDFORMAT_END
 95
        8
302
GRIDFORMAT
  1
GRIDFORMAT_BEGIN
 90
        0
 91
        1
 62
     0
 92
       -2
340
4D73
 93
        0
 40
0.045
309
GRIDFORMAT_END
 95
       16
302
GRIDFORMAT
  1
GRIDFORMAT_BEGIN
 90
        0
 91
        1
 62
     0
 92
       -2
340
4D73
 93
        0
 40
0.045
309
GRIDFORMAT_END
 95
       32
302
GRIDFORMAT
  1
GRIDFORMAT_BEGIN
 90
        0
 91
        1
 62
     0
 92
       -2
340
4D73
 93
        0
 40
0.045
309
GRIDFORMAT_END
309
TABLEFORMAT_END
  1
CELLSTYLE_BEGIN
 90
        2
 91
        1
300
_HEADER
309
CELLSTYLE_END
300
CELLSTYLE
  1
TABLEFORMAT_BEGIN
 90
        5
170
     1
 91
        0
 92
        0
 62
   257
 93
        1
300
CONTENTFORMAT
  1
CONTENTFORMAT_BEGIN
 90
        0
 91
        0
 92
        4
 93
        0
300

 40
0.0
140
1.0
 94
        2
 62
     0
340
4D71
144
0.18
309
CONTENTFORMAT_END
171
     1
301
MARGIN
  1
CELLMARGIN_BEGIN
 40
0.06
 40
0.06
 40
0.06
 40
0.06
 40
0.06
 40
0.06
309
CELLMARGIN_END
 94
        6
 95
        1
302
GRIDFORMAT
  1
GRIDFORMAT_BEGIN
 90
        0
 91
        1
 62
     0
 92
       -2
340
4D73
 93
        0
 40
0.045
309
GRIDFORMAT_END
 95
        2
302
GRIDFORMAT
  1
GRIDFORMAT_BEGIN
 90
        0
 91
        1
 62
     0
 92
       -2
340
4D73
 93
        0
 40
0.045
309
GRIDFORMAT_END
 95
        4
302
GRIDFORMAT
  1
GRIDFORMAT_BEGIN
 90
        0
 91
        1
 62
     0
 92
       -2
340
4D73
 93
        0
 40
0.045
309
GRIDFORMAT_END
 95
        8
302
GRIDFORMAT
  1
GRIDFORMAT_BEGIN
 90
        0
 91
        1
 62
     0
 92
       -2
340
4D73
 93
        0
 40
0.045
309
GRIDFORMAT_END
 95
       16
302
GRIDFORMAT
  1
GRIDFORMAT_BEGIN
 90
        0
 91
        1
 62
     0
 92
       -2
340
4D73
 93
        0
 40
0.045
309
GRIDFORMAT_END
 95
       32
302
GRIDFORMAT
  1
GRIDFORMAT_BEGIN
 90
        0
 91
        1
 62
     0
 92
       -2
340
4D73
 93
        0
 40
0.045
309
GRIDFORMAT_END
309
TABLEFORMAT_END
  1
CELLSTYLE_BEGIN
 90
        3
 91
        2
300
_DATA
309
CELLSTYLE_END
  0
ENDSEC
  0
EOF
