  0
SECTION
  2
HEADER
  9
$ACADVER
  1
AC1009
  9
$MEASUREMENT
  70
0
  9
$INSUNITS
  70
1
  9
$DIMLFAC
  40
0.999999995904
  9
$INSBASE
  10
0.0
  20
0.0
  30
0.0
  9
$EXTMIN
  10
0.000000120148
  20
-0.787401867264
  9
$EXTMAX
  10
10.70978301952
  20
6.631250722816
  9
$LIMMIN
  10
0.000000120148
  20
-0.787401867264
  9
$LIMMAX
  10
10.70978301952
  20
6.631250722816
  9
$CLAYER
  8
0
  0
ENDSEC
  0
SECTION
  2
TABLES
  0
TABLE
  2
LTYPE
  70
2
  0
LTYPE
  2
CONTINUOUS
  70
65
  3
Solid line
  72
65
  73
0
  40
0
  0
LTYPE
  2
DASHED
  70
65
  3
 _ _ _ _ _ _ _ _ _ _ _ _ _ _ _ _ _ _ _ _ _ _
  72
65
  73
2
  40
1.999999991808
  49
0.999999995904
  49
-0.999999995904
  0
ENDTAB
  0
TABLE
  2
LAYER
  70
1
  0
LAYER
  2
0
  70
0
  62
7
  6
CONTINUOUS
  0
ENDTAB
  0
ENDSEC
  0
SECTION
  2
BLOCKS
  0
ENDSEC
  0
SECTION
  2
ENTITIES
  0
LINE
  8
0
  10
2.925690355712
  20
6.625147486208
  30
0.062499999744
  11
3.425690451968
  21
6.625147486208
  31
0.062499999744
  0
LINE
  8
0
  10
3.425690714112
  20
6.625147486208
  30
0
  11
3.425690714112
  21
6.500147265536
  31
0
  0
LINE
  8
0
  10
3.425690714112
  20
6.500147265536
  30
0
  11
3.925852028928
  21
6.500147265536
  31
0
  0
LINE
  8
0
  10
3.925852028928
  20
6.500147265536
  30
0
  11
3.925852028928
  21
6.624999636992
  31
0
  0
LINE
  8
0
  10
3.925852028928
  20
6.624999636992
  30
0
  11
4.425851600896
  21
6.624999636992
  31
0
  0
LINE
  8
0
  10
2.925690355712
  20
6.625147486208
  30
0
  11
2.925690355712
  21
6.125147652096
  31
0
  0
LINE
  8
0
  10
4.425852125184
  20
6.624999636992
  30
0
  11
4.425852125184
  21
6.12499980288
  31
0
  0
LINE
  8
0
  10
4.425852125184
  20
6.12499980288
  30
0
  11
4.300852166656
  21
6.12499980288
  31
0
  0
LINE
  8
0
  10
2.925690355712
  20
6.125147652096
  30
0
  11
3.050690576384
  21
6.125147652096
  31
0
  0
LINE
  8
0
  10
3.050690576384
  20
6.125147652096
  30
0
  11
3.05074274304
  21
5.125147983872
  31
0
  0
LINE
  8
0
  10
4.300852166656
  20
6.12499980288
  30
0
  11
4.300852166656
  21
5.125000134656
  31
0
  0
LINE
  8
0
  10
3.05074274304
  20
5.125147459584
  30
0
  11
2.925742522368
  21
5.125147459584
  31
0
  0
LINE
  8
0
  10
4.300852166656
  20
5.124999610368
  30
0
  11
4.425852125184
  21
5.124999610368
  31
0
  0
LINE
  8
0
  10
2.925742522368
  20
5.125147459584
  30
0
  11
2.925742522368
  21
4.125147267072
  31
0
  0
LINE
  8
0
  10
4.425852125184
  20
5.124999610368
  30
0
  11
4.425852125184
  21
4.124999417856
  31
0
  0
LINE
  8
0
  10
2.925742522368
  20
4.125147267072
  30
0
  11
3.05074274304
  21
4.125147267072
  31
0
  0
LINE
  8
0
  10
4.425852125184
  20
4.124999417856
  30
0
  11
4.300852166656
  21
4.124999417856
  31
0
  0
LINE
  8
0
  10
3.05074274304
  20
4.125147267072
  30
0
  11
3.05074274304
  21
3.125147598848
  31
0
  0
LINE
  8
0
  10
4.300852166656
  20
4.124999417856
  30
0
  11
4.300852166656
  21
3.124999749632
  31
0
  0
LINE
  8
0
  10
3.05074274304
  20
3.125147598848
  30
0
  11
2.925742522368
  21
3.125147598848
  31
0
  0
LINE
  8
0
  10
4.300852166656
  20
3.124999749632
  30
0
  11
4.425852125184
  21
3.124999749632
  31
0
  0
LINE
  8
0
  10
2.925742522368
  20
3.125147598848
  30
0
  11
2.925742522368
  21
2.125147275264
  31
0
  0
LINE
  8
0
  10
4.425852125184
  20
3.124999749632
  30
0
  11
4.425852125184
  21
2.12499955712
  31
0
  0
LINE
  8
0
  10
2.925742522368
  20
2.125147537408
  30
0
  11
3.30074292224
  21
2.125147537408
  31
0
  0
LINE
  8
0
  10
3.30074292224
  20
2.125147537408
  30
0
  11
3.30074292224
  21
2.00014757888
  31
0
  0
LINE
  8
0
  10
3.300851974144
  20
1.999999598592
  30
0
  11
4.0508522496
  21
1.999999598592
  31
0
  0
LINE
  8
0
  10
4.0508522496
  20
1.999999598592
  30
0
  11
4.0508522496
  21
2.12499955712
  31
0
  0
LINE
  8
0
  10
4.0508522496
  20
2.12499955712
  30
0
  11
4.425852125184
  21
2.12499955712
  31
0
  0
CIRCLE
  8
0
  10
3.321193562112
  20
6.130126290944
  30
0
  40
0.156249997312
  0
CIRCLE
  8
0
  10
4.02313314304
  20
6.122496851968
  30
0
  40
0.156249997312
  0
CIRCLE
  8
0
  10
3.33124993024
  20
5.13049100288
  30
0
  40
0.156249997312
  0
CIRCLE
  8
0
  10
4.017066344448
  20
5.130772545536
  30
0
  40
0.156249997312
  0
CIRCLE
  8
0
  10
3.335681998848
  20
4.632216076288
  30
0
  40
0.156249997312
  0
CIRCLE
  8
0
  10
4.026498809856
  20
4.640313704448
  30
0
  40
0.156249997312
  0
CIRCLE
  8
0
  10
3.321875136512
  20
4.127366578176
  30
0
  40
0.156249997312
  0
CIRCLE
  8
0
  10
4.026498809856
  20
4.121558777856
  30
0
  40
0.156249997312
  0
CIRCLE
  8
0
  10
3.340624986112
  20
3.124241629184
  30
0
  40
0.156249997312
  0
CIRCLE
  8
0
  10
4.015625076736
  20
3.124241629184
  30
0
  40
0.156249997312
  0
LINE
  8
0
  10
4.72711692288
  20
6.622773510144
  30
0
  11
5.227578130432
  21
6.622773510144
  31
0
  0
LINE
  8
0
  10
4.72711692288
  20
6.622773510144
  30
0
  11
4.72711692288
  21
6.122538795008
  31
0
  0
LINE
  8
0
  10
5.227578130432
  20
6.622773510144
  30
0
  11
5.227578130432
  21
6.122773676032
  31
0
  0
LINE
  8
0
  10
4.72711692288
  20
6.122538795008
  30
0
  11
4.602117226496
  21
6.122538795008
  31
0
  0
LINE
  8
0
  10
4.602117226496
  20
6.122538795008
  30
0
  11
4.602117226496
  21
5.122539126784
  31
0
  0
LINE
  8
0
  10
4.602117226496
  20
5.122539126784
  30
0
  11
4.72711692288
  21
5.122539126784
  31
0
  0
LINE
  8
0
  10
4.72711692288
  20
5.122539126784
  30
0
  11
4.72711692288
  21
4.122538934272
  31
0
  0
LINE
  8
0
  10
4.72711692288
  20
4.122538934272
  30
0
  11
4.602117226496
  21
4.122538934272
  31
0
  0
LINE
  8
0
  10
4.602117226496
  20
4.122538934272
  30
0
  11
4.602117226496
  21
3.12253874176
  31
0
  0
LINE
  8
0
  10
4.602117226496
  20
3.12253874176
  30
0
  11
4.72711692288
  21
3.12253874176
  31
0
  0
LINE
  8
0
  10
4.72711692288
  20
3.12253874176
  30
0
  11
4.72711692288
  21
2.122538811392
  31
0
  0
LINE
  8
0
  10
4.72711692288
  20
2.12241743872
  30
0
  11
5.22711728128
  21
2.12241743872
  31
0
  0
LINE
  8
0
  10
5.22711728128
  20
2.12241743872
  30
0
  11
5.22711728128
  21
3.122417369088
  31
0
  0
LINE
  8
0
  10
5.22711728128
  20
3.122417369088
  30
0
  11
5.352116977664
  21
3.122417369088
  31
0
  0
LINE
  8
0
  10
5.352116977664
  20
3.122417369088
  30
0
  11
5.352116977664
  21
4.122911440896
  31
0
  0
LINE
  8
0
  10
5.352116977664
  20
4.122911440896
  30
0
  11
5.22711728128
  21
4.122911440896
  31
0
  0
LINE
  8
0
  10
5.22711728128
  20
4.122911440896
  30
0
  11
5.22711728128
  21
5.122911371264
  31
0
  0
LINE
  8
0
  10
5.22711728128
  20
5.122911371264
  30
0
  11
5.352116977664
  21
5.122911371264
  31
0
  0
LINE
  8
0
  10
5.352116977664
  20
5.122911371264
  30
0
  11
5.352116977664
  21
6.122659905536
  31
0
  0
LINE
  8
0
  10
5.227578130432
  20
6.122773676032
  30
0
  11
5.352116977664
  21
6.122773676032
  31
0
  0
LINE
  8
0
  10
5.531080589312
  20
6.631250722816
  30
0
  11
6.031080947712
  21
6.631250722816
  31
0
  0
LINE
  8
0
  10
6.031080947712
  20
6.631250722816
  30
0
  11
6.031080947712
  21
6.506251026432
  31
0
  0
LINE
  8
0
  10
6.031080947712
  20
6.506251026432
  30
0
  11
6.531080781824
  21
6.506251026432
  31
0
  0
LINE
  8
0
  10
6.531080781824
  20
6.506251026432
  30
0
  11
6.531080781824
  21
6.631250722816
  31
0
  0
LINE
  8
0
  10
6.531080781824
  20
6.631250722816
  30
0
  11
7.030964748288
  21
6.631250722816
  31
0
  0
LINE
  8
0
  10
5.531080589312
  20
6.631250722816
  30
0
  11
5.531080589312
  21
6.131251412992
  31
0
  0
LINE
  8
0
  10
5.531080589312
  20
6.131251412992
  30
0
  11
5.656081334272
  21
6.131251412992
  31
0
  0
LINE
  8
0
  10
5.656081334272
  20
6.131251412992
  30
0
  11
5.656081334272
  21
5.13125122048
  31
0
  0
LINE
  8
0
  10
5.656081334272
  20
5.13125122048
  30
0
  11
5.531080589312
  21
5.13125122048
  31
0
  0
LINE
  8
0
  10
5.531080589312
  20
5.13125122048
  30
0
  11
5.531080589312
  21
4.131251290112
  31
0
  0
LINE
  8
0
  10
5.531080589312
  20
4.131250765824
  30
0
  11
5.656081334272
  21
4.131250765824
  31
0
  0
LINE
  8
0
  10
5.656081334272
  20
4.131250765824
  30
0
  11
5.656081334272
  21
3.1312510976
  31
0
  0
LINE
  8
0
  10
5.656081334272
  20
3.131251359744
  30
0
  11
5.531080589312
  21
3.131251359744
  31
0
  0
LINE
  8
0
  10
5.531080589312
  20
3.131251359744
  30
0
  11
5.531080589312
  21
2.131251298304
  31
0
  0
LINE
  8
0
  10
5.531080589312
  20
2.131251298304
  30
0
  11
5.90608072704
  21
2.131251298304
  31
0
  0
LINE
  8
0
  10
5.90608072704
  20
2.131251298304
  30
0
  11
5.90608072704
  21
2.006251339776
  31
0
  0
LINE
  8
0
  10
5.905964859392
  20
2.006251077632
  30
0
  11
6.65596461056
  21
2.006251077632
  31
0
  0
LINE
  8
0
  10
6.65596461056
  20
2.006251077632
  30
0
  11
6.65596461056
  21
2.13125103616
  31
0
  0
LINE
  8
0
  10
6.65596461056
  20
2.131251298304
  30
0
  11
7.030964748288
  21
2.131251298304
  31
0
  0
LINE
  8
0
  10
7.030965272576
  20
6.631250722816
  30
0
  11
7.030965272576
  21
6.131251412992
  31
0
  0
LINE
  8
0
  10
7.030965272576
  20
6.131251412992
  30
0
  11
6.905965051904
  21
6.131251412992
  31
0
  0
LINE
  8
0
  10
6.905965051904
  20
6.131251412992
  30
0
  11
6.905965051904
  21
5.13125122048
  31
0
  0
LINE
  8
0
  10
6.905965051904
  20
5.13125122048
  30
0
  11
7.030965272576
  21
5.13125122048
  31
0
  0
LINE
  8
0
  10
7.030965272576
  20
5.13125122048
  30
0
  11
7.030965272576
  21
4.131251290112
  31
0
  0
LINE
  8
0
  10
7.030965272576
  20
4.131250765824
  30
0
  11
6.905965051904
  21
4.131250765824
  31
0
  0
LINE
  8
0
  10
6.905965051904
  20
4.131250765824
  30
0
  11
6.905965051904
  21
3.1312510976
  31
0
  0
LINE
  8
0
  10
6.905965051904
  20
3.131251359744
  30
0
  11
7.030965272576
  21
3.131251359744
  31
0
  0
LINE
  8
0
  10
7.030965272576
  20
3.131251359744
  30
0
  11
7.030965272576
  21
2.131251298304
  31
0
  0
LINE
  8
0
  10
2.124999950336
  20
2.10236669952
  30
0
  11
2.625000177664
  21
2.10236669952
  31
0
  0
LINE
  8
0
  10
2.625000177664
  20
2.10236669952
  30
0
  11
2.625000177664
  21
3.102366498816
  31
0
  0
LINE
  8
0
  10
2.625000177664
  20
3.102366498816
  30
0
  11
2.750000136192
  21
3.102366498816
  31
0
  0
LINE
  8
0
  10
2.749999874048
  20
3.102366498816
  30
0
  11
2.749999874048
  21
4.102366429184
  31
0
  0
LINE
  8
0
  10
2.749999874048
  20
4.102366429184
  30
0
  11
2.624999653376
  21
4.102366429184
  31
0
  0
LINE
  8
0
  10
2.625000177664
  20
4.102366429184
  30
0
  11
2.625000177664
  21
5.102366621696
  31
0
  0
LINE
  8
0
  10
2.625000177664
  20
5.102366621696
  30
0
  11
2.750000136192
  21
5.102366621696
  31
0
  0
LINE
  8
0
  10
2.749999874048
  20
5.102366621696
  30
0
  11
2.749999874048
  21
6.10236628992
  31
0
  0
LINE
  8
0
  10
2.749999874048
  20
6.10236628992
  30
0
  11
2.624999653376
  21
6.10236628992
  31
0
  0
LINE
  8
0
  10
2.625000177664
  20
6.10236628992
  30
0
  11
2.625000177664
  21
6.60236664832
  31
0
  0
LINE
  8
0
  10
2.625000177664
  20
6.60236664832
  30
0
  11
2.124999950336
  21
6.60236664832
  31
0
  0
LINE
  8
0
  10
2.124999950336
  20
6.60236664832
  30
0
  11
2.124999950336
  21
6.102366814208
  31
0
  0
LINE
  8
0
  10
2.124999950336
  20
6.10236628992
  30
0
  11
2.000000253952
  21
6.10236628992
  31
0
  0
LINE
  8
0
  10
2.000000253952
  20
6.10236628992
  30
0
  11
2.000000253952
  21
5.102366621696
  31
0
  0
LINE
  8
0
  10
2.000000253952
  20
5.102366621696
  30
0
  11
2.124999950336
  21
5.102366621696
  31
0
  0
LINE
  8
0
  10
2.124999950336
  20
5.102366621696
  30
0
  11
2.124999950336
  21
4.102366429184
  31
0
  0
LINE
  8
0
  10
2.124999950336
  20
4.102366429184
  30
0
  11
2.000000253952
  21
4.102366429184
  31
0
  0
LINE
  8
0
  10
2.000000253952
  20
4.102366429184
  30
0
  11
2.000000253952
  21
3.102366498816
  31
0
  0
LINE
  8
0
  10
2.000000253952
  20
3.102366498816
  30
0
  11
2.124999950336
  21
3.102366498816
  31
0
  0
LINE
  8
0
  10
2.124999950336
  20
3.102366498816
  30
0
  11
2.124999950336
  21
2.102366437376
  31
0
  0
CIRCLE
  8
0
  10
7.413497331712
  20
6.178367602688
  30
0
  40
0.039370080256
  0
CIRCLE
  8
0
  10
8.286750900224
  20
6.177018609664
  30
0
  40
0.039370080256
  0
LINE
  8
0
  10
7.600530188853
  20
5.803867249977
  30
0
  11
8.100530188853
  21
5.803867249977
  31
0
  0
LINE
  8
0
  10
8.100530068705
  20
5.803867249977
  30
0
  11
8.100530068705
  21
5.928867249977
  31
0
  0
LINE
  8
0
  10
8.100530068705
  20
5.928867370125
  30
0
  11
8.475530068705
  21
5.928867370125
  31
0
  0
LINE
  8
0
  10
8.475530429149
  20
5.928867370125
  30
0
  11
8.475530429149
  21
6.428867370125
  31
0
  0
LINE
  8
0
  10
8.475530429149
  20
6.428867249977
  30
0
  11
8.100530429149
  21
6.428867249977
  31
0
  0
LINE
  8
0
  10
8.100530068705
  20
6.428867249977
  30
0
  11
8.100530068705
  21
6.553867249977
  31
0
  0
LINE
  8
0
  10
8.100530068705
  20
6.553867370125
  30
0
  11
7.600530068705
  21
6.553867370125
  31
0
  0
LINE
  8
0
  10
7.600530188853
  20
6.553867370125
  30
0
  11
7.600530188853
  21
6.428867370125
  31
0
  0
LINE
  8
0
  10
7.600530188853
  20
6.428867249977
  30
0
  11
7.225530188853
  21
6.428867249977
  31
0
  0
LINE
  8
0
  10
7.225530429149
  20
6.428867249977
  30
0
  11
7.225530429149
  21
5.928867249977
  31
0
  0
LINE
  8
0
  10
7.225530429149
  20
5.928867370125
  30
0
  11
7.600530429149
  21
5.928867370125
  31
0
  0
LINE
  8
0
  10
7.600530188853
  20
5.928867370125
  30
0
  11
7.600530188853
  21
5.803867370125
  31
0
  0
TEXT
  8
0
  40
0.1
  72
0
  10
5.099970299428
  20
1.606298882192
  30
0
  1
Top
  50
0
  0
LINE
  8
0
  10
9.047380582554
  20
2.749999789741
  30
0
  11
9.547380582554
  21
2.749999789741
  31
0
  0
LINE
  8
0
  10
9.547380462406
  20
2.749999789741
  30
0
  11
9.547380462406
  21
2.624999789741
  31
0
  0
LINE
  8
0
  10
9.547380462406
  20
2.624999669593
  30
0
  11
9.922380462406
  21
2.624999669593
  31
0
  0
LINE
  8
0
  10
9.92238082285
  20
2.624999669593
  30
0
  11
9.92238082285
  21
2.124999669593
  31
0
  0
LINE
  8
0
  10
9.92238082285
  20
2.124999789741
  30
0
  11
9.54738082285
  21
2.124999789741
  31
0
  0
LINE
  8
0
  10
9.547380462406
  20
2.124999789741
  30
0
  11
9.547380462406
  21
1.999999789741
  31
0
  0
LINE
  8
0
  10
9.547380462406
  20
1.999999669593
  30
0
  11
9.047380462406
  21
1.999999669593
  31
0
  0
LINE
  8
0
  10
9.047380582554
  20
1.999999669593
  30
0
  11
9.047380582554
  21
2.124999669593
  31
0
  0
LINE
  8
0
  10
9.047380582554
  20
2.124999789741
  30
0
  11
8.672380582554
  21
2.124999789741
  31
0
  0
LINE
  8
0
  10
8.67238082285
  20
2.124999789741
  30
0
  11
8.67238082285
  21
2.624999789741
  31
0
  0
LINE
  8
0
  10
8.67238082285
  20
2.624999669593
  30
0
  11
9.04738082285
  21
2.624999669593
  31
0
  0
LINE
  8
0
  10
9.047380582554
  20
2.624999669593
  30
0
  11
9.047380582554
  21
2.749999669593
  31
0
  0
CIRCLE
  8
0
  10
9.73360136738
  20
2.376848506177
  30
0
  40
0.03937007874
  0
CIRCLE
  8
0
  10
8.86034807821
  20
2.37549924475
  30
0
  40
0.03937007874
  0
TEXT
  8
0
  40
0.1
  72
0
  10
9.159585547259
  20
1.606298882192
  30
0
  1
Bottom
  50
0
  0
TEXT
  8
0
  40
0.1
  72
0
  10
9.98143594096
  20
1.606298882192
  30
0
  1
Left
  50
0
  0
TEXT
  8
0
  40
0.1
  72
0
  10
10.178286334661
  20
1.606298882192
  30
0
  1
Right
  50
0
  0
TEXT
  8
0
  40
0.1
  72
0
  10
10.375136728362
  20
1.606298882192
  30
0
  1
Front
  50
0
  0
TEXT
  8
0
  40
0.1
  72
0
  10
10.571987122063
  20
1.606298882192
  30
0
  1
Back
  50
0
  0
LINE
  8
0
  10
0.000000120148
  20
0.999999669593
  30
0
  11
0.000000120148
  21
-0.000000330407
  31
0
  0
LINE
  8
0
  10
0.000000120148
  20
0.999999669593
  30
0
  11
1.000000120148
  21
0.999999669593
  31
0
  0
LINE
  8
0
  10
1.000000120148
  20
-0.000000330407
  30
0
  11
1.000000120148
  21
0.999999669593
  31
0
  0
LINE
  8
0
  10
0.000000120148
  20
-0.000000330407
  30
0
  11
1.000000120148
  21
-0.000000330407
  31
0
  0
TEXT
  8
0
  40
0.1
  72
0
  10
0.299212718573
  20
0.69291305542
  30
0
  1
1"x1"
  50
0
  0
TEXT
  8
0
  40
0.1
  72
0
  10
0.275590671329
  20
0.433070535735
  30
0
  1
scaling
  50
0
  0
TEXT
  8
0
  40
0.1
  72
0
  10
0.208661537471
  20
0.177165023924
  30
0
  1
reference
  50
0
  0
ENDSEC
  0
EOF
