  0
SECTION
  2
HEADER
  9
$ACADVER
  1
AC1021
  9
$ACADMAINTVER
 70
    25
  9
$DWGCODEPAGE
  3
UNDEFINED
  9
$INSBASE
 10
0.0
 20
0.0
 30
0.0
  9
$EXTMIN
 10
1.000000000000000E+20
 20
1.000000000000000E+20
 30
1.000000000000000E+20
  9
$EXTMAX
 10
-1.000000000000000E+20
 20
-1.000000000000000E+20
 30
-1.000000000000000E+20
  9
$LIMMIN
 10
0.0
 20
0.0
  9
$LIMMAX
 10
12.0
 20
9.0
  9
$ORTHOMODE
 70
     0
  9
$REGENMODE
 70
     1
  9
$FILLMODE
 70
     1
  9
$QTEXTMODE
 70
     0
  9
$MIRRTEXT
 70
     1
  9
$LTSCALE
 40
1.0
  9
$ATTMODE
 70
     1
  9
$TEXTSIZE
 40
0.2
  9
$TRACEWID
 40
0.05
  9
$TEXTSTYLE
  7
Standard
  9
$CLAYER
  8
0
  9
$CELTYPE
  6
ByLayer
  9
$CECOLOR
 62
   256
  9
$CELTSCALE
 40
1.0
  9
$DISPSILH
 70
     0
  9
$DIMSCALE
 40
1.0
  9
$DIMASZ
 40
0.18
  9
$DIMEXO
 40
0.0625
  9
$DIMDLI
 40
0.38
  9
$DIMRND
 40
0.0
  9
$DIMDLE
 40
0.0
  9
$DIMEXE
 40
0.18
  9
$DIMTP
 40
0.0
  9
$DIMTM
 40
0.0
  9
$DIMTXT
 40
0.18
  9
$DIMCEN
 40
0.09
  9
$DIMTSZ
 40
0.0
  9
$DIMTOL
 70
     0
  9
$DIMLIM
 70
     0
  9
$DIMTIH
 70
     1
  9
$DIMTOH
 70
     1
  9
$DIMSE1
 70
     0
  9
$DIMSE2
 70
     0
  9
$DIMTAD
 70
     0
  9
$DIMZIN
 70
     0
  9
$DIMBLK
  1

  9
$DIMASO
 70
     1
  9
$DIMSHO
 70
     1
  9
$DIMPOST
  1

  9
$DIMAPOST
  1

  9
$DIMALT
 70
     0
  9
$DIMALTD
 70
     2
  9
$DIMALTF
 40
25.4
  9
$DIMLFAC
 40
1.0
  9
$DIMTOFL
 70
     0
  9
$DIMTVP
 40
0.0
  9
$DIMTIX
 70
     0
  9
$DIMSOXD
 70
     0
  9
$DIMSAH
 70
     0
  9
$DIMBLK1
  1

  9
$DIMBLK2
  1

  9
$DIMSTYLE
  2
Standard
  9
$DIMCLRD
 70
     0
  9
$DIMCLRE
 70
     0
  9
$DIMCLRT
 70
     0
  9
$DIMTFAC
 40
1.0
  9
$DIMGAP
 40
0.09
  9
$DIMJUST
 70
     0
  9
$DIMSD1
 70
     0
  9
$DIMSD2
 70
     0
  9
$DIMTOLJ
 70
     1
  9
$DIMTZIN
 70
     0
  9
$DIMALTZ
 70
     0
  9
$DIMALTTZ
 70
     0
  9
$DIMUPT
 70
     0
  9
$DIMDEC
 70
     4
  9
$DIMTDEC
 70
     4
  9
$DIMALTU
 70
     2
  9
$DIMALTTD
 70
     2
  9
$DIMTXSTY
  7
Standard
  9
$DIMAUNIT
 70
     0
  9
$DIMADEC
 70
     0
  9
$DIMALTRND
 40
0.0
  9
$DIMAZIN
 70
     0
  9
$DIMDSEP
 70
    46
  9
$DIMATFIT
 70
     3
  9
$DIMFRAC
 70
     0
  9
$DIMLDRBLK
  1

  9
$DIMLUNIT
 70
     2
  9
$DIMLWD
 70
    -2
  9
$DIMLWE
 70
    -2
  9
$DIMTMOVE
 70
     0
  9
$DIMFXL
 40
1.0
  9
$DIMFXLON
 70
     0
  9
$DIMJOGANG
 40
0.7853981633974483
  9
$DIMTFILL
 70
     0
  9
$DIMTFILLCLR
 70
     0
  9
$DIMARCSYM
 70
     0
  9
$DIMLTYPE
  6

  9
$DIMLTEX1
  6

  9
$DIMLTEX2
  6

  9
$LUNITS
 70
     2
  9
$LUPREC
 70
     4
  9
$SKETCHINC
 40
0.1
  9
$FILLETRAD
 40
0.5
  9
$AUNITS
 70
     0
  9
$AUPREC
 70
     0
  9
$MENU
  1
.
  9
$ELEVATION
 40
0.0
  9
$PELEVATION
 40
0.0
  9
$THICKNESS
 40
0.0
  9
$LIMCHECK
 70
     0
  9
$CHAMFERA
 40
0.5
  9
$CHAMFERB
 40
0.5
  9
$CHAMFERC
 40
1.0
  9
$CHAMFERD
 40
0.0
  9
$SKPOLY
 70
     0
  9
$TDCREATE
 40
2457437.523275463
  9
$TDUCREATE
 40
2457437.189942129
  9
$TDUPDATE
 40
2457437.523275475
  9
$TDUUPDATE
 40
2457437.189942141
  9
$TDINDWG
 40
0.0000000116
  9
$TDUSRTIMER
 40
0.0000000116
  9
$USRTIMER
 70
     1
  9
$ANGBASE
 50
0.0
  9
$ANGDIR
 70
     0
  9
$PDMODE
 70
     0
  9
$PDSIZE
 40
0.0
  9
$PLINEWID
 40
0.0
  9
$SPLFRAME
 70
     0
  9
$SPLINETYPE
 70
     6
  9
$SPLINESEGS
 70
     8
  9
$HANDSEED
  5
277
  9
$SURFTAB1
 70
     6
  9
$SURFTAB2
 70
     6
  9
$SURFTYPE
 70
     6
  9
$SURFU
 70
     6
  9
$SURFV
 70
     6
  9
$UCSBASE
  2

  9
$UCSNAME
  2

  9
$UCSORG
 10
0.0
 20
0.0
 30
0.0
  9
$UCSXDIR
 10
1.0
 20
0.0
 30
0.0
  9
$UCSYDIR
 10
0.0
 20
1.0
 30
0.0
  9
$UCSORTHOREF
  2

  9
$UCSORTHOVIEW
 70
     0
  9
$UCSORGTOP
 10
0.0
 20
0.0
 30
0.0
  9
$UCSORGBOTTOM
 10
0.0
 20
0.0
 30
0.0
  9
$UCSORGLEFT
 10
0.0
 20
0.0
 30
0.0
  9
$UCSORGRIGHT
 10
0.0
 20
0.0
 30
0.0
  9
$UCSORGFRONT
 10
0.0
 20
0.0
 30
0.0
  9
$UCSORGBACK
 10
0.0
 20
0.0
 30
0.0
  9
$PUCSBASE
  2

  9
$PUCSNAME
  2

  9
$PUCSORG
 10
0.0
 20
0.0
 30
0.0
  9
$PUCSXDIR
 10
1.0
 20
0.0
 30
0.0
  9
$PUCSYDIR
 10
0.0
 20
1.0
 30
0.0
  9
$PUCSORTHOREF
  2

  9
$PUCSORTHOVIEW
 70
     0
  9
$PUCSORGTOP
 10
0.0
 20
0.0
 30
0.0
  9
$PUCSORGBOTTOM
 10
0.0
 20
0.0
 30
0.0
  9
$PUCSORGLEFT
 10
0.0
 20
0.0
 30
0.0
  9
$PUCSORGRIGHT
 10
0.0
 20
0.0
 30
0.0
  9
$PUCSORGFRONT
 10
0.0
 20
0.0
 30
0.0
  9
$PUCSORGBACK
 10
0.0
 20
0.0
 30
0.0
  9
$USERI1
 70
     0
  9
$USERI2
 70
     0
  9
$USERI3
 70
     0
  9
$USERI4
 70
     0
  9
$USERI5
 70
     0
  9
$USERR1
 40
0.0
  9
$USERR2
 40
0.0
  9
$USERR3
 40
0.0
  9
$USERR4
 40
0.0
  9
$USERR5
 40
0.0
  9
$WORLDVIEW
 70
     1
  9
$SHADEDGE
 70
     3
  9
$SHADEDIF
 70
    70
  9
$TILEMODE
 70
     1
  9
$MAXACTVP
 70
    64
  9
$PINSBASE
 10
0.0
 20
0.0
 30
0.0
  9
$PLIMCHECK
 70
     0
  9
$PEXTMIN
 10
1.000000000000000E+20
 20
1.000000000000000E+20
 30
1.000000000000000E+20
  9
$PEXTMAX
 10
-1.000000000000000E+20
 20
-1.000000000000000E+20
 30
-1.000000000000000E+20
  9
$PLIMMIN
 10
0.0
 20
0.0
  9
$PLIMMAX
 10
12.0
 20
9.0
  9
$UNITMODE
 70
     0
  9
$VISRETAIN
 70
     1
  9
$PLINEGEN
 70
     0
  9
$PSLTSCALE
 70
     1
  9
$TREEDEPTH
 70
  3020
  9
$CMLSTYLE
  2
Standard
  9
$CMLJUST
 70
     0
  9
$CMLSCALE
 40
1.0
  9
$PROXYGRAPHICS
 70
     1
  9
$MEASUREMENT
 70
     0
  9
$CELWEIGHT
370
    -1
  9
$ENDCAPS
280
     0
  9
$JOINSTYLE
280
     0
  9
$LWDISPLAY
290
     0
  9
$INSUNITS
 70
     1
  9
$HYPERLINKBASE
  1

  9
$STYLESHEET
  1

  9
$XEDIT
290
     1
  9
$CEPSNTYPE
380
     0
  9
$PSTYLEMODE
290
     1
  9
$FINGERPRINTGUID
  2
{B4A5B7BB-3412-77A9-7813-DCF8416E01A6}
  9
$VERSIONGUID
  2
{FAEB1C32-E019-11D5-929B-00C0DF256EC4}
  9
$EXTNAMES
290
     1
  9
$PSVPSCALE
 40
0.0
  9
$OLESTARTUP
290
     0
  9
$SORTENTS
280
   127
  9
$INDEXCTL
280
     0
  9
$HIDETEXT
280
     1
  9
$XCLIPFRAME
290
     0
  9
$HALOGAP
280
     0
  9
$OBSCOLOR
 70
   257
  9
$OBSLTYPE
280
     0
  9
$INTERSECTIONDISPLAY
280
     0
  9
$INTERSECTIONCOLOR
 70
   257
  9
$DIMASSOC
280
     2
  9
$PROJECTNAME
  1

  9
$CAMERADISPLAY
290
     0
  9
$LENSLENGTH
 40
50.0
  9
$CAMERAHEIGHT
 40
0.0
  9
$STEPSPERSEC
 40
2.0
  9
$STEPSIZE
 40
6.0
  9
$3DDWFPREC
 40
2.0
  9
$PSOLWIDTH
 40
0.25
  9
$PSOLHEIGHT
 40
4.0
  9
$LOFTANG1
 40
1.570796326794897
  9
$LOFTANG2
 40
1.570796326794897
  9
$LOFTMAG1
 40
0.0
  9
$LOFTMAG2
 40
0.0
  9
$LOFTPARAM
 70
     7
  9
$LOFTNORMALS
280
     1
  9
$LATITUDE
 40
37.795
  9
$LONGITUDE
 40
-122.394
  9
$NORTHDIRECTION
 40
0.0
  9
$TIMEZONE
 70
 -8000
  9
$LIGHTGLYPHDISPLAY
280
     1
  9
$TILEMODELIGHTSYNCH
280
     1
  9
$SOLIDHIST
280
     1
  9
$SHOWHIST
280
     1
  9
$DWFFRAME
280
     2
  9
$DGNFRAME
280
     2
  9
$REALWORLDSCALE
290
     1
  9
$INTERFERECOLOR
 62
   256
  9
$CSHADOW
280
     0
  9
$SHADOWPLANELOCATION
 40
0.0
  0
ENDSEC
  0
SECTION
  2
CLASSES
  0
CLASS
  1
ACDBDICTIONARYWDFLT
  2
AcDbDictionaryWithDefault
  3
ObjectDBX Classes
 90
        0
 91
        3
280
     0
281
     0
  0
CLASS
  1
VISUALSTYLE
  2
AcDbVisualStyle
  3
ObjectDBX Classes
 90
     4095
 91
        3
280
     0
281
     0
  0
CLASS
  1
SCALE
  2
AcDbScale
  3
ObjectDBX Classes
 90
     1153
 91
        3
280
     0
281
     0
  0
ENDSEC
  0
SECTION
  2
TABLES
  0
TABLE
  2
VPORT
  5
8
330
0
100
AcDbSymbolTable
 70
     1
  0
VPORT
  5
29
330
8
100
AcDbSymbolTableRecord
100
AcDbViewportTableRecord
  2
*Active
 70
     0
 10
0.0
 20
0.0
 11
1.0
 21
1.0
 12
0.0
 22
0.0
 13
0.0
 23
0.0
 14
0.5
 24
0.5
 15
0.5
 25
0.5
 16
0.0
 26
0.0
 36
1.0
 17
0.0
 27
0.0
 37
-1000.0
 40
891.6350628883133
 41
1.385656292286874
 42
50.0
 43
5903.504320676304
 44
9177.983073362997
 50
0.0
 51
0.0
 71
     0
 72
   100
 73
     1
 74
     3
 75
     0
 76
     0
 77
     0
 78
     0
281
     0
 65
     1
110
0.0
120
0.0
130
0.0
111
1.0
121
0.0
131
0.0
112
0.0
122
1.0
132
0.0
 79
     0
146
0.0
 60
     3
 61
     5
292
     1
282
     1
141
0.0
142
0.0
 63
   256
  0
ENDTAB
  0
TABLE
  2
LTYPE
  5
5
330
0
100
AcDbSymbolTable
 70
     1
  0
LTYPE
  5
14
330
5
100
AcDbSymbolTableRecord
100
AcDbLinetypeTableRecord
  2
ByBlock
 70
     0
  3

 72
    65
 73
     0
 40
0.0
  0
LTYPE
  5
15
330
5
100
AcDbSymbolTableRecord
100
AcDbLinetypeTableRecord
  2
ByLayer
 70
     0
  3

 72
    65
 73
     0
 40
0.0
  0
LTYPE
  5
16
330
5
100
AcDbSymbolTableRecord
100
AcDbLinetypeTableRecord
  2
Continuous
 70
     0
  3
Solid line
 72
    65
 73
     0
 40
0.0
  0
ENDTAB
  0
TABLE
  2
LAYER
  5
2
330
0
100
AcDbSymbolTable
 70
     3
  0
LAYER
  5
10
330
2
100
AcDbSymbolTableRecord
100
AcDbLayerTableRecord
  2
0
 70
     0
 62
     7
  6
Continuous
370
    -3
390
F
347
0
  0
LAYER
  5
5D
330
2
100
AcDbSymbolTableRecord
100
AcDbLayerTableRecord
  2
ProfileEdges
 70
     0
 62
     7
  6
Continuous
370
    -3
390
F
347
0
  0
LAYER
  5
5E
330
2
100
AcDbSymbolTableRecord
100
AcDbLayerTableRecord
  2
SectionCutEdges
 70
     0
 62
     7
  6
Continuous
370
    -3
390
F
347
0
  0
ENDTAB
  0
TABLE
  2
STYLE
  5
3
330
0
100
AcDbSymbolTable
 70
     1
  0
STYLE
  5
11
330
3
100
AcDbSymbolTableRecord
100
AcDbTextStyleTableRecord
  2
Standard
 70
     0
 40
0.0
 41
1.0
 50
0.0
 71
     0
 42
0.2
  3
txt
  4

  0
ENDTAB
  0
TABLE
  2
VIEW
  5
6
330
0
100
AcDbSymbolTable
 70
     0
  0
ENDTAB
  0
TABLE
  2
UCS
  5
7
330
0
100
AcDbSymbolTable
 70
     0
  0
ENDTAB
  0
TABLE
  2
APPID
  5
9
330
0
100
AcDbSymbolTable
 70
     1
  0
APPID
  5
12
330
9
100
AcDbSymbolTableRecord
100
AcDbRegAppTableRecord
  2
ACAD
 70
     0
  0
ENDTAB
  0
TABLE
  2
DIMSTYLE
  5
A
330
0
100
AcDbSymbolTable
 70
     1
100
AcDbDimStyleTable
  0
DIMSTYLE
105
27
330
A
100
AcDbSymbolTableRecord
100
AcDbDimStyleTableRecord
  2
Standard
 70
     0
340
11
  0
ENDTAB
  0
TABLE
  2
BLOCK_RECORD
  5
1
330
0
100
AcDbSymbolTable
 70
     1
  0
BLOCK_RECORD
  5
1F
330
1
100
AcDbSymbolTableRecord
100
AcDbBlockTableRecord
  2
*Model_Space
340
22
 70
     0
280
     1
281
     0
  0
BLOCK_RECORD
  5
1B
330
1
100
AcDbSymbolTableRecord
100
AcDbBlockTableRecord
  2
*Paper_Space
340
1E
 70
     0
280
     1
281
     0
  0
BLOCK_RECORD
  5
23
330
1
100
AcDbSymbolTableRecord
100
AcDbBlockTableRecord
  2
*Paper_Space0
340
26
 70
     0
280
     1
281
     0
  0
ENDTAB
  0
ENDSEC
  0
SECTION
  2
BLOCKS
  0
BLOCK
  5
20
330
1F
100
AcDbEntity
  8
0
100
AcDbBlockBegin
  2
*Model_Space
 70
     0
 10
0.0
 20
0.0
 30
0.0
  3
*Model_Space
  1

  0
ENDBLK
  5
21
330
1F
100
AcDbEntity
  8
0
100
AcDbBlockEnd
  0
BLOCK
  5
1C
330
1B
100
AcDbEntity
 67
     1
  8
0
100
AcDbBlockBegin
  2
*Paper_Space
 70
     0
 10
0.0
 20
0.0
 30
0.0
  3
*Paper_Space
  1

  0
ENDBLK
  5
1D
330
1B
100
AcDbEntity
 67
     1
  8
0
100
AcDbBlockEnd
  0
BLOCK
  5
24
330
23
100
AcDbEntity
  8
0
100
AcDbBlockBegin
  2
*Paper_Space0
 70
     0
 10
0.0
 20
0.0
 30
0.0
  3
*Paper_Space0
  1

  0
ENDBLK
  5
25
330
23
100
AcDbEntity
  8
0
100
AcDbBlockEnd
  0
ENDSEC
  0
SECTION
  2
ENTITIES
  0
LINE
  5
5F
330
1F
100
AcDbEntity
  8
0
100
AcDbLine
 10
-409.8390547567516
 20
285.7659094237197
 30
0.0
 11
-409.8390547567516
 21
283.352824003183
 31
0.0
  0
LINE
  5
60
330
1F
100
AcDbEntity
  8
0
100
AcDbLine
 10
-409.8390547567516
 20
-299.0602614173537
 30
0.0
 11
-409.8390547567516
 21
-296.6471759968169
 31
0.0
  0
LINE
  5
61
330
1F
100
AcDbEntity
  8
0
100
AcDbLine
 10
-409.8390547567516
 20
283.352824003183
 30
0.0
 11
-409.8390547567516
 21
-296.6471759968169
 31
0.0
  0
LINE
  5
62
330
1F
100
AcDbEntity
  8
0
100
AcDbLine
 10
492.5740306637854
 20
283.352824003183
 30
0.0
 11
490.1609452432487
 21
283.352824003183
 31
0.0
  0
LINE
  5
63
330
1F
100
AcDbEntity
  8
0
100
AcDbLine
 10
-412.2521401772883
 20
283.352824003183
 30
0.0
 11
-409.8390547567516
 21
283.352824003183
 31
0.0
  0
LINE
  5
64
330
1F
100
AcDbEntity
  8
0
100
AcDbLine
 10
490.1609452432487
 20
283.352824003183
 30
0.0
 11
-409.8390547567516
 21
283.352824003183
 31
0.0
  0
LINE
  5
65
330
1F
100
AcDbEntity
  8
0
100
AcDbLine
 10
-412.2521401772883
 20
-296.6471759968169
 30
0.0
 11
-409.8390547567516
 21
-296.6471759968169
 31
0.0
  0
LINE
  5
66
330
1F
100
AcDbEntity
  8
0
100
AcDbLine
 10
490.1609452432487
 20
-299.0602614173537
 30
0.0
 11
490.1609452432487
 21
-296.6471759968169
 31
0.0
  0
LINE
  5
67
330
1F
100
AcDbEntity
  8
0
100
AcDbLine
 10
490.1609452432487
 20
285.7659094237197
 30
0.0
 11
490.1609452432487
 21
283.352824003183
 31
0.0
  0
LINE
  5
68
330
1F
100
AcDbEntity
  8
0
100
AcDbLine
 10
490.1609452432487
 20
-296.6471759968169
 30
0.0
 11
490.1609452432487
 21
283.352824003183
 31
0.0
  0
LINE
  5
69
330
1F
100
AcDbEntity
  8
0
100
AcDbLine
 10
492.5740306637854
 20
-296.6471759968169
 30
0.0
 11
490.1609452432487
 21
-296.6471759968169
 31
0.0
  0
LINE
  5
6A
330
1F
100
AcDbEntity
  8
0
100
AcDbLine
 10
-368.1194715913873
 20
6.093731814643903
 30
0.0
 11
-358.7291694904652
 21
-34.18572193406987
 31
0.0
  0
LINE
  5
6B
330
1F
100
AcDbEntity
  8
0
100
AcDbLine
 10
-369.3550376573389
 20
24.13299637668529
 30
0.0
 11
-368.1194715913866
 21
18.94361889976333
 31
0.0
  0
LINE
  5
6C
330
1F
100
AcDbEntity
  8
0
100
AcDbLine
 10
-376.0270944132458
 20
34.01752490414773
 30
0.0
 11
-372.5675094286577
 21
29.32237385376435
 31
0.0
  0
LINE
  5
6D
330
1F
100
AcDbEntity
  8
0
100
AcDbLine
 10
-372.5675094286577
 20
29.32237385376435
 30
0.0
 11
-369.3550376573389
 21
24.13299637668529
 31
0.0
  0
LINE
  5
6E
330
1F
100
AcDbEntity
  8
0
100
AcDbLine
 10
-392.7334686855764
 20
42.44298877521381
 30
0.0
 11
-392.7334686855765
 21
41.4540387723418
 31
0.0
  0
LINE
  5
6F
330
1F
100
AcDbEntity
  8
0
100
AcDbLine
 10
-377.5097736923099
 20
37.9713363150388
 30
0.0
 11
-376.0270944132458
 21
34.01752490414773
 31
0.0
  0
LINE
  5
70
330
1F
100
AcDbEntity
  8
0
100
AcDbLine
 10
-355.0224712926873
 20
-50.98942043070889
 30
0.0
 11
-356.5344453225247
 21
-55.35534542539889
 31
0.0
  0
LINE
  5
71
330
1F
100
AcDbEntity
  8
0
100
AcDbLine
 10
-368.1194715913866
 20
18.94361889976333
 30
0.0
 11
-368.1194715913873
 21
6.093731814643903
 31
0.0
  0
LINE
  5
72
330
1F
100
AcDbEntity
  8
0
100
AcDbLine
 10
-358.7291694904652
 20
-34.18572193406987
 30
0.0
 11
-355.0224712926873
 21
-50.98942043070889
 31
0.0
  0
LINE
  5
73
330
1F
100
AcDbEntity
  8
0
100
AcDbLine
 10
-366.38967909913
 20
53.5394687454888
 30
0.0
 11
-370.5906037232113
 21
51.06833661374126
 31
0.0
  0
LINE
  5
74
330
1F
100
AcDbEntity
  8
0
100
AcDbLine
 10
-374.7915283472926
 20
49.58565733459859
 30
0.0
 11
-379.4866793978333
 21
49.58565733459884
 31
0.0
  0
LINE
  5
75
330
1F
100
AcDbEntity
  8
0
100
AcDbLine
 10
-135.3203832650452
 20
-67.95729869929673
 30
0.0
 11
-137.7334686855819
 21
-67.9572986992966
 31
0.0
  0
LINE
  5
76
330
1F
100
AcDbEntity
  8
0
100
AcDbLine
 10
-157.7334686855819
 20
-67.95729869929559
 30
0.0
 11
-137.7334686855819
 21
-67.9572986992966
 31
0.0
  0
LINE
  5
77
330
1F
100
AcDbEntity
  8
0
100
AcDbLine
 10
-370.5906037232113
 20
51.06833661374126
 30
0.0
 11
-374.7915283472926
 21
49.58565733459859
 31
0.0
  0
LINE
  5
78
330
1F
100
AcDbEntity
  8
0
100
AcDbLine
 10
-394.9101295383463
 20
41.40129362843318
 30
0.0
 11
-392.7334686855764
 21
42.44298877521381
 31
0.0
  0
LINE
  5
79
330
1F
100
AcDbEntity
  8
0
100
AcDbLine
 10
-388.1356418591862
 20
44.64339307094672
 30
0.0
 11
-392.7334686855764
 21
42.44298877521381
 31
0.0
  0
LINE
  5
7A
330
1F
100
AcDbEntity
  8
0
100
AcDbLine
 10
-137.7334686855821
 20
-70.3703841198333
 30
0.0
 11
-137.7334686855819
 21
-67.9572986992966
 31
0.0
  0
LINE
  5
7B
330
1F
100
AcDbEntity
  8
0
100
AcDbLine
 10
-137.7334686855816
 20
-60.54421327875995
 30
0.0
 11
-137.7334686855817
 21
-62.95729869929666
 31
0.0
  0
LINE
  5
7C
330
1F
100
AcDbEntity
  8
0
100
AcDbLine
 10
-137.7334686855819
 20
-67.9572986992966
 30
0.0
 11
-137.7334686855817
 21
-62.95729869929666
 31
0.0
  0
LINE
  5
7D
330
1F
100
AcDbEntity
  8
0
100
AcDbLine
 10
-378.4982265450718
 20
39.94824202040531
 30
0.0
 11
-377.5097736923099
 21
37.9713363150388
 31
0.0
  0
LINE
  5
7E
330
1F
100
AcDbEntity
  8
0
100
AcDbLine
 10
-157.733468685582
 20
-70.3703841198323
 30
0.0
 11
-157.7334686855819
 21
-67.95729869929559
 31
0.0
  0
LINE
  5
7F
330
1F
100
AcDbEntity
  8
0
100
AcDbLine
 10
-157.7334686855815
 20
-60.54421327875894
 30
0.0
 11
-157.7334686855816
 21
-62.95729869929564
 31
0.0
  0
LINE
  5
80
330
1F
100
AcDbEntity
  8
0
100
AcDbLine
 10
-157.7334686855819
 20
-67.95729869929559
 30
0.0
 11
-157.7334686855816
 21
-62.95729869929564
 31
0.0
  0
LINE
  5
81
330
1F
100
AcDbEntity
  8
0
100
AcDbLine
 10
-388.6298682854887
 20
41.18380808627969
 30
0.0
 11
-384.4289436614076
 21
41.18380808627949
 31
0.0
  0
LINE
  5
82
330
1F
100
AcDbEntity
  8
0
100
AcDbLine
 10
-384.4289436614076
 20
41.18380808627949
 30
0.0
 11
-380.2280190373265
 21
40.93669487332467
 31
0.0
  0
LINE
  5
83
330
1F
100
AcDbEntity
  8
0
100
AcDbLine
 10
-285.3986653599489
 20
-67.95729869928911
 30
0.0
 11
-287.8117507804856
 21
-67.957298699289
 31
0.0
  0
LINE
  5
84
330
1F
100
AcDbEntity
  8
0
100
AcDbLine
 10
-307.8117507804856
 20
-67.95729869928799
 30
0.0
 11
-287.8117507804856
 21
-67.957298699289
 31
0.0
  0
LINE
  5
85
330
1F
100
AcDbEntity
  8
0
100
AcDbLine
 10
-380.2280190373265
 20
40.93669487332467
 30
0.0
 11
-378.4982265450718
 21
39.94824202040531
 31
0.0
  0
LINE
  5
86
330
1F
100
AcDbEntity
  8
0
100
AcDbLine
 10
-395.1318814413283
 20
47.85244444018353
 30
0.0
 11
-392.7334686855762
 21
48.11814634053887
 31
0.0
  0
LINE
  5
87
330
1F
100
AcDbEntity
  8
0
100
AcDbLine
 10
-379.4866793978333
 20
49.58565733459884
 30
0.0
 11
-392.7334686855762
 21
48.11814634053887
 31
0.0
  0
LINE
  5
88
330
1F
100
AcDbEntity
  8
0
100
AcDbLine
 10
-392.7334686855765
 20
41.4540387723418
 30
0.0
 11
-390.6067739909341
 21
41.43092129954915
 31
0.0
  0
LINE
  5
89
330
1F
100
AcDbEntity
  8
0
100
AcDbLine
 10
-365.3462731405524
 20
43.99869754371781
 30
0.0
 11
-367.4307949308751
 21
43.6512772452532
 31
0.0
  0
LINE
  5
8A
330
1F
100
AcDbEntity
  8
0
100
AcDbLine
 10
-368.4730558260363
 20
47.12548022927884
 30
0.0
 11
-366.7359543341007
 21
47.47290052758897
 31
0.0
  0
LINE
  5
8B
330
1F
100
AcDbEntity
  8
0
100
AcDbLine
 10
-365.3462731405522
 20
47.29919037835654
 30
0.0
 11
-364.825142692933
 21
45.21466858818835
 31
0.0
  0
LINE
  5
8C
330
1F
100
AcDbEntity
  8
0
100
AcDbLine
 10
-368.8844746004155
 20
46.16550308902043
 30
0.0
 11
-368.4730558260363
 21
47.12548022927884
 31
0.0
  0
LINE
  5
8D
330
1F
100
AcDbEntity
  8
0
100
AcDbLine
 10
-355.1465541061185
 20
-62.95729869928564
 30
0.0
 11
-352.7334686855817
 21
-62.95729869928576
 31
0.0
  0
LINE
  5
8E
330
1F
100
AcDbEntity
  8
0
100
AcDbLine
 10
-305.3986653599486
 20
-62.95729869928816
 30
0.0
 11
-307.8117507804853
 21
-62.95729869928804
 31
0.0
  0
LINE
  5
8F
330
1F
100
AcDbEntity
  8
0
100
AcDbLine
 10
-352.7334686855817
 20
-62.95729869928576
 30
0.0
 11
-307.8117507804853
 21
-62.95729869928804
 31
0.0
  0
LINE
  5
90
330
1F
100
AcDbEntity
  8
0
100
AcDbLine
 10
-140.1465541061184
 20
-62.95729869929653
 30
0.0
 11
-137.7334686855817
 21
-62.95729869929666
 31
0.0
  0
LINE
  5
91
330
1F
100
AcDbEntity
  8
0
100
AcDbLine
 10
-290.2248362010221
 20
-62.95729869928893
 30
0.0
 11
-287.8117507804853
 21
-62.95729869928905
 31
0.0
  0
LINE
  5
92
330
1F
100
AcDbEntity
  8
0
100
AcDbLine
 10
-155.3203832650449
 20
-62.95729869929576
 30
0.0
 11
-157.7334686855816
 21
-62.95729869929564
 31
0.0
  0
LINE
  5
93
330
1F
100
AcDbEntity
  8
0
100
AcDbLine
 10
-366.7359543341007
 20
47.47290052758897
 30
0.0
 11
-365.3462731405522
 21
47.29919037835654
 31
0.0
  0
LINE
  5
94
330
1F
100
AcDbEntity
  8
0
100
AcDbLine
 10
-364.825142692933
 20
45.21466858818835
 30
0.0
 11
-365.3462731405524
 21
43.99869754371781
 31
0.0
  0
LINE
  5
95
330
1F
100
AcDbEntity
  8
0
100
AcDbLine
 10
-367.4307949308751
 20
43.6512772452532
 30
0.0
 11
-368.4730558260364
 21
44.51982799125982
 31
0.0
  0
LINE
  5
96
330
1F
100
AcDbEntity
  8
0
100
AcDbLine
 10
-368.4730558260364
 20
44.51982799125982
 30
0.0
 11
-368.8844746004155
 21
46.16550308902043
 31
0.0
  0
LINE
  5
97
330
1F
100
AcDbEntity
  8
0
100
AcDbLine
 10
-384.4289436614074
 20
45.87895913682043
 30
0.0
 11
-380.2280190373263
 21
45.38473271043888
 31
0.0
  0
LINE
  5
98
330
1F
100
AcDbEntity
  8
0
100
AcDbLine
 10
-392.7334686855762
 20
48.11814634053887
 30
0.0
 11
-392.7334686855763
 21
46.40414966687739
 31
0.0
  0
LINE
  5
99
330
1F
100
AcDbEntity
  8
0
100
AcDbLine
 10
-351.6543040784151
 20
-65.11562791361929
 30
0.0
 11
-352.7334686855817
 21
-62.95729869928576
 31
0.0
  0
LINE
  5
9A
330
1F
100
AcDbEntity
  8
0
100
AcDbLine
 10
-380.2280190373263
 20
45.38473271043888
 30
0.0
 11
-383.4404908086455
 21
44.89050628421548
 31
0.0
  0
LINE
  5
9B
330
1F
100
AcDbEntity
  8
0
100
AcDbLine
 10
-383.4404908086455
 20
44.89050628421548
 30
0.0
 11
-388.1356418591862
 21
44.64339307094672
 31
0.0
  0
LINE
  5
9C
330
1F
100
AcDbEntity
  8
0
100
AcDbLine
 10
-307.8117507804857
 20
-70.37038411982469
 30
0.0
 11
-307.8117507804856
 21
-67.95729869928799
 31
0.0
  0
LINE
  5
9D
330
1F
100
AcDbEntity
  8
0
100
AcDbLine
 10
-307.8117507804852
 20
-60.54421327875132
 30
0.0
 11
-307.8117507804853
 21
-62.95729869928804
 31
0.0
  0
LINE
  5
9E
330
1F
100
AcDbEntity
  8
0
100
AcDbLine
 10
-307.8117507804856
 20
-67.95729869928799
 30
0.0
 11
-307.8117507804853
 21
-62.95729869928804
 31
0.0
  0
LINE
  5
9F
330
1F
100
AcDbEntity
  8
0
100
AcDbLine
 10
-390.6067739909341
 20
41.43092129954915
 30
0.0
 11
-388.6298682854887
 21
41.18380808627969
 31
0.0
  0
LINE
  5
A0
330
1F
100
AcDbEntity
  8
0
100
AcDbLine
 10
-392.7334686855763
 20
46.40414966687739
 30
0.0
 11
-389.124094711948
 21
46.12607235008964
 31
0.0
  0
LINE
  5
A1
330
1F
100
AcDbEntity
  8
0
100
AcDbLine
 10
-389.124094711948
 20
46.12607235008964
 30
0.0
 11
-384.4289436614074
 21
45.87895913682043
 31
0.0
  0
LINE
  5
A2
330
1F
100
AcDbEntity
  8
0
100
AcDbLine
 10
-287.8117507804857
 20
-70.3703841198257
 30
0.0
 11
-287.8117507804856
 21
-67.957298699289
 31
0.0
  0
LINE
  5
A3
330
1F
100
AcDbEntity
  8
0
100
AcDbLine
 10
-287.8117507804852
 20
-60.54421327875234
 30
0.0
 11
-287.8117507804853
 21
-62.95729869928905
 31
0.0
  0
LINE
  5
A4
330
1F
100
AcDbEntity
  8
0
100
AcDbLine
 10
-287.8117507804856
 20
-67.957298699289
 30
0.0
 11
-287.8117507804853
 21
-62.95729869928905
 31
0.0
  0
LINE
  5
A5
330
1F
100
AcDbEntity
  8
0
100
AcDbLine
 10
-366.38967909913
 20
53.5394687454888
 30
0.0
 11
-357.8359948776861
 21
66.0361240311181
 31
0.0
  0
LINE
  5
A6
330
1F
100
AcDbEntity
  8
0
100
AcDbLine
 10
-357.8359948776861
 20
66.0361240311181
 30
0.0
 11
-353.8128664005484
 21
71.62380247160826
 31
0.0
  0
LINE
  5
A7
330
1F
100
AcDbEntity
  8
0
100
AcDbLine
 10
-353.8128664005484
 20
71.62380247160826
 30
0.0
 11
-349.1192165104112
 21
76.09394522415698
 31
0.0
  0
LINE
  5
A8
330
1F
100
AcDbEntity
  8
0
100
AcDbLine
 10
-349.1192165104112
 20
76.09394522415698
 30
0.0
 11
-345.5431023084503
 21
77.65849518758758
 31
0.0
  0
LINE
  5
A9
330
1F
100
AcDbEntity
  8
0
100
AcDbLine
 10
-345.5431023084503
 20
77.65849518758758
 30
0.0
 11
-345.0960880332738
 21
75.19991667349024
 31
0.0
  0
LINE
  5
AA
330
1F
100
AcDbEntity
  8
0
100
AcDbLine
 10
-345.0960880332738
 20
75.19991667349024
 30
0.0
 11
-347.5546665470584
 21
71.62380247160795
 31
0.0
  0
LINE
  5
AB
330
1F
100
AcDbEntity
  8
0
100
AcDbLine
 10
-347.5546665470584
 20
71.62380247160795
 30
0.0
 11
-354.2598806757256
 21
62.01299555374576
 31
0.0
  0
LINE
  5
AC
330
1F
100
AcDbEntity
  8
0
100
AcDbLine
 10
-354.2598806757256
 20
62.01299555374576
 30
0.0
 11
-345.5431023084508
 21
69.38873109556835
 31
0.0
  0
LINE
  5
AD
330
1F
100
AcDbEntity
  8
0
100
AcDbLine
 10
-345.5431023084508
 20
69.38873109556835
 30
0.0
 11
-341.0729595560584
 21
72.07081674709734
 31
0.0
  0
LINE
  5
AE
330
1F
100
AcDbEntity
  8
0
100
AcDbLine
 10
-341.0729595560584
 20
72.07081674709734
 30
0.0
 11
-338.8378881797839
 21
72.29432388452878
 31
0.0
  0
LINE
  5
AF
330
1F
100
AcDbEntity
  8
0
100
AcDbLine
 10
-338.8378881797839
 20
72.29432388452878
 30
0.0
 11
-337.4968453540193
 21
72.51783102196063
 31
0.0
  0
LINE
  5
B0
330
1F
100
AcDbEntity
  8
0
100
AcDbLine
 10
-337.4968453540193
 20
72.51783102196063
 30
0.0
 11
-335.7087882530781
 21
71.62380247160733
 31
0.0
  0
LINE
  5
B1
330
1F
100
AcDbEntity
  8
0
100
AcDbLine
 10
-335.7087882530781
 20
71.62380247160733
 30
0.0
 11
-338.167366766941
 21
66.25963116886197
 31
0.0
  0
LINE
  5
B2
330
1F
100
AcDbEntity
  8
0
100
AcDbLine
 10
-338.167366766941
 20
66.25963116886197
 30
0.0
 11
-341.9669881064904
 21
62.01299555374513
 31
0.0
  0
LINE
  5
B3
330
1F
100
AcDbEntity
  8
0
100
AcDbLine
 10
-341.9669881064904
 20
62.01299555374513
 30
0.0
 11
-345.7666094461179
 21
58.21337421443098
 31
0.0
  0
LINE
  5
B4
330
1F
100
AcDbEntity
  8
0
100
AcDbLine
 10
-345.7666094461179
 20
58.21337421443098
 30
0.0
 11
-347.4889827628498
 21
55.01257771772328
 31
0.0
  0
LINE
  5
B5
330
1F
100
AcDbEntity
  8
0
100
AcDbLine
 10
-72.42494423831417
 20
28.84017880358135
 30
0.0
 11
-81.81524633923821
 21
69.11963255229468
 31
0.0
  0
LINE
  5
B6
330
1F
100
AcDbEntity
  8
0
100
AcDbLine
 10
-71.18937817236174
 20
10.80091424154003
 30
0.0
 11
-72.42494423831423
 21
15.99029171846193
 31
0.0
  0
LINE
  5
B7
330
1F
100
AcDbEntity
  8
0
100
AcDbLine
 10
-64.5173214164544
 20
0.9163857140779015
 30
0.0
 11
-67.97690640104267
 21
5.611536764461112
 31
0.0
  0
LINE
  5
B8
330
1F
100
AcDbEntity
  8
0
100
AcDbLine
 10
-67.97690640104267
 20
5.611536764461112
 30
0.0
 11
-71.18937817236174
 21
10.80091424154003
 31
0.0
  0
LINE
  5
B9
330
1F
100
AcDbEntity
  8
0
100
AcDbLine
 10
-47.8109471441233
 20
-7.509078156987356
 30
0.0
 11
-47.8109471441233
 21
-6.520128154115357
 31
0.0
  0
LINE
  5
BA
330
1F
100
AcDbEntity
  8
0
100
AcDbLine
 10
-63.03464213739004
 20
-3.037425696813093
 30
0.0
 11
-64.5173214164544
 21
0.9163857140779015
 31
0.0
  0
LINE
  5
BB
330
1F
100
AcDbEntity
  8
0
100
AcDbLine
 10
-85.52194453701694
 20
85.92333104893352
 30
0.0
 11
-84.00997050717976
 21
90.2892560436236
 31
0.0
  0
LINE
  5
BC
330
1F
100
AcDbEntity
  8
0
100
AcDbLine
 10
-72.42494423831423
 20
15.99029171846193
 30
0.0
 11
-72.42494423831417
 21
28.84017880358135
 31
0.0
  0
LINE
  5
BD
330
1F
100
AcDbEntity
  8
0
100
AcDbLine
 10
-81.81524633923821
 20
69.11963255229468
 30
0.0
 11
-85.52194453701694
 21
85.92333104893352
 31
0.0
  0
LINE
  5
BE
330
1F
100
AcDbEntity
  8
0
100
AcDbLine
 10
-74.15473673056914
 20
-18.60555812726364
 30
0.0
 11
-69.95381210648803
 21
-16.13442599551587
 31
0.0
  0
LINE
  5
BF
330
1F
100
AcDbEntity
  8
0
100
AcDbLine
 10
-65.75288748240683
 20
-14.65174671637303
 30
0.0
 11
-61.05773643186617
 21
-14.65174671637303
 31
0.0
  0
LINE
  5
C0
330
1F
100
AcDbEntity
  8
0
100
AcDbLine
 10
-280.3978617235865
 20
102.8912093175107
 30
0.0
 11
-282.8109471441232
 21
102.8912093175107
 31
0.0
  0
LINE
  5
C1
330
1F
100
AcDbEntity
  8
0
100
AcDbLine
 10
-305.2240325646598
 20
102.8912093175108
 30
0.0
 11
-302.8109471441231
 21
102.8912093175108
 31
0.0
  0
LINE
  5
C2
330
1F
100
AcDbEntity
  8
0
100
AcDbLine
 10
-69.95381210648803
 20
-16.13442599551587
 30
0.0
 11
-65.75288748240683
 21
-14.65174671637303
 31
0.0
  0
LINE
  5
C3
330
1F
100
AcDbEntity
  8
0
100
AcDbLine
 10
-45.63428629135354
 20
-6.467383010206644
 30
0.0
 11
-47.8109471441233
 21
-7.509078156987356
 31
0.0
  0
LINE
  5
C4
330
1F
100
AcDbEntity
  8
0
100
AcDbLine
 10
-52.40877397051342
 20
-9.7094824527205
 30
0.0
 11
-47.8109471441233
 21
-7.509078156987356
 31
0.0
  0
LINE
  5
C5
330
1F
100
AcDbEntity
  8
0
100
AcDbLine
 10
-302.8109471441231
 20
105.3042947380475
 30
0.0
 11
-302.8109471441231
 21
102.8912093175108
 31
0.0
  0
LINE
  5
C6
330
1F
100
AcDbEntity
  8
0
100
AcDbLine
 10
-302.8109471441231
 20
95.47812389697411
 30
0.0
 11
-302.8109471441231
 21
97.89120931751081
 31
0.0
  0
LINE
  5
C7
330
1F
100
AcDbEntity
  8
0
100
AcDbLine
 10
-302.8109471441231
 20
102.8912093175108
 30
0.0
 11
-302.8109471441231
 21
97.89120931751081
 31
0.0
  0
LINE
  5
C8
330
1F
100
AcDbEntity
  8
0
100
AcDbLine
 10
-62.04618928462813
 20
-5.014331402179542
 30
0.0
 11
-63.03464213739004
 21
-3.037425696813093
 31
0.0
  0
LINE
  5
C9
330
1F
100
AcDbEntity
  8
0
100
AcDbLine
 10
-282.8109471441232
 20
95.47812389697407
 30
0.0
 11
-282.8109471441232
 21
97.89120931751077
 31
0.0
  0
LINE
  5
CA
330
1F
100
AcDbEntity
  8
0
100
AcDbLine
 10
-282.8109471441232
 20
102.8912093175107
 30
0.0
 11
-282.8109471441232
 21
97.89120931751077
 31
0.0
  0
LINE
  5
CB
330
1F
100
AcDbEntity
  8
0
100
AcDbLine
 10
-51.91454754421106
 20
-6.249897468053446
 30
0.0
 11
-56.11547216829217
 21
-6.249897468053446
 31
0.0
  0
LINE
  5
CC
330
1F
100
AcDbEntity
  8
0
100
AcDbLine
 10
-56.11547216829217
 20
-6.249897468053446
 30
0.0
 11
-60.31639679237328
 21
-6.002784255098831
 31
0.0
  0
LINE
  5
CD
330
1F
100
AcDbEntity
  8
0
100
AcDbLine
 10
-130.3195796286828
 20
102.8912093175103
 30
0.0
 11
-132.7326650492195
 21
102.8912093175103
 31
0.0
  0
LINE
  5
CE
330
1F
100
AcDbEntity
  8
0
100
AcDbLine
 10
-155.1457504697562
 20
102.8912093175104
 30
0.0
 11
-152.7326650492195
 21
102.8912093175104
 31
0.0
  0
LINE
  5
CF
330
1F
100
AcDbEntity
  8
0
100
AcDbLine
 10
-60.31639679237328
 20
-6.002784255098831
 30
0.0
 11
-62.04618928462813
 21
-5.014331402179542
 31
0.0
  0
LINE
  5
D0
330
1F
100
AcDbEntity
  8
0
100
AcDbLine
 10
-45.41253438837126
 20
-12.91853382195696
 30
0.0
 11
-47.81094714412335
 21
-13.18423572231242
 31
0.0
  0
LINE
  5
D1
330
1F
100
AcDbEntity
  8
0
100
AcDbLine
 10
-61.05773643186617
 20
-14.65174671637303
 30
0.0
 11
-47.81094714412335
 21
-13.18423572231242
 31
0.0
  0
LINE
  5
D2
330
1F
100
AcDbEntity
  8
0
100
AcDbLine
 10
-47.8109471441233
 20
-6.520128154115357
 30
0.0
 11
-49.93764183876574
 21
-6.497010681322794
 31
0.0
  0
LINE
  5
D3
330
1F
100
AcDbEntity
  8
0
100
AcDbLine
 10
-75.19814268914729
 20
-9.064786925492692
 30
0.0
 11
-73.11362089882462
 21
-8.717366627027976
 31
0.0
  0
LINE
  5
D4
330
1F
100
AcDbEntity
  8
0
100
AcDbLine
 10
-72.07136000366326
 20
-12.19156961105356
 30
0.0
 11
-73.80846149559889
 21
-12.53898990936379
 31
0.0
  0
LINE
  5
D5
330
1F
100
AcDbEntity
  8
0
100
AcDbLine
 10
-75.19814268914733
 20
-12.36527976013143
 30
0.0
 11
-75.71927313676657
 21
-10.28075796996324
 31
0.0
  0
LINE
  5
D6
330
1F
100
AcDbEntity
  8
0
100
AcDbLine
 10
-71.65994122928406
 20
-11.23159247079513
 30
0.0
 11
-72.07136000366326
 21
-12.19156961105356
 31
0.0
  0
LINE
  5
D7
330
1F
100
AcDbEntity
  8
0
100
AcDbLine
 10
-85.39786172358632
 20
97.89120931751026
 30
0.0
 11
-87.81094714412305
 21
97.89120931751027
 31
0.0
  0
LINE
  5
D8
330
1F
100
AcDbEntity
  8
0
100
AcDbLine
 10
-135.1457504697562
 20
97.8912093175104
 30
0.0
 11
-132.7326650492195
 21
97.89120931751039
 31
0.0
  0
LINE
  5
D9
330
1F
100
AcDbEntity
  8
0
100
AcDbLine
 10
-87.81094714412305
 20
97.89120931751027
 30
0.0
 11
-132.7326650492195
 21
97.89120931751039
 31
0.0
  0
LINE
  5
DA
330
1F
100
AcDbEntity
  8
0
100
AcDbLine
 10
-300.3978617235865
 20
97.89120931751081
 30
0.0
 11
-302.8109471441231
 21
97.89120931751081
 31
0.0
  0
LINE
  5
DB
330
1F
100
AcDbEntity
  8
0
100
AcDbLine
 10
-302.8109471441231
 20
97.89120931751081
 30
0.0
 11
-397.8109471441231
 21
97.89120931751107
 31
0.0
  0
LINE
  5
DC
330
1F
100
AcDbEntity
  8
0
100
AcDbLine
 10
-150.3195796286828
 20
97.89120931751043
 30
0.0
 11
-152.7326650492195
 21
97.89120931751043
 31
0.0
  0
LINE
  5
DD
330
1F
100
AcDbEntity
  8
0
100
AcDbLine
 10
-285.2240325646599
 20
97.89120931751077
 30
0.0
 11
-282.8109471441232
 21
97.89120931751077
 31
0.0
  0
LINE
  5
DE
330
1F
100
AcDbEntity
  8
0
100
AcDbLine
 10
-152.7326650492195
 20
97.89120931751043
 30
0.0
 11
-282.8109471441232
 21
97.89120931751077
 31
0.0
  0
LINE
  5
DF
330
1F
100
AcDbEntity
  8
0
100
AcDbLine
 10
-73.80846149559889
 20
-12.53898990936379
 30
0.0
 11
-75.19814268914733
 21
-12.36527976013143
 31
0.0
  0
LINE
  5
E0
330
1F
100
AcDbEntity
  8
0
100
AcDbLine
 10
-75.71927313676657
 20
-10.28075796996324
 30
0.0
 11
-75.19814268914729
 21
-9.064786925492692
 31
0.0
  0
LINE
  5
E1
330
1F
100
AcDbEntity
  8
0
100
AcDbLine
 10
-73.11362089882462
 20
-8.717366627027976
 30
0.0
 11
-72.0713600036632
 21
-9.585917373034553
 31
0.0
  0
LINE
  5
E2
330
1F
100
AcDbEntity
  8
0
100
AcDbLine
 10
-72.0713600036632
 20
-9.585917373034553
 30
0.0
 11
-71.65994122928406
 21
-11.23159247079513
 31
0.0
  0
LINE
  5
E3
330
1F
100
AcDbEntity
  8
0
100
AcDbLine
 10
-56.11547216829217
 20
-10.94504851859438
 30
0.0
 11
-60.31639679237328
 21
-10.45082209221304
 31
0.0
  0
LINE
  5
E4
330
1F
100
AcDbEntity
  8
0
100
AcDbLine
 10
-47.81094714412335
 20
-13.18423572231242
 30
0.0
 11
-47.8109471441233
 21
-11.47023904865095
 31
0.0
  0
LINE
  5
E5
330
1F
100
AcDbEntity
  8
0
100
AcDbLine
 10
-88.89011175128985
 20
100.0495385318438
 30
0.0
 11
-87.81094714412305
 21
97.89120931751027
 31
0.0
  0
LINE
  5
E6
330
1F
100
AcDbEntity
  8
0
100
AcDbLine
 10
-60.31639679237328
 20
-10.45082209221304
 30
0.0
 11
-57.10392502105409
 21
-9.956595665989488
 31
0.0
  0
LINE
  5
E7
330
1F
100
AcDbEntity
  8
0
100
AcDbLine
 10
-57.10392502105409
 20
-9.956595665989488
 30
0.0
 11
-52.40877397051342
 21
-9.7094824527205
 31
0.0
  0
LINE
  5
E8
330
1F
100
AcDbEntity
  8
0
100
AcDbLine
 10
-132.7326650492195
 20
95.47812389697368
 30
0.0
 11
-132.7326650492195
 21
97.89120931751039
 31
0.0
  0
LINE
  5
E9
330
1F
100
AcDbEntity
  8
0
100
AcDbLine
 10
-132.7326650492195
 20
102.8912093175103
 30
0.0
 11
-132.7326650492195
 21
97.89120931751039
 31
0.0
  0
LINE
  5
EA
330
1F
100
AcDbEntity
  8
0
100
AcDbLine
 10
-49.93764183876574
 20
-6.497010681322794
 30
0.0
 11
-51.91454754421106
 21
-6.249897468053446
 31
0.0
  0
LINE
  5
EB
330
1F
100
AcDbEntity
  8
0
100
AcDbLine
 10
-47.8109471441233
 20
-11.47023904865095
 30
0.0
 11
-51.42032111775151
 21
-11.19216173186337
 31
0.0
  0
LINE
  5
EC
330
1F
100
AcDbEntity
  8
0
100
AcDbLine
 10
-51.42032111775151
 20
-11.19216173186337
 30
0.0
 11
-56.11547216829217
 21
-10.94504851859438
 31
0.0
  0
LINE
  5
ED
330
1F
100
AcDbEntity
  8
0
100
AcDbLine
 10
-152.7326650492195
 20
105.3042947380471
 30
0.0
 11
-152.7326650492195
 21
102.8912093175104
 31
0.0
  0
LINE
  5
EE
330
1F
100
AcDbEntity
  8
0
100
AcDbLine
 10
-152.7326650492195
 20
95.47812389697373
 30
0.0
 11
-152.7326650492195
 21
97.89120931751043
 31
0.0
  0
LINE
  5
EF
330
1F
100
AcDbEntity
  8
0
100
AcDbLine
 10
-152.7326650492195
 20
102.8912093175104
 30
0.0
 11
-152.7326650492195
 21
97.89120931751043
 31
0.0
  0
LINE
  5
F0
330
1F
100
AcDbEntity
  8
0
100
AcDbLine
 10
-74.15473673056914
 20
-18.60555812726364
 30
0.0
 11
-82.70842095201249
 21
-31.10221341289335
 31
0.0
  0
LINE
  5
F1
330
1F
100
AcDbEntity
  8
0
100
AcDbLine
 10
-82.70842095201249
 20
-31.10221341289335
 30
0.0
 11
-86.73154942914994
 21
-36.68989185338369
 31
0.0
  0
LINE
  5
F2
330
1F
100
AcDbEntity
  8
0
100
AcDbLine
 10
-86.73154942914994
 20
-36.68989185338369
 30
0.0
 11
-91.42519931928692
 21
-41.16003460593264
 31
0.0
  0
LINE
  5
F3
330
1F
100
AcDbEntity
  8
0
100
AcDbLine
 10
-91.42519931928692
 20
-41.16003460593264
 30
0.0
 11
-95.00131352124768
 21
-42.7245845693634
 31
0.0
  0
LINE
  5
F4
330
1F
100
AcDbEntity
  8
0
100
AcDbLine
 10
-95.00131352124768
 20
-42.7245845693634
 30
0.0
 11
-95.44832779642437
 21
-40.2660060552661
 31
0.0
  0
LINE
  5
F5
330
1F
100
AcDbEntity
  8
0
100
AcDbLine
 10
-95.44832779642437
 20
-40.2660060552661
 30
0.0
 11
-92.98974928263992
 21
-36.68989185338369
 31
0.0
  0
LINE
  5
F6
330
1F
100
AcDbEntity
  8
0
100
AcDbLine
 10
-92.98974928263992
 20
-36.68989185338369
 30
0.0
 11
-86.2845351539732
 21
-27.07908493552116
 31
0.0
  0
LINE
  5
F7
330
1F
100
AcDbEntity
  8
0
100
AcDbLine
 10
-86.2845351539732
 20
-27.07908493552116
 30
0.0
 11
-95.00131352124768
 21
-34.45482047734418
 31
0.0
  0
LINE
  5
F8
330
1F
100
AcDbEntity
  8
0
100
AcDbLine
 10
-95.00131352124768
 20
-34.45482047734418
 30
0.0
 11
-99.47145627363997
 21
-37.1369061288734
 31
0.0
  0
LINE
  5
F9
330
1F
100
AcDbEntity
  8
0
100
AcDbLine
 10
-99.47145627363997
 20
-37.1369061288734
 30
0.0
 11
-101.7065276499143
 21
-37.36041326630495
 31
0.0
  0
LINE
  5
FA
330
1F
100
AcDbEntity
  8
0
100
AcDbLine
 10
-101.7065276499143
 20
-37.36041326630495
 30
0.0
 11
-103.047570475679
 21
-37.58392040373685
 31
0.0
  0
LINE
  5
FB
330
1F
100
AcDbEntity
  8
0
100
AcDbLine
 10
-103.047570475679
 20
-37.58392040373685
 30
0.0
 11
-104.8356275766203
 21
-36.68989185338364
 31
0.0
  0
LINE
  5
FC
330
1F
100
AcDbEntity
  8
0
100
AcDbLine
 10
-104.8356275766203
 20
-36.68989185338364
 30
0.0
 11
-102.3770490627576
 21
-31.32572055063815
 31
0.0
  0
LINE
  5
FD
330
1F
100
AcDbEntity
  8
0
100
AcDbLine
 10
-102.3770490627576
 20
-31.32572055063815
 30
0.0
 11
-98.57742772320839
 21
-27.07908493552114
 31
0.0
  0
LINE
  5
FE
330
1F
100
AcDbEntity
  8
0
100
AcDbLine
 10
-98.57742772320839
 20
-27.07908493552114
 30
0.0
 11
-94.7778063835811
 21
-23.27946359620679
 31
0.0
  0
LINE
  5
FF
330
1F
100
AcDbEntity
  8
0
100
AcDbLine
 10
-94.7778063835811
 20
-23.27946359620679
 30
0.0
 11
-93.05543306684936
 21
-20.078667099499
 31
0.0
  0
LINE
  5
100
330
1F
100
AcDbEntity
  8
0
100
AcDbLine
 10
-57.42574787467644
 20
-137.0083292132257
 30
0.0
 11
-66.81604997560049
 21
-96.7288754645124
 31
0.0
  0
LINE
  5
101
330
1F
100
AcDbEntity
  8
0
100
AcDbLine
 10
-56.19018180872401
 20
-155.047593775267
 30
0.0
 11
-57.42574787467648
 21
-149.8582162983452
 31
0.0
  0
LINE
  5
102
330
1F
100
AcDbEntity
  8
0
100
AcDbLine
 10
-49.51812505281666
 20
-164.9321223027292
 30
0.0
 11
-52.97771003740494
 21
-160.236971252346
 31
0.0
  0
LINE
  5
103
330
1F
100
AcDbEntity
  8
0
100
AcDbLine
 10
-52.97771003740494
 20
-160.236971252346
 30
0.0
 11
-56.19018180872401
 21
-155.047593775267
 31
0.0
  0
LINE
  5
104
330
1F
100
AcDbEntity
  8
0
100
AcDbLine
 10
-32.81175078048557
 20
-173.3575861737944
 30
0.0
 11
-32.81175078048557
 21
-172.3686361709224
 31
0.0
  0
LINE
  5
105
330
1F
100
AcDbEntity
  8
0
100
AcDbLine
 10
-48.0354457737523
 20
-168.8859337136202
 30
0.0
 11
-49.51812505281666
 21
-164.9321223027292
 31
0.0
  0
LINE
  5
106
330
1F
100
AcDbEntity
  8
0
100
AcDbLine
 10
-70.5227481733792
 20
-79.92517696787355
 30
0.0
 11
-69.01077414354202
 21
-75.55925197318348
 31
0.0
  0
LINE
  5
107
330
1F
100
AcDbEntity
  8
0
100
AcDbLine
 10
-57.42574787467648
 20
-149.8582162983452
 30
0.0
 11
-57.42574787467644
 21
-137.0083292132257
 31
0.0
  0
LINE
  5
108
330
1F
100
AcDbEntity
  8
0
100
AcDbLine
 10
-66.81604997560049
 20
-96.7288754645124
 30
0.0
 11
-70.5227481733792
 21
-79.92517696787355
 31
0.0
  0
LINE
  5
109
330
1F
100
AcDbEntity
  8
0
100
AcDbLine
 10
-59.15554036693141
 20
-184.4540661440707
 30
0.0
 11
-54.9546157428503
 21
-181.9829340123229
 31
0.0
  0
LINE
  5
10A
330
1F
100
AcDbEntity
  8
0
100
AcDbLine
 10
-50.7536911187691
 20
-180.5002547331801
 30
0.0
 11
-46.05854006822843
 21
-180.5002547331801
 31
0.0
  0
LINE
  5
10B
330
1F
100
AcDbEntity
  8
0
100
AcDbLine
 10
-267.8117507804855
 20
-62.95729869929635
 30
0.0
 11
-287.8117507804853
 21
-62.95729869928905
 31
0.0
  0
LINE
  5
10C
330
1F
100
AcDbEntity
  8
0
100
AcDbLine
 10
-54.9546157428503
 20
-181.9829340123229
 30
0.0
 11
-50.7536911187691
 21
-180.5002547331801
 31
0.0
  0
LINE
  5
10D
330
1F
100
AcDbEntity
  8
0
100
AcDbLine
 10
-30.6350899277158
 20
-172.3158910270137
 30
0.0
 11
-32.81175078048557
 21
-173.3575861737944
 31
0.0
  0
LINE
  5
10E
330
1F
100
AcDbEntity
  8
0
100
AcDbLine
 10
-37.40957760687569
 20
-175.5579904695276
 30
0.0
 11
-32.81175078048557
 21
-173.3575861737944
 31
0.0
  0
LINE
  5
10F
330
1F
100
AcDbEntity
  8
0
100
AcDbLine
 10
-47.04699292099039
 20
-170.8628394189866
 30
0.0
 11
-48.0354457737523
 21
-168.8859337136202
 31
0.0
  0
LINE
  5
110
330
1F
100
AcDbEntity
  8
0
100
AcDbLine
 10
-267.8117507804855
 20
-60.54421327875965
 30
0.0
 11
-267.8117507804855
 21
-62.95729869929635
 31
0.0
  0
LINE
  5
111
330
1F
100
AcDbEntity
  8
0
100
AcDbLine
 10
-267.8117507804855
 20
-70.370384119833
 30
0.0
 11
-267.8117507804855
 21
-67.9572986992963
 31
0.0
  0
LINE
  5
112
330
1F
100
AcDbEntity
  8
0
100
AcDbLine
 10
-267.8117507804855
 20
-62.95729869929635
 30
0.0
 11
-267.8117507804855
 21
-67.9572986992963
 31
0.0
  0
LINE
  5
113
330
1F
100
AcDbEntity
  8
0
100
AcDbLine
 10
-36.91535118057332
 20
-172.0984054848605
 30
0.0
 11
-41.11627580465444
 21
-172.0984054848605
 31
0.0
  0
LINE
  5
114
330
1F
100
AcDbEntity
  8
0
100
AcDbLine
 10
-41.11627580465444
 20
-172.0984054848605
 30
0.0
 11
-45.31720042873555
 21
-171.8512922719059
 31
0.0
  0
LINE
  5
115
330
1F
100
AcDbEntity
  8
0
100
AcDbLine
 10
-117.7334686855818
 20
-62.95729869929674
 30
0.0
 11
-137.7334686855817
 21
-62.95729869929666
 31
0.0
  0
LINE
  5
116
330
1F
100
AcDbEntity
  8
0
100
AcDbLine
 10
-45.31720042873555
 20
-171.8512922719059
 30
0.0
 11
-47.04699292099039
 21
-170.8628394189866
 31
0.0
  0
LINE
  5
117
330
1F
100
AcDbEntity
  8
0
100
AcDbLine
 10
-30.41333802473352
 20
-178.767041838764
 30
0.0
 11
-32.81175078048561
 21
-179.0327437391195
 31
0.0
  0
LINE
  5
118
330
1F
100
AcDbEntity
  8
0
100
AcDbLine
 10
-46.05854006822843
 20
-180.5002547331801
 30
0.0
 11
-32.81175078048561
 21
-179.0327437391195
 31
0.0
  0
LINE
  5
119
330
1F
100
AcDbEntity
  8
0
100
AcDbLine
 10
-32.81175078048557
 20
-172.3686361709224
 30
0.0
 11
-34.93844547512801
 21
-172.3455186981299
 31
0.0
  0
LINE
  5
11A
330
1F
100
AcDbEntity
  8
0
100
AcDbLine
 10
-60.19894632550955
 20
-174.9132949422998
 30
0.0
 11
-58.11442453518689
 21
-174.5658746438351
 31
0.0
  0
LINE
  5
11B
330
1F
100
AcDbEntity
  8
0
100
AcDbLine
 10
-57.07216364002552
 20
-178.0400776278606
 30
0.0
 11
-58.80926513196115
 21
-178.3874979261709
 31
0.0
  0
LINE
  5
11C
330
1F
100
AcDbEntity
  8
0
100
AcDbLine
 10
-60.1989463255096
 20
-178.2137877769385
 30
0.0
 11
-60.72007677312884
 21
-176.1292659867703
 31
0.0
  0
LINE
  5
11D
330
1F
100
AcDbEntity
  8
0
100
AcDbLine
 10
-56.66074486564633
 20
-177.0801004876022
 30
0.0
 11
-57.07216364002552
 21
-178.0400776278606
 31
0.0
  0
LINE
  5
11E
330
1F
100
AcDbEntity
  8
0
100
AcDbLine
 10
-70.39866535994858
 20
-67.9572986992968
 30
0.0
 11
-72.81175078048531
 21
-67.95729869929679
 31
0.0
  0
LINE
  5
11F
330
1F
100
AcDbEntity
  8
0
100
AcDbLine
 10
-120.1465541061185
 20
-67.95729869929667
 30
0.0
 11
-117.7334686855818
 21
-67.95729869929669
 31
0.0
  0
LINE
  5
120
330
1F
100
AcDbEntity
  8
0
100
AcDbLine
 10
-72.81175078048531
 20
-67.95729869929679
 30
0.0
 11
-117.7334686855818
 21
-67.95729869929669
 31
0.0
  0
LINE
  5
121
330
1F
100
AcDbEntity
  8
0
100
AcDbLine
 10
-270.2248362010222
 20
-67.9572986992963
 30
0.0
 11
-267.8117507804855
 21
-67.9572986992963
 31
0.0
  0
LINE
  5
122
330
1F
100
AcDbEntity
  8
0
100
AcDbLine
 10
-58.80926513196115
 20
-178.3874979261709
 30
0.0
 11
-60.1989463255096
 21
-178.2137877769385
 31
0.0
  0
LINE
  5
123
330
1F
100
AcDbEntity
  8
0
100
AcDbLine
 10
-60.72007677312884
 20
-176.1292659867703
 30
0.0
 11
-60.19894632550955
 21
-174.9132949422998
 31
0.0
  0
LINE
  5
124
330
1F
100
AcDbEntity
  8
0
100
AcDbLine
 10
-58.11442453518689
 20
-174.5658746438351
 30
0.0
 11
-57.07216364002547
 21
-175.4344253898416
 31
0.0
  0
LINE
  5
125
330
1F
100
AcDbEntity
  8
0
100
AcDbLine
 10
-57.07216364002547
 20
-175.4344253898416
 30
0.0
 11
-56.66074486564633
 21
-177.0801004876022
 31
0.0
  0
LINE
  5
126
330
1F
100
AcDbEntity
  8
0
100
AcDbLine
 10
-41.11627580465444
 20
-176.7935565354014
 30
0.0
 11
-45.31720042873555
 21
-176.2993301090201
 31
0.0
  0
LINE
  5
127
330
1F
100
AcDbEntity
  8
0
100
AcDbLine
 10
-32.81175078048561
 20
-179.0327437391195
 30
0.0
 11
-32.81175078048557
 21
-177.318747065458
 31
0.0
  0
LINE
  5
128
330
1F
100
AcDbEntity
  8
0
100
AcDbLine
 10
-73.89091538765211
 20
-65.79896948496331
 30
0.0
 11
-72.81175078048531
 21
-67.95729869929679
 31
0.0
  0
LINE
  5
129
330
1F
100
AcDbEntity
  8
0
100
AcDbLine
 10
-45.31720042873555
 20
-176.2993301090201
 30
0.0
 11
-42.10472865741635
 21
-175.8051036827966
 31
0.0
  0
LINE
  5
12A
330
1F
100
AcDbEntity
  8
0
100
AcDbLine
 10
-42.10472865741635
 20
-175.8051036827966
 30
0.0
 11
-37.40957760687569
 21
-175.5579904695276
 31
0.0
  0
LINE
  5
12B
330
1F
100
AcDbEntity
  8
0
100
AcDbLine
 10
-117.7334686855818
 20
-60.54421327876003
 30
0.0
 11
-117.7334686855818
 21
-62.95729869929674
 31
0.0
  0
LINE
  5
12C
330
1F
100
AcDbEntity
  8
0
100
AcDbLine
 10
-117.7334686855818
 20
-70.37038411983339
 30
0.0
 11
-117.7334686855818
 21
-67.95729869929669
 31
0.0
  0
LINE
  5
12D
330
1F
100
AcDbEntity
  8
0
100
AcDbLine
 10
-117.7334686855818
 20
-62.95729869929674
 30
0.0
 11
-117.7334686855818
 21
-67.95729869929669
 31
0.0
  0
LINE
  5
12E
330
1F
100
AcDbEntity
  8
0
100
AcDbLine
 10
-34.93844547512801
 20
-172.3455186981299
 30
0.0
 11
-36.91535118057332
 21
-172.0984054848605
 31
0.0
  0
LINE
  5
12F
330
1F
100
AcDbEntity
  8
0
100
AcDbLine
 10
-32.81175078048557
 20
-177.318747065458
 30
0.0
 11
-36.42112475411378
 21
-177.0406697486704
 31
0.0
  0
LINE
  5
130
330
1F
100
AcDbEntity
  8
0
100
AcDbLine
 10
-36.42112475411378
 20
-177.0406697486704
 30
0.0
 11
-41.11627580465444
 21
-176.7935565354014
 31
0.0
  0
LINE
  5
131
330
1F
100
AcDbEntity
  8
0
100
AcDbLine
 10
-59.15554036693141
 20
-184.4540661440707
 30
0.0
 11
-67.70922458837475
 21
-196.9507214297004
 31
0.0
  0
LINE
  5
132
330
1F
100
AcDbEntity
  8
0
100
AcDbLine
 10
-67.70922458837475
 20
-196.9507214297004
 30
0.0
 11
-71.7323530655122
 21
-202.5383998701907
 31
0.0
  0
LINE
  5
133
330
1F
100
AcDbEntity
  8
0
100
AcDbLine
 10
-71.7323530655122
 20
-202.5383998701907
 30
0.0
 11
-76.42600295564918
 21
-207.0085426227397
 31
0.0
  0
LINE
  5
134
330
1F
100
AcDbEntity
  8
0
100
AcDbLine
 10
-76.42600295564918
 20
-207.0085426227397
 30
0.0
 11
-80.00211715760994
 21
-208.5730925861705
 31
0.0
  0
LINE
  5
135
330
1F
100
AcDbEntity
  8
0
100
AcDbLine
 10
-80.00211715760994
 20
-208.5730925861705
 30
0.0
 11
-80.44913143278663
 21
-206.1145140720732
 31
0.0
  0
LINE
  5
136
330
1F
100
AcDbEntity
  8
0
100
AcDbLine
 10
-80.44913143278663
 20
-206.1145140720732
 30
0.0
 11
-77.99055291900218
 21
-202.5383998701907
 31
0.0
  0
LINE
  5
137
330
1F
100
AcDbEntity
  8
0
100
AcDbLine
 10
-77.99055291900218
 20
-202.5383998701907
 30
0.0
 11
-71.28533879033547
 21
-192.9275929523282
 31
0.0
  0
LINE
  5
138
330
1F
100
AcDbEntity
  8
0
100
AcDbLine
 10
-71.28533879033547
 20
-192.9275929523282
 30
0.0
 11
-80.00211715760994
 21
-200.3033284941512
 31
0.0
  0
LINE
  5
139
330
1F
100
AcDbEntity
  8
0
100
AcDbLine
 10
-80.00211715760994
 20
-200.3033284941512
 30
0.0
 11
-84.47225991000224
 21
-202.9854141456805
 31
0.0
  0
LINE
  5
13A
330
1F
100
AcDbEntity
  8
0
100
AcDbLine
 10
-84.47225991000224
 20
-202.9854141456805
 30
0.0
 11
-86.70733128627661
 21
-203.208921283112
 31
0.0
  0
LINE
  5
13B
330
1F
100
AcDbEntity
  8
0
100
AcDbLine
 10
-86.70733128627661
 20
-203.208921283112
 30
0.0
 11
-88.04837411204123
 21
-203.4324284205439
 31
0.0
  0
LINE
  5
13C
330
1F
100
AcDbEntity
  8
0
100
AcDbLine
 10
-88.04837411204123
 20
-203.4324284205439
 30
0.0
 11
-89.83643121298253
 21
-202.5383998701907
 31
0.0
  0
LINE
  5
13D
330
1F
100
AcDbEntity
  8
0
100
AcDbLine
 10
-89.83643121298253
 20
-202.5383998701907
 30
0.0
 11
-87.37785269911984
 21
-197.1742285674452
 31
0.0
  0
LINE
  5
13E
330
1F
100
AcDbEntity
  8
0
100
AcDbLine
 10
-87.37785269911984
 20
-197.1742285674452
 30
0.0
 11
-83.57823135957065
 21
-192.9275929523282
 31
0.0
  0
LINE
  5
13F
330
1F
100
AcDbEntity
  8
0
100
AcDbLine
 10
-83.57823135957065
 20
-192.9275929523282
 30
0.0
 11
-79.77861001994336
 21
-189.1279716130139
 31
0.0
  0
LINE
  5
140
330
1F
100
AcDbEntity
  8
0
100
AcDbLine
 10
-79.77861001994336
 20
-189.1279716130139
 30
0.0
 11
-78.05623670321164
 21
-185.9271751163061
 31
0.0
  0
LINE
  5
141
330
1F
100
AcDbEntity
  8
0
100
AcDbLine
 10
-358.1977536862967
 20
-157.7893006698368
 30
0.0
 11
-348.8074515853746
 21
-198.0687544185506
 31
0.0
  0
LINE
  5
142
330
1F
100
AcDbEntity
  8
0
100
AcDbLine
 10
-359.4333197522483
 20
-139.7500361077954
 30
0.0
 11
-358.197753686296
 21
-144.9394135847174
 31
0.0
  0
LINE
  5
143
330
1F
100
AcDbEntity
  8
0
100
AcDbLine
 10
-366.1053765081551
 20
-129.865507580333
 30
0.0
 11
-362.6457915235671
 21
-134.5606586307164
 31
0.0
  0
LINE
  5
144
330
1F
100
AcDbEntity
  8
0
100
AcDbLine
 10
-362.6457915235671
 20
-134.5606586307164
 30
0.0
 11
-359.4333197522483
 21
-139.7500361077954
 31
0.0
  0
LINE
  5
145
330
1F
100
AcDbEntity
  8
0
100
AcDbLine
 10
-382.8117507804859
 20
-121.4400437092669
 30
0.0
 11
-382.8117507804859
 21
-122.4289937121389
 31
0.0
  0
LINE
  5
146
330
1F
100
AcDbEntity
  8
0
100
AcDbLine
 10
-367.5880557872193
 20
-125.9116961694419
 30
0.0
 11
-366.1053765081551
 21
-129.865507580333
 31
0.0
  0
LINE
  5
147
330
1F
100
AcDbEntity
  8
0
100
AcDbLine
 10
-345.1007533875967
 20
-214.8724529151896
 30
0.0
 11
-346.6127274174341
 21
-219.2383779098796
 31
0.0
  0
LINE
  5
148
330
1F
100
AcDbEntity
  8
0
100
AcDbLine
 10
-358.197753686296
 20
-144.9394135847174
 30
0.0
 11
-358.1977536862967
 21
-157.7893006698368
 31
0.0
  0
LINE
  5
149
330
1F
100
AcDbEntity
  8
0
100
AcDbLine
 10
-348.8074515853746
 20
-198.0687544185506
 30
0.0
 11
-345.1007533875967
 21
-214.8724529151896
 31
0.0
  0
LINE
  5
14A
330
1F
100
AcDbEntity
  8
0
100
AcDbLine
 10
-356.4679611940394
 20
-110.3435637389919
 30
0.0
 11
-360.6688858181207
 21
-112.8146958707395
 31
0.0
  0
LINE
  5
14B
330
1F
100
AcDbEntity
  8
0
100
AcDbLine
 10
-364.869810442202
 20
-114.2973751498821
 30
0.0
 11
-369.5649614927427
 21
-114.2973751498819
 31
0.0
  0
LINE
  5
14C
330
1F
100
AcDbEntity
  8
0
100
AcDbLine
 10
-150.224836201028
 20
-231.8403311837762
 30
0.0
 11
-147.8117507804913
 21
-231.8403311837763
 31
0.0
  0
LINE
  5
14D
330
1F
100
AcDbEntity
  8
0
100
AcDbLine
 10
-125.3986653599546
 20
-231.8403311837775
 30
0.0
 11
-127.8117507804913
 21
-231.8403311837773
 31
0.0
  0
LINE
  5
14E
330
1F
100
AcDbEntity
  8
0
100
AcDbLine
 10
-147.8117507804913
 20
-231.8403311837763
 30
0.0
 11
-127.8117507804913
 21
-231.8403311837773
 31
0.0
  0
LINE
  5
14F
330
1F
100
AcDbEntity
  8
0
100
AcDbLine
 10
-360.6688858181207
 20
-112.8146958707395
 30
0.0
 11
-364.869810442202
 21
-114.2973751498821
 31
0.0
  0
LINE
  5
150
330
1F
100
AcDbEntity
  8
0
100
AcDbLine
 10
-384.9884116332556
 20
-122.4817388560476
 30
0.0
 11
-382.8117507804859
 21
-121.4400437092669
 31
0.0
  0
LINE
  5
151
330
1F
100
AcDbEntity
  8
0
100
AcDbLine
 10
-378.2139239540955
 20
-119.239639413534
 30
0.0
 11
-382.8117507804859
 21
-121.4400437092669
 31
0.0
  0
LINE
  5
152
330
1F
100
AcDbEntity
  8
0
100
AcDbLine
 10
-127.8117507804914
 20
-234.2534166043141
 30
0.0
 11
-127.8117507804913
 21
-231.8403311837773
 31
0.0
  0
LINE
  5
153
330
1F
100
AcDbEntity
  8
0
100
AcDbLine
 10
-127.8117507804909
 20
-224.4272457632407
 30
0.0
 11
-127.8117507804911
 21
-226.8403311837774
 31
0.0
  0
LINE
  5
154
330
1F
100
AcDbEntity
  8
0
100
AcDbLine
 10
-127.8117507804913
 20
-231.8403311837773
 30
0.0
 11
-127.8117507804911
 21
-226.8403311837774
 31
0.0
  0
LINE
  5
155
330
1F
100
AcDbEntity
  8
0
100
AcDbLine
 10
-368.5765086399811
 20
-123.9347904640754
 30
0.0
 11
-367.5880557872193
 21
-125.9116961694419
 31
0.0
  0
LINE
  5
156
330
1F
100
AcDbEntity
  8
0
100
AcDbLine
 10
-147.8117507804914
 20
-234.253416604313
 30
0.0
 11
-147.8117507804913
 21
-231.8403311837763
 31
0.0
  0
LINE
  5
157
330
1F
100
AcDbEntity
  8
0
100
AcDbLine
 10
-147.8117507804909
 20
-224.4272457632397
 30
0.0
 11
-147.811750780491
 21
-226.8403311837764
 31
0.0
  0
LINE
  5
158
330
1F
100
AcDbEntity
  8
0
100
AcDbLine
 10
-147.8117507804913
 20
-231.8403311837763
 30
0.0
 11
-147.811750780491
 21
-226.8403311837764
 31
0.0
  0
LINE
  5
159
330
1F
100
AcDbEntity
  8
0
100
AcDbLine
 10
-378.7081503803981
 20
-122.699224398201
 30
0.0
 11
-374.507225756317
 21
-122.6992243982012
 31
0.0
  0
LINE
  5
15A
330
1F
100
AcDbEntity
  8
0
100
AcDbLine
 10
-374.507225756317
 20
-122.6992243982012
 30
0.0
 11
-370.3063011322359
 21
-122.9463376111561
 31
0.0
  0
LINE
  5
15B
330
1F
100
AcDbEntity
  8
0
100
AcDbLine
 10
-300.3031182959317
 20
-231.8403311837686
 30
0.0
 11
-297.8900328753949
 21
-231.8403311837687
 31
0.0
  0
LINE
  5
15C
330
1F
100
AcDbEntity
  8
0
100
AcDbLine
 10
-275.4769474548582
 20
-231.8403311837698
 30
0.0
 11
-277.890032875395
 21
-231.8403311837697
 31
0.0
  0
LINE
  5
15D
330
1F
100
AcDbEntity
  8
0
100
AcDbLine
 10
-297.8900328753949
 20
-231.8403311837687
 30
0.0
 11
-277.890032875395
 21
-231.8403311837697
 31
0.0
  0
LINE
  5
15E
330
1F
100
AcDbEntity
  8
0
100
AcDbLine
 10
-370.3063011322359
 20
-122.9463376111561
 30
0.0
 11
-368.5765086399811
 21
-123.9347904640754
 31
0.0
  0
LINE
  5
15F
330
1F
100
AcDbEntity
  8
0
100
AcDbLine
 10
-385.2101635362376
 20
-116.0305880442972
 30
0.0
 11
-382.8117507804856
 21
-115.7648861439419
 31
0.0
  0
LINE
  5
160
330
1F
100
AcDbEntity
  8
0
100
AcDbLine
 10
-369.5649614927427
 20
-114.2973751498819
 30
0.0
 11
-382.8117507804856
 21
-115.7648861439419
 31
0.0
  0
LINE
  5
161
330
1F
100
AcDbEntity
  8
0
100
AcDbLine
 10
-382.8117507804859
 20
-122.4289937121389
 30
0.0
 11
-380.6850560858434
 21
-122.4521111849316
 31
0.0
  0
LINE
  5
162
330
1F
100
AcDbEntity
  8
0
100
AcDbLine
 10
-355.4245552354618
 20
-119.8843349407629
 30
0.0
 11
-357.5090770257844
 21
-120.2317552392275
 31
0.0
  0
LINE
  5
163
330
1F
100
AcDbEntity
  8
0
100
AcDbLine
 10
-358.5513379209457
 20
-116.7575522552019
 30
0.0
 11
-356.81423642901
 21
-116.4101319568918
 31
0.0
  0
LINE
  5
164
330
1F
100
AcDbEntity
  8
0
100
AcDbLine
 10
-355.4245552354616
 20
-116.5838421061242
 30
0.0
 11
-354.9034247878424
 21
-118.6683638962924
 31
0.0
  0
LINE
  5
165
330
1F
100
AcDbEntity
  8
0
100
AcDbLine
 10
-358.9627566953249
 20
-117.7175293954603
 30
0.0
 11
-358.5513379209457
 21
-116.7575522552019
 31
0.0
  0
LINE
  5
166
330
1F
100
AcDbEntity
  8
0
100
AcDbLine
 10
-345.2248362010279
 20
-226.8403311837664
 30
0.0
 11
-342.8117507804911
 21
-226.8403311837665
 31
0.0
  0
LINE
  5
167
330
1F
100
AcDbEntity
  8
0
100
AcDbLine
 10
-295.476947454858
 20
-226.8403311837689
 30
0.0
 11
-297.8900328753947
 21
-226.8403311837688
 31
0.0
  0
LINE
  5
168
330
1F
100
AcDbEntity
  8
0
100
AcDbLine
 10
-342.8117507804911
 20
-226.8403311837665
 30
0.0
 11
-297.8900328753947
 21
-226.8403311837688
 31
0.0
  0
LINE
  5
169
330
1F
100
AcDbEntity
  8
0
100
AcDbLine
 10
-130.2248362010278
 20
-226.8403311837773
 30
0.0
 11
-127.8117507804911
 21
-226.8403311837774
 31
0.0
  0
LINE
  5
16A
330
1F
100
AcDbEntity
  8
0
100
AcDbLine
 10
-127.8117507804911
 20
-226.8403311837774
 30
0.0
 11
-32.81175078049109
 21
-226.8403311837822
 31
0.0
  0
LINE
  5
16B
330
1F
100
AcDbEntity
  8
0
100
AcDbLine
 10
-280.3031182959314
 20
-226.8403311837696
 30
0.0
 11
-277.8900328753947
 21
-226.8403311837698
 31
0.0
  0
LINE
  5
16C
330
1F
100
AcDbEntity
  8
0
100
AcDbLine
 10
-145.3986653599543
 20
-226.8403311837765
 30
0.0
 11
-147.811750780491
 21
-226.8403311837764
 31
0.0
  0
LINE
  5
16D
330
1F
100
AcDbEntity
  8
0
100
AcDbLine
 10
-277.8900328753947
 20
-226.8403311837698
 30
0.0
 11
-147.811750780491
 21
-226.8403311837764
 31
0.0
  0
LINE
  5
16E
330
1F
100
AcDbEntity
  8
0
100
AcDbLine
 10
-356.81423642901
 20
-116.4101319568918
 30
0.0
 11
-355.4245552354616
 21
-116.5838421061242
 31
0.0
  0
LINE
  5
16F
330
1F
100
AcDbEntity
  8
0
100
AcDbLine
 10
-354.9034247878424
 20
-118.6683638962924
 30
0.0
 11
-355.4245552354618
 21
-119.8843349407629
 31
0.0
  0
LINE
  5
170
330
1F
100
AcDbEntity
  8
0
100
AcDbLine
 10
-357.5090770257844
 20
-120.2317552392275
 30
0.0
 11
-358.5513379209459
 21
-119.3632044932209
 31
0.0
  0
LINE
  5
171
330
1F
100
AcDbEntity
  8
0
100
AcDbLine
 10
-358.5513379209459
 20
-119.3632044932209
 30
0.0
 11
-358.9627566953249
 21
-117.7175293954603
 31
0.0
  0
LINE
  5
172
330
1F
100
AcDbEntity
  8
0
100
AcDbLine
 10
-374.5072257563168
 20
-118.0040733476603
 30
0.0
 11
-370.3063011322357
 21
-118.4982997740419
 31
0.0
  0
LINE
  5
173
330
1F
100
AcDbEntity
  8
0
100
AcDbLine
 10
-382.8117507804856
 20
-115.7648861439419
 30
0.0
 11
-382.8117507804856
 21
-117.4788828176033
 31
0.0
  0
LINE
  5
174
330
1F
100
AcDbEntity
  8
0
100
AcDbLine
 10
-341.7325861733245
 20
-228.9986603981
 30
0.0
 11
-342.8117507804911
 21
-226.8403311837665
 31
0.0
  0
LINE
  5
175
330
1F
100
AcDbEntity
  8
0
100
AcDbLine
 10
-370.3063011322357
 20
-118.4982997740419
 30
0.0
 11
-373.5187729035549
 21
-118.9925262002652
 31
0.0
  0
LINE
  5
176
330
1F
100
AcDbEntity
  8
0
100
AcDbLine
 10
-373.5187729035549
 20
-118.9925262002652
 30
0.0
 11
-378.2139239540955
 21
-119.239639413534
 31
0.0
  0
LINE
  5
177
330
1F
100
AcDbEntity
  8
0
100
AcDbLine
 10
-297.8900328753951
 20
-234.2534166043054
 30
0.0
 11
-297.8900328753949
 21
-231.8403311837687
 31
0.0
  0
LINE
  5
178
330
1F
100
AcDbEntity
  8
0
100
AcDbLine
 10
-297.8900328753946
 20
-224.4272457632321
 30
0.0
 11
-297.8900328753947
 21
-226.8403311837688
 31
0.0
  0
LINE
  5
179
330
1F
100
AcDbEntity
  8
0
100
AcDbLine
 10
-297.8900328753949
 20
-231.8403311837687
 30
0.0
 11
-297.8900328753947
 21
-226.8403311837688
 31
0.0
  0
LINE
  5
17A
330
1F
100
AcDbEntity
  8
0
100
AcDbLine
 10
-380.6850560858434
 20
-122.4521111849316
 30
0.0
 11
-378.7081503803981
 21
-122.699224398201
 31
0.0
  0
LINE
  5
17B
330
1F
100
AcDbEntity
  8
0
100
AcDbLine
 10
-382.8117507804856
 20
-117.4788828176033
 30
0.0
 11
-379.2023768068574
 21
-117.7569601343911
 31
0.0
  0
LINE
  5
17C
330
1F
100
AcDbEntity
  8
0
100
AcDbLine
 10
-379.2023768068574
 20
-117.7569601343911
 30
0.0
 11
-374.5072257563168
 21
-118.0040733476603
 31
0.0
  0
LINE
  5
17D
330
1F
100
AcDbEntity
  8
0
100
AcDbLine
 10
-277.8900328753951
 20
-234.2534166043064
 30
0.0
 11
-277.890032875395
 21
-231.8403311837697
 31
0.0
  0
LINE
  5
17E
330
1F
100
AcDbEntity
  8
0
100
AcDbLine
 10
-277.8900328753946
 20
-224.4272457632331
 30
0.0
 11
-277.8900328753947
 21
-226.8403311837698
 31
0.0
  0
LINE
  5
17F
330
1F
100
AcDbEntity
  8
0
100
AcDbLine
 10
-277.890032875395
 20
-231.8403311837697
 30
0.0
 11
-277.8900328753947
 21
-226.8403311837698
 31
0.0
  0
LINE
  5
180
330
1F
100
AcDbEntity
  8
0
100
AcDbLine
 10
-356.4679611940394
 20
-110.3435637389919
 30
0.0
 11
-347.9142769725955
 21
-97.84690845336263
 31
0.0
  0
LINE
  5
181
330
1F
100
AcDbEntity
  8
0
100
AcDbLine
 10
-347.9142769725955
 20
-97.84690845336263
 30
0.0
 11
-343.8911484954578
 21
-92.25923001287246
 31
0.0
  0
LINE
  5
182
330
1F
100
AcDbEntity
  8
0
100
AcDbLine
 10
-343.8911484954578
 20
-92.25923001287246
 30
0.0
 11
-339.1974986053206
 21
-87.78908726032374
 31
0.0
  0
LINE
  5
183
330
1F
100
AcDbEntity
  8
0
100
AcDbLine
 10
-339.1974986053206
 20
-87.78908726032374
 30
0.0
 11
-335.6213844033597
 21
-86.22453729689316
 31
0.0
  0
LINE
  5
184
330
1F
100
AcDbEntity
  8
0
100
AcDbLine
 10
-335.6213844033597
 20
-86.22453729689316
 30
0.0
 11
-335.1743701281832
 21
-88.68311581099049
 31
0.0
  0
LINE
  5
185
330
1F
100
AcDbEntity
  8
0
100
AcDbLine
 10
-335.1743701281832
 20
-88.68311581099049
 30
0.0
 11
-337.6329486419678
 21
-92.25923001287278
 31
0.0
  0
LINE
  5
186
330
1F
100
AcDbEntity
  8
0
100
AcDbLine
 10
-337.6329486419678
 20
-92.25923001287278
 30
0.0
 11
-344.338162770635
 21
-101.870036930735
 31
0.0
  0
LINE
  5
187
330
1F
100
AcDbEntity
  8
0
100
AcDbLine
 10
-344.338162770635
 20
-101.870036930735
 30
0.0
 11
-335.6213844033602
 21
-94.49430138891239
 31
0.0
  0
LINE
  5
188
330
1F
100
AcDbEntity
  8
0
100
AcDbLine
 10
-335.6213844033602
 20
-94.49430138891239
 30
0.0
 11
-331.1512416509678
 21
-91.81221573738338
 31
0.0
  0
LINE
  5
189
330
1F
100
AcDbEntity
  8
0
100
AcDbLine
 10
-331.1512416509678
 20
-91.81221573738338
 30
0.0
 11
-328.9161702746933
 21
-91.58870859995194
 31
0.0
  0
LINE
  5
18A
330
1F
100
AcDbEntity
  8
0
100
AcDbLine
 10
-328.9161702746933
 20
-91.58870859995194
 30
0.0
 11
-327.5751274489287
 21
-91.36520146252009
 31
0.0
  0
LINE
  5
18B
330
1F
100
AcDbEntity
  8
0
100
AcDbLine
 10
-327.5751274489287
 20
-91.36520146252009
 30
0.0
 11
-325.7870703479875
 21
-92.25923001287339
 31
0.0
  0
LINE
  5
18C
330
1F
100
AcDbEntity
  8
0
100
AcDbLine
 10
-325.7870703479875
 20
-92.25923001287339
 30
0.0
 11
-328.2456488618504
 21
-97.62340131561875
 31
0.0
  0
LINE
  5
18D
330
1F
100
AcDbEntity
  8
0
100
AcDbLine
 10
-328.2456488618504
 20
-97.62340131561875
 30
0.0
 11
-332.0452702013998
 21
-101.8700369307356
 31
0.0
  0
LINE
  5
18E
330
1F
100
AcDbEntity
  8
0
100
AcDbLine
 10
-332.0452702013998
 20
-101.8700369307356
 30
0.0
 11
-335.8448915410273
 21
-105.6696582700498
 31
0.0
  0
LINE
  5
18F
330
1F
100
AcDbEntity
  8
0
100
AcDbLine
 10
-335.8448915410273
 20
-105.6696582700498
 30
0.0
 11
-337.5672648577592
 21
-108.8704547667574
 31
0.0
  0
LINE
  5
190
330
1F
100
AcDbEntity
  8
0
100
AcDbLine
 10
-57.42574787467662
 20
197.7916707867743
 30
0.0
 11
-66.81604997560066
 21
238.0711245354876
 31
0.0
  0
LINE
  5
191
330
1F
100
AcDbEntity
  8
0
100
AcDbLine
 10
-56.19018180872418
 20
179.7524062247329
 30
0.0
 11
-57.42574787467667
 21
184.9417837016548
 31
0.0
  0
LINE
  5
192
330
1F
100
AcDbEntity
  8
0
100
AcDbLine
 10
-49.51812505281684
 20
169.8678776972708
 30
0.0
 11
-52.97771003740512
 21
174.563028747654
 31
0.0
  0
LINE
  5
193
330
1F
100
AcDbEntity
  8
0
100
AcDbLine
 10
-52.97771003740512
 20
174.563028747654
 30
0.0
 11
-56.19018180872418
 21
179.7524062247329
 31
0.0
  0
LINE
  5
194
330
1F
100
AcDbEntity
  8
0
100
AcDbLine
 10
-32.81175078048575
 20
161.4424138262056
 30
0.0
 11
-32.81175078048575
 21
162.4313638290776
 31
0.0
  0
LINE
  5
195
330
1F
100
AcDbEntity
  8
0
100
AcDbLine
 10
-48.03544577375249
 20
165.9140662863798
 30
0.0
 11
-49.51812505281684
 21
169.8678776972708
 31
0.0
  0
LINE
  5
196
330
1F
100
AcDbEntity
  8
0
100
AcDbLine
 10
-70.52274817337937
 20
254.8748230321264
 30
0.0
 11
-69.0107741435422
 21
259.2407480268165
 31
0.0
  0
LINE
  5
197
330
1F
100
AcDbEntity
  8
0
100
AcDbLine
 10
-57.42574787467667
 20
184.9417837016548
 30
0.0
 11
-57.42574787467662
 21
197.7916707867743
 31
0.0
  0
LINE
  5
198
330
1F
100
AcDbEntity
  8
0
100
AcDbLine
 10
-66.81604997560066
 20
238.0711245354876
 30
0.0
 11
-70.52274817337937
 21
254.8748230321264
 31
0.0
  0
LINE
  5
199
330
1F
100
AcDbEntity
  8
0
100
AcDbLine
 10
-59.1555403669316
 20
150.3459338559293
 30
0.0
 11
-54.95461574285049
 21
152.817065987677
 31
0.0
  0
LINE
  5
19A
330
1F
100
AcDbEntity
  8
0
100
AcDbLine
 10
-50.75369111876928
 20
154.2997452668199
 30
0.0
 11
-46.05854006822862
 21
154.2997452668199
 31
0.0
  0
LINE
  5
19B
330
1F
100
AcDbEntity
  8
0
100
AcDbLine
 10
-265.398665359949
 20
271.8427013007036
 30
0.0
 11
-267.8117507804856
 21
271.8427013007036
 31
0.0
  0
LINE
  5
19C
330
1F
100
AcDbEntity
  8
0
100
AcDbLine
 10
-290.2248362010223
 20
271.8427013007037
 30
0.0
 11
-287.8117507804856
 21
271.8427013007037
 31
0.0
  0
LINE
  5
19D
330
1F
100
AcDbEntity
  8
0
100
AcDbLine
 10
-267.8117507804856
 20
271.8427013007036
 30
0.0
 11
-287.8117507804856
 21
271.8427013007037
 31
0.0
  0
LINE
  5
19E
330
1F
100
AcDbEntity
  8
0
100
AcDbLine
 10
-54.95461574285049
 20
152.817065987677
 30
0.0
 11
-50.75369111876928
 21
154.2997452668199
 31
0.0
  0
LINE
  5
19F
330
1F
100
AcDbEntity
  8
0
100
AcDbLine
 10
-30.63508992771598
 20
162.4841089729863
 30
0.0
 11
-32.81175078048575
 21
161.4424138262056
 31
0.0
  0
LINE
  5
1A0
330
1F
100
AcDbEntity
  8
0
100
AcDbLine
 10
-37.40957760687586
 20
159.2420095304724
 30
0.0
 11
-32.81175078048575
 21
161.4424138262056
 31
0.0
  0
LINE
  5
1A1
330
1F
100
AcDbEntity
  8
0
100
AcDbLine
 10
-287.8117507804856
 20
274.2557867212404
 30
0.0
 11
-287.8117507804856
 21
271.8427013007037
 31
0.0
  0
LINE
  5
1A2
330
1F
100
AcDbEntity
  8
0
100
AcDbLine
 10
-287.8117507804856
 20
264.429615880167
 30
0.0
 11
-287.8117507804856
 21
266.8427013007038
 31
0.0
  0
LINE
  5
1A3
330
1F
100
AcDbEntity
  8
0
100
AcDbLine
 10
-287.8117507804856
 20
271.8427013007037
 30
0.0
 11
-287.8117507804856
 21
266.8427013007038
 31
0.0
  0
LINE
  5
1A4
330
1F
100
AcDbEntity
  8
0
100
AcDbLine
 10
-47.04699292099057
 20
163.9371605810134
 30
0.0
 11
-48.03544577375249
 21
165.9140662863798
 31
0.0
  0
LINE
  5
1A5
330
1F
100
AcDbEntity
  8
0
100
AcDbLine
 10
-267.8117507804856
 20
274.2557867212403
 30
0.0
 11
-267.8117507804856
 21
271.8427013007036
 31
0.0
  0
LINE
  5
1A6
330
1F
100
AcDbEntity
  8
0
100
AcDbLine
 10
-267.8117507804856
 20
264.429615880167
 30
0.0
 11
-267.8117507804856
 21
266.8427013007037
 31
0.0
  0
LINE
  5
1A7
330
1F
100
AcDbEntity
  8
0
100
AcDbLine
 10
-267.8117507804856
 20
271.8427013007036
 30
0.0
 11
-267.8117507804856
 21
266.8427013007037
 31
0.0
  0
LINE
  5
1A8
330
1F
100
AcDbEntity
  8
0
100
AcDbLine
 10
-36.91535118057351
 20
162.7015945151394
 30
0.0
 11
-41.11627580465462
 21
162.7015945151394
 31
0.0
  0
LINE
  5
1A9
330
1F
100
AcDbEntity
  8
0
100
AcDbLine
 10
-41.11627580465462
 20
162.7015945151394
 30
0.0
 11
-45.31720042873573
 21
162.9487077280941
 31
0.0
  0
LINE
  5
1AA
330
1F
100
AcDbEntity
  8
0
100
AcDbLine
 10
-115.3203832650452
 20
271.8427013007033
 30
0.0
 11
-117.733468685582
 21
271.8427013007033
 31
0.0
  0
LINE
  5
1AB
330
1F
100
AcDbEntity
  8
0
100
AcDbLine
 10
-140.1465541061187
 20
271.8427013007033
 30
0.0
 11
-137.7334686855819
 21
271.8427013007033
 31
0.0
  0
LINE
  5
1AC
330
1F
100
AcDbEntity
  8
0
100
AcDbLine
 10
-117.733468685582
 20
271.8427013007033
 30
0.0
 11
-137.7334686855819
 21
271.8427013007033
 31
0.0
  0
LINE
  5
1AD
330
1F
100
AcDbEntity
  8
0
100
AcDbLine
 10
-45.31720042873573
 20
162.9487077280941
 30
0.0
 11
-47.04699292099057
 21
163.9371605810134
 31
0.0
  0
LINE
  5
1AE
330
1F
100
AcDbEntity
  8
0
100
AcDbLine
 10
-30.4133380247337
 20
156.0329581612359
 30
0.0
 11
-32.8117507804858
 21
155.7672562608805
 31
0.0
  0
LINE
  5
1AF
330
1F
100
AcDbEntity
  8
0
100
AcDbLine
 10
-46.05854006822862
 20
154.2997452668199
 30
0.0
 11
-32.8117507804858
 21
155.7672562608805
 31
0.0
  0
LINE
  5
1B0
330
1F
100
AcDbEntity
  8
0
100
AcDbLine
 10
-32.81175078048575
 20
162.4313638290776
 30
0.0
 11
-34.93844547512819
 21
162.4544813018701
 31
0.0
  0
LINE
  5
1B1
330
1F
100
AcDbEntity
  8
0
100
AcDbLine
 10
-60.19894632550973
 20
159.8867050577002
 30
0.0
 11
-58.11442453518708
 21
160.2341253561649
 31
0.0
  0
LINE
  5
1B2
330
1F
100
AcDbEntity
  8
0
100
AcDbLine
 10
-57.0721636400257
 20
156.7599223721394
 30
0.0
 11
-58.80926513196134
 21
156.4125020738291
 31
0.0
  0
LINE
  5
1B3
330
1F
100
AcDbEntity
  8
0
100
AcDbLine
 10
-60.19894632550977
 20
156.5862122230615
 30
0.0
 11
-60.72007677312902
 21
158.6707340132297
 31
0.0
  0
LINE
  5
1B4
330
1F
100
AcDbEntity
  8
0
100
AcDbLine
 10
-56.66074486564651
 20
157.7198995123978
 30
0.0
 11
-57.0721636400257
 21
156.7599223721394
 31
0.0
  0
LINE
  5
1B5
330
1F
100
AcDbEntity
  8
0
100
AcDbLine
 10
-70.39866535994877
 20
266.8427013007031
 30
0.0
 11
-72.8117507804855
 21
266.8427013007031
 31
0.0
  0
LINE
  5
1B6
330
1F
100
AcDbEntity
  8
0
100
AcDbLine
 10
-120.1465541061187
 20
266.8427013007033
 30
0.0
 11
-117.733468685582
 21
266.8427013007033
 31
0.0
  0
LINE
  5
1B7
330
1F
100
AcDbEntity
  8
0
100
AcDbLine
 10
-72.8117507804855
 20
266.8427013007031
 30
0.0
 11
-117.733468685582
 21
266.8427013007033
 31
0.0
  0
LINE
  5
1B8
330
1F
100
AcDbEntity
  8
0
100
AcDbLine
 10
-285.3986653599489
 20
266.8427013007037
 30
0.0
 11
-287.8117507804856
 21
266.8427013007038
 31
0.0
  0
LINE
  5
1B9
330
1F
100
AcDbEntity
  8
0
100
AcDbLine
 10
-287.8117507804856
 20
266.8427013007038
 30
0.0
 11
-382.8117507804856
 21
266.842701300704
 31
0.0
  0
LINE
  5
1BA
330
1F
100
AcDbEntity
  8
0
100
AcDbLine
 10
-135.3203832650452
 20
266.8427013007033
 30
0.0
 11
-137.7334686855819
 21
266.8427013007033
 31
0.0
  0
LINE
  5
1BB
330
1F
100
AcDbEntity
  8
0
100
AcDbLine
 10
-270.2248362010224
 20
266.8427013007037
 30
0.0
 11
-267.8117507804856
 21
266.8427013007037
 31
0.0
  0
LINE
  5
1BC
330
1F
100
AcDbEntity
  8
0
100
AcDbLine
 10
-137.7334686855819
 20
266.8427013007033
 30
0.0
 11
-267.8117507804856
 21
266.8427013007037
 31
0.0
  0
LINE
  5
1BD
330
1F
100
AcDbEntity
  8
0
100
AcDbLine
 10
-58.80926513196134
 20
156.4125020738291
 30
0.0
 11
-60.19894632550977
 21
156.5862122230615
 31
0.0
  0
LINE
  5
1BE
330
1F
100
AcDbEntity
  8
0
100
AcDbLine
 10
-60.72007677312902
 20
158.6707340132297
 30
0.0
 11
-60.19894632550973
 21
159.8867050577002
 31
0.0
  0
LINE
  5
1BF
330
1F
100
AcDbEntity
  8
0
100
AcDbLine
 10
-58.11442453518708
 20
160.2341253561649
 30
0.0
 11
-57.07216364002566
 21
159.3655746101583
 31
0.0
  0
LINE
  5
1C0
330
1F
100
AcDbEntity
  8
0
100
AcDbLine
 10
-57.07216364002566
 20
159.3655746101583
 30
0.0
 11
-56.66074486564651
 21
157.7198995123978
 31
0.0
  0
LINE
  5
1C1
330
1F
100
AcDbEntity
  8
0
100
AcDbLine
 10
-41.11627580465462
 20
158.0064434645985
 30
0.0
 11
-45.31720042873573
 21
158.5006698909799
 31
0.0
  0
LINE
  5
1C2
330
1F
100
AcDbEntity
  8
0
100
AcDbLine
 10
-32.8117507804858
 20
155.7672562608805
 30
0.0
 11
-32.81175078048575
 21
157.4812529345419
 31
0.0
  0
LINE
  5
1C3
330
1F
100
AcDbEntity
  8
0
100
AcDbLine
 10
-73.89091538765229
 20
269.0010305150367
 30
0.0
 11
-72.8117507804855
 21
266.8427013007031
 31
0.0
  0
LINE
  5
1C4
330
1F
100
AcDbEntity
  8
0
100
AcDbLine
 10
-45.31720042873573
 20
158.5006698909799
 30
0.0
 11
-42.10472865741653
 21
158.9948963172034
 31
0.0
  0
LINE
  5
1C5
330
1F
100
AcDbEntity
  8
0
100
AcDbLine
 10
-42.10472865741653
 20
158.9948963172034
 30
0.0
 11
-37.40957760687586
 21
159.2420095304724
 31
0.0
  0
LINE
  5
1C6
330
1F
100
AcDbEntity
  8
0
100
AcDbLine
 10
-117.733468685582
 20
274.25578672124
 30
0.0
 11
-117.733468685582
 21
271.8427013007033
 31
0.0
  0
LINE
  5
1C7
330
1F
100
AcDbEntity
  8
0
100
AcDbLine
 10
-117.733468685582
 20
264.4296158801666
 30
0.0
 11
-117.733468685582
 21
266.8427013007033
 31
0.0
  0
LINE
  5
1C8
330
1F
100
AcDbEntity
  8
0
100
AcDbLine
 10
-117.733468685582
 20
271.8427013007033
 30
0.0
 11
-117.733468685582
 21
266.8427013007033
 31
0.0
  0
LINE
  5
1C9
330
1F
100
AcDbEntity
  8
0
100
AcDbLine
 10
-34.93844547512819
 20
162.4544813018701
 30
0.0
 11
-36.91535118057351
 21
162.7015945151394
 31
0.0
  0
LINE
  5
1CA
330
1F
100
AcDbEntity
  8
0
100
AcDbLine
 10
-32.81175078048575
 20
157.4812529345419
 30
0.0
 11
-36.42112475411395
 21
157.7593302513295
 31
0.0
  0
LINE
  5
1CB
330
1F
100
AcDbEntity
  8
0
100
AcDbLine
 10
-36.42112475411395
 20
157.7593302513295
 30
0.0
 11
-41.11627580465462
 21
158.0064434645985
 31
0.0
  0
LINE
  5
1CC
330
1F
100
AcDbEntity
  8
0
100
AcDbLine
 10
-137.7334686855819
 20
274.25578672124
 30
0.0
 11
-137.7334686855819
 21
271.8427013007033
 31
0.0
  0
LINE
  5
1CD
330
1F
100
AcDbEntity
  8
0
100
AcDbLine
 10
-137.7334686855819
 20
264.4296158801666
 30
0.0
 11
-137.7334686855819
 21
266.8427013007033
 31
0.0
  0
LINE
  5
1CE
330
1F
100
AcDbEntity
  8
0
100
AcDbLine
 10
-137.7334686855819
 20
271.8427013007033
 30
0.0
 11
-137.7334686855819
 21
266.8427013007033
 31
0.0
  0
LINE
  5
1CF
330
1F
100
AcDbEntity
  8
0
100
AcDbLine
 10
-59.1555403669316
 20
150.3459338559293
 30
0.0
 11
-67.70922458837494
 21
137.8492785702996
 31
0.0
  0
LINE
  5
1D0
330
1F
100
AcDbEntity
  8
0
100
AcDbLine
 10
-67.70922458837494
 20
137.8492785702996
 30
0.0
 11
-71.73235306551238
 21
132.2616001298092
 31
0.0
  0
LINE
  5
1D1
330
1F
100
AcDbEntity
  8
0
100
AcDbLine
 10
-71.73235306551238
 20
132.2616001298092
 30
0.0
 11
-76.42600295564937
 21
127.7914573772603
 31
0.0
  0
LINE
  5
1D2
330
1F
100
AcDbEntity
  8
0
100
AcDbLine
 10
-76.42600295564937
 20
127.7914573772603
 30
0.0
 11
-80.00211715761012
 21
126.2269074138295
 31
0.0
  0
LINE
  5
1D3
330
1F
100
AcDbEntity
  8
0
100
AcDbLine
 10
-80.00211715761012
 20
126.2269074138295
 30
0.0
 11
-80.44913143278681
 21
128.6854859279268
 31
0.0
  0
LINE
  5
1D4
330
1F
100
AcDbEntity
  8
0
100
AcDbLine
 10
-80.44913143278681
 20
128.6854859279268
 30
0.0
 11
-77.99055291900237
 21
132.2616001298092
 31
0.0
  0
LINE
  5
1D5
330
1F
100
AcDbEntity
  8
0
100
AcDbLine
 10
-77.99055291900237
 20
132.2616001298092
 30
0.0
 11
-71.28533879033564
 21
141.8724070476717
 31
0.0
  0
LINE
  5
1D6
330
1F
100
AcDbEntity
  8
0
100
AcDbLine
 10
-71.28533879033564
 20
141.8724070476717
 30
0.0
 11
-80.00211715761012
 21
134.4966715058487
 31
0.0
  0
LINE
  5
1D7
330
1F
100
AcDbEntity
  8
0
100
AcDbLine
 10
-80.00211715761012
 20
134.4966715058487
 30
0.0
 11
-84.4722599100024
 21
131.8145858543195
 31
0.0
  0
LINE
  5
1D8
330
1F
100
AcDbEntity
  8
0
100
AcDbLine
 10
-84.4722599100024
 20
131.8145858543195
 30
0.0
 11
-86.7073312862768
 21
131.5910787168879
 31
0.0
  0
LINE
  5
1D9
330
1F
100
AcDbEntity
  8
0
100
AcDbLine
 10
-86.7073312862768
 20
131.5910787168879
 30
0.0
 11
-88.0483741120414
 21
131.367571579456
 31
0.0
  0
LINE
  5
1DA
330
1F
100
AcDbEntity
  8
0
100
AcDbLine
 10
-88.0483741120414
 20
131.367571579456
 30
0.0
 11
-89.83643121298272
 21
132.2616001298093
 31
0.0
  0
LINE
  5
1DB
330
1F
100
AcDbEntity
  8
0
100
AcDbLine
 10
-89.83643121298272
 20
132.2616001298093
 30
0.0
 11
-87.37785269912003
 21
137.6257714325548
 31
0.0
  0
LINE
  5
1DC
330
1F
100
AcDbEntity
  8
0
100
AcDbLine
 10
-87.37785269912003
 20
137.6257714325548
 30
0.0
 11
-83.57823135957084
 21
141.8724070476718
 31
0.0
  0
LINE
  5
1DD
330
1F
100
AcDbEntity
  8
0
100
AcDbLine
 10
-83.57823135957084
 20
141.8724070476718
 30
0.0
 11
-79.77861001994354
 21
145.6720283869861
 31
0.0
  0
LINE
  5
1DE
330
1F
100
AcDbEntity
  8
0
100
AcDbLine
 10
-79.77861001994354
 20
145.6720283869861
 30
0.0
 11
-78.05623670321181
 21
148.8728248836939
 31
0.0
  0
LINE
  5
1DF
330
1F
100
AcDbEntity
  8
0
100
AcDbLine
 10
-358.1977536862969
 20
177.0106993301631
 30
0.0
 11
-348.8074515853748
 21
136.7312455814494
 31
0.0
  0
LINE
  5
1E0
330
1F
100
AcDbEntity
  8
0
100
AcDbLine
 10
-359.4333197522485
 20
195.0499638922045
 30
0.0
 11
-358.1977536862962
 21
189.8605864152826
 31
0.0
  0
LINE
  5
1E1
330
1F
100
AcDbEntity
  8
0
100
AcDbLine
 10
-366.1053765081553
 20
204.934492419667
 30
0.0
 11
-362.6457915235673
 21
200.2393413692836
 31
0.0
  0
LINE
  5
1E2
330
1F
100
AcDbEntity
  8
0
100
AcDbLine
 10
-362.6457915235673
 20
200.2393413692836
 30
0.0
 11
-359.4333197522485
 21
195.0499638922045
 31
0.0
  0
LINE
  5
1E3
330
1F
100
AcDbEntity
  8
0
100
AcDbLine
 10
-382.811750780486
 20
213.3599562907331
 30
0.0
 11
-382.8117507804861
 21
212.3710062878611
 31
0.0
  0
LINE
  5
1E4
330
1F
100
AcDbEntity
  8
0
100
AcDbLine
 10
-367.5880557872195
 20
208.888303830558
 30
0.0
 11
-366.1053765081553
 21
204.934492419667
 31
0.0
  0
LINE
  5
1E5
330
1F
100
AcDbEntity
  8
0
100
AcDbLine
 10
-345.1007533875969
 20
119.9275470848104
 30
0.0
 11
-346.6127274174343
 21
115.5616220901204
 31
0.0
  0
LINE
  5
1E6
330
1F
100
AcDbEntity
  8
0
100
AcDbLine
 10
-358.1977536862962
 20
189.8605864152826
 30
0.0
 11
-358.1977536862969
 21
177.0106993301631
 31
0.0
  0
LINE
  5
1E7
330
1F
100
AcDbEntity
  8
0
100
AcDbLine
 10
-348.8074515853748
 20
136.7312455814494
 30
0.0
 11
-345.1007533875969
 21
119.9275470848104
 31
0.0
  0
LINE
  5
1E8
330
1F
100
AcDbEntity
  8
0
100
AcDbLine
 10
-356.4679611940396
 20
224.4564362610081
 30
0.0
 11
-360.6688858181209
 21
221.9853041292605
 31
0.0
  0
LINE
  5
1E9
330
1F
100
AcDbEntity
  8
0
100
AcDbLine
 10
-364.8698104422022
 20
220.5026248501178
 30
0.0
 11
-369.5649614927428
 21
220.5026248501181
 31
0.0
  0
LINE
  5
1EA
330
1F
100
AcDbEntity
  8
0
100
AcDbLine
 10
-150.2248362010282
 20
102.9596688162238
 30
0.0
 11
-147.8117507804915
 21
102.9596688162236
 31
0.0
  0
LINE
  5
1EB
330
1F
100
AcDbEntity
  8
0
100
AcDbLine
 10
-125.3986653599548
 20
102.9596688162225
 30
0.0
 11
-127.8117507804915
 21
102.9596688162226
 31
0.0
  0
LINE
  5
1EC
330
1F
100
AcDbEntity
  8
0
100
AcDbLine
 10
-360.6688858181209
 20
221.9853041292605
 30
0.0
 11
-364.8698104422022
 21
220.5026248501178
 31
0.0
  0
LINE
  5
1ED
330
1F
100
AcDbEntity
  8
0
100
AcDbLine
 10
-384.9884116332558
 20
212.3182611439524
 30
0.0
 11
-382.811750780486
 21
213.3599562907331
 31
0.0
  0
LINE
  5
1EE
330
1F
100
AcDbEntity
  8
0
100
AcDbLine
 10
-378.2139239540958
 20
215.560360586466
 30
0.0
 11
-382.811750780486
 21
213.3599562907331
 31
0.0
  0
LINE
  5
1EF
330
1F
100
AcDbEntity
  8
0
100
AcDbLine
 10
-127.8117507804916
 20
100.5465833956859
 30
0.0
 11
-127.8117507804915
 21
102.9596688162226
 31
0.0
  0
LINE
  5
1F0
330
1F
100
AcDbEntity
  8
0
100
AcDbLine
 10
-127.8117507804911
 20
110.3727542367593
 30
0.0
 11
-127.8117507804912
 21
107.9596688162226
 31
0.0
  0
LINE
  5
1F1
330
1F
100
AcDbEntity
  8
0
100
AcDbLine
 10
-127.8117507804915
 20
102.9596688162226
 30
0.0
 11
-127.8117507804912
 21
107.9596688162226
 31
0.0
  0
LINE
  5
1F2
330
1F
100
AcDbEntity
  8
0
100
AcDbLine
 10
-368.5765086399813
 20
210.8652095359246
 30
0.0
 11
-367.5880557872195
 21
208.888303830558
 31
0.0
  0
LINE
  5
1F3
330
1F
100
AcDbEntity
  8
0
100
AcDbLine
 10
-147.8117507804911
 20
110.3727542367603
 30
0.0
 11
-147.8117507804912
 21
107.9596688162236
 31
0.0
  0
LINE
  5
1F4
330
1F
100
AcDbEntity
  8
0
100
AcDbLine
 10
-147.8117507804915
 20
102.9596688162236
 30
0.0
 11
-147.8117507804912
 21
107.9596688162236
 31
0.0
  0
LINE
  5
1F5
330
1F
100
AcDbEntity
  8
0
100
AcDbLine
 10
-378.7081503803983
 20
212.1007756017989
 30
0.0
 11
-374.5072257563172
 21
212.1007756017987
 31
0.0
  0
LINE
  5
1F6
330
1F
100
AcDbEntity
  8
0
100
AcDbLine
 10
-374.5072257563172
 20
212.1007756017987
 30
0.0
 11
-370.3063011322361
 21
211.8536623888439
 31
0.0
  0
LINE
  5
1F7
330
1F
100
AcDbEntity
  8
0
100
AcDbLine
 10
-300.3031182959318
 20
102.9596688162314
 30
0.0
 11
-297.8900328753951
 21
102.9596688162313
 31
0.0
  0
LINE
  5
1F8
330
1F
100
AcDbEntity
  8
0
100
AcDbLine
 10
-275.4769474548584
 20
102.9596688162301
 30
0.0
 11
-277.8900328753951
 21
102.9596688162303
 31
0.0
  0
LINE
  5
1F9
330
1F
100
AcDbEntity
  8
0
100
AcDbLine
 10
-370.3063011322361
 20
211.8536623888439
 30
0.0
 11
-368.5765086399813
 21
210.8652095359246
 31
0.0
  0
LINE
  5
1FA
330
1F
100
AcDbEntity
  8
0
100
AcDbLine
 10
-385.2101635362378
 20
218.7694119557028
 30
0.0
 11
-382.8117507804857
 21
219.0351138560581
 31
0.0
  0
LINE
  5
1FB
330
1F
100
AcDbEntity
  8
0
100
AcDbLine
 10
-369.5649614927428
 20
220.5026248501181
 30
0.0
 11
-382.8117507804857
 21
219.0351138560581
 31
0.0
  0
LINE
  5
1FC
330
1F
100
AcDbEntity
  8
0
100
AcDbLine
 10
-382.8117507804861
 20
212.3710062878611
 30
0.0
 11
-380.6850560858436
 21
212.3478888150684
 31
0.0
  0
LINE
  5
1FD
330
1F
100
AcDbEntity
  8
0
100
AcDbLine
 10
-355.4245552354619
 20
214.915665059237
 30
0.0
 11
-357.5090770257846
 21
214.5682447607724
 31
0.0
  0
LINE
  5
1FE
330
1F
100
AcDbEntity
  8
0
100
AcDbLine
 10
-358.5513379209459
 20
218.0424477447981
 30
0.0
 11
-356.8142364290102
 21
218.3898680431082
 31
0.0
  0
LINE
  5
1FF
330
1F
100
AcDbEntity
  8
0
100
AcDbLine
 10
-355.4245552354618
 20
218.2161578938758
 30
0.0
 11
-354.9034247878426
 21
216.1316361037076
 31
0.0
  0
LINE
  5
200
330
1F
100
AcDbEntity
  8
0
100
AcDbLine
 10
-358.9627566953251
 20
217.0824706045397
 30
0.0
 11
-358.5513379209459
 21
218.0424477447981
 31
0.0
  0
LINE
  5
201
330
1F
100
AcDbEntity
  8
0
100
AcDbLine
 10
-345.224836201028
 20
107.9596688162336
 30
0.0
 11
-342.8117507804913
 21
107.9596688162335
 31
0.0
  0
LINE
  5
202
330
1F
100
AcDbEntity
  8
0
100
AcDbLine
 10
-295.4769474548581
 20
107.9596688162311
 30
0.0
 11
-297.8900328753949
 21
107.9596688162312
 31
0.0
  0
LINE
  5
203
330
1F
100
AcDbEntity
  8
0
100
AcDbLine
 10
-342.8117507804913
 20
107.9596688162335
 30
0.0
 11
-297.8900328753949
 21
107.9596688162312
 31
0.0
  0
LINE
  5
204
330
1F
100
AcDbEntity
  8
0
100
AcDbLine
 10
-130.2248362010279
 20
107.9596688162227
 30
0.0
 11
-127.8117507804912
 21
107.9596688162226
 31
0.0
  0
LINE
  5
205
330
1F
100
AcDbEntity
  8
0
100
AcDbLine
 10
-127.8117507804912
 20
107.9596688162226
 30
0.0
 11
-32.81175078049127
 21
107.9596688162178
 31
0.0
  0
LINE
  5
206
330
1F
100
AcDbEntity
  8
0
100
AcDbLine
 10
-280.3031182959316
 20
107.9596688162303
 30
0.0
 11
-277.8900328753949
 21
107.9596688162302
 31
0.0
  0
LINE
  5
207
330
1F
100
AcDbEntity
  8
0
100
AcDbLine
 10
-145.3986653599545
 20
107.9596688162235
 30
0.0
 11
-147.8117507804912
 21
107.9596688162236
 31
0.0
  0
LINE
  5
208
330
1F
100
AcDbEntity
  8
0
100
AcDbLine
 10
-277.8900328753949
 20
107.9596688162302
 30
0.0
 11
-147.8117507804912
 21
107.9596688162236
 31
0.0
  0
LINE
  5
209
330
1F
100
AcDbEntity
  8
0
100
AcDbLine
 10
-356.8142364290102
 20
218.3898680431082
 30
0.0
 11
-355.4245552354618
 21
218.2161578938758
 31
0.0
  0
LINE
  5
20A
330
1F
100
AcDbEntity
  8
0
100
AcDbLine
 10
-354.9034247878426
 20
216.1316361037076
 30
0.0
 11
-355.4245552354619
 21
214.915665059237
 31
0.0
  0
LINE
  5
20B
330
1F
100
AcDbEntity
  8
0
100
AcDbLine
 10
-357.5090770257846
 20
214.5682447607724
 30
0.0
 11
-358.551337920946
 21
215.4367955067791
 31
0.0
  0
LINE
  5
20C
330
1F
100
AcDbEntity
  8
0
100
AcDbLine
 10
-358.551337920946
 20
215.4367955067791
 30
0.0
 11
-358.9627566953251
 21
217.0824706045397
 31
0.0
  0
LINE
  5
20D
330
1F
100
AcDbEntity
  8
0
100
AcDbLine
 10
-374.507225756317
 20
216.7959266523397
 30
0.0
 11
-370.3063011322359
 21
216.3017002259581
 31
0.0
  0
LINE
  5
20E
330
1F
100
AcDbEntity
  8
0
100
AcDbLine
 10
-382.8117507804857
 20
219.0351138560581
 30
0.0
 11
-382.8117507804859
 21
217.3211171823966
 31
0.0
  0
LINE
  5
20F
330
1F
100
AcDbEntity
  8
0
100
AcDbLine
 10
-341.7325861733246
 20
105.8013396018999
 30
0.0
 11
-342.8117507804913
 21
107.9596688162335
 31
0.0
  0
LINE
  5
210
330
1F
100
AcDbEntity
  8
0
100
AcDbLine
 10
-370.3063011322359
 20
216.3017002259581
 30
0.0
 11
-373.5187729035551
 21
215.8074737997347
 31
0.0
  0
LINE
  5
211
330
1F
100
AcDbEntity
  8
0
100
AcDbLine
 10
-373.5187729035551
 20
215.8074737997347
 30
0.0
 11
-378.2139239540958
 21
215.560360586466
 31
0.0
  0
LINE
  5
212
330
1F
100
AcDbEntity
  8
0
100
AcDbLine
 10
-297.8900328753948
 20
110.3727542367679
 30
0.0
 11
-297.8900328753949
 21
107.9596688162312
 31
0.0
  0
LINE
  5
213
330
1F
100
AcDbEntity
  8
0
100
AcDbLine
 10
-297.8900328753951
 20
102.9596688162313
 30
0.0
 11
-297.8900328753949
 21
107.9596688162312
 31
0.0
  0
LINE
  5
214
330
1F
100
AcDbEntity
  8
0
100
AcDbLine
 10
-380.6850560858436
 20
212.3478888150684
 30
0.0
 11
-378.7081503803983
 21
212.1007756017989
 31
0.0
  0
LINE
  5
215
330
1F
100
AcDbEntity
  8
0
100
AcDbLine
 10
-382.8117507804859
 20
217.3211171823966
 30
0.0
 11
-379.2023768068576
 21
217.0430398656089
 31
0.0
  0
LINE
  5
216
330
1F
100
AcDbEntity
  8
0
100
AcDbLine
 10
-379.2023768068576
 20
217.0430398656089
 30
0.0
 11
-374.507225756317
 21
216.7959266523397
 31
0.0
  0
LINE
  5
217
330
1F
100
AcDbEntity
  8
0
100
AcDbLine
 10
-277.8900328753953
 20
100.5465833956935
 30
0.0
 11
-277.8900328753951
 21
102.9596688162303
 31
0.0
  0
LINE
  5
218
330
1F
100
AcDbEntity
  8
0
100
AcDbLine
 10
-277.8900328753948
 20
110.3727542367669
 30
0.0
 11
-277.8900328753949
 21
107.9596688162302
 31
0.0
  0
LINE
  5
219
330
1F
100
AcDbEntity
  8
0
100
AcDbLine
 10
-277.8900328753951
 20
102.9596688162303
 30
0.0
 11
-277.8900328753949
 21
107.9596688162302
 31
0.0
  0
LINE
  5
21A
330
1F
100
AcDbEntity
  8
0
100
AcDbLine
 10
-356.4679611940396
 20
224.4564362610081
 30
0.0
 11
-347.9142769725957
 21
236.9530915466374
 31
0.0
  0
LINE
  5
21B
330
1F
100
AcDbEntity
  8
0
100
AcDbLine
 10
-347.9142769725957
 20
236.9530915466374
 30
0.0
 11
-343.891148495458
 21
242.5407699871275
 31
0.0
  0
LINE
  5
21C
330
1F
100
AcDbEntity
  8
0
100
AcDbLine
 10
-343.891148495458
 20
242.5407699871275
 30
0.0
 11
-339.1974986053208
 21
247.0109127396762
 31
0.0
  0
LINE
  5
21D
330
1F
100
AcDbEntity
  8
0
100
AcDbLine
 10
-339.1974986053208
 20
247.0109127396762
 30
0.0
 11
-335.6213844033599
 21
248.5754627031068
 31
0.0
  0
LINE
  5
21E
330
1F
100
AcDbEntity
  8
0
100
AcDbLine
 10
-335.6213844033599
 20
248.5754627031068
 30
0.0
 11
-335.1743701281833
 21
246.1168841890095
 31
0.0
  0
LINE
  5
21F
330
1F
100
AcDbEntity
  8
0
100
AcDbLine
 10
-335.1743701281833
 20
246.1168841890095
 30
0.0
 11
-337.632948641968
 21
242.5407699871272
 31
0.0
  0
LINE
  5
220
330
1F
100
AcDbEntity
  8
0
100
AcDbLine
 10
-337.632948641968
 20
242.5407699871272
 30
0.0
 11
-344.3381627706352
 21
232.929963069265
 31
0.0
  0
LINE
  5
221
330
1F
100
AcDbEntity
  8
0
100
AcDbLine
 10
-344.3381627706352
 20
232.929963069265
 30
0.0
 11
-335.6213844033604
 21
240.3056986110876
 31
0.0
  0
LINE
  5
222
330
1F
100
AcDbEntity
  8
0
100
AcDbLine
 10
-335.6213844033604
 20
240.3056986110876
 30
0.0
 11
-331.151241650968
 21
242.9877842626166
 31
0.0
  0
LINE
  5
223
330
1F
100
AcDbEntity
  8
0
100
AcDbLine
 10
-331.151241650968
 20
242.9877842626166
 30
0.0
 11
-328.9161702746935
 21
243.211291400048
 31
0.0
  0
LINE
  5
224
330
1F
100
AcDbEntity
  8
0
100
AcDbLine
 10
-328.9161702746935
 20
243.211291400048
 30
0.0
 11
-327.5751274489289
 21
243.4347985374799
 31
0.0
  0
LINE
  5
225
330
1F
100
AcDbEntity
  8
0
100
AcDbLine
 10
-327.5751274489289
 20
243.4347985374799
 30
0.0
 11
-325.7870703479877
 21
242.5407699871266
 31
0.0
  0
LINE
  5
226
330
1F
100
AcDbEntity
  8
0
100
AcDbLine
 10
-325.7870703479877
 20
242.5407699871266
 30
0.0
 11
-328.2456488618506
 21
237.1765986843812
 31
0.0
  0
LINE
  5
227
330
1F
100
AcDbEntity
  8
0
100
AcDbLine
 10
-328.2456488618506
 20
237.1765986843812
 30
0.0
 11
-332.0452702014
 21
232.9299630692644
 31
0.0
  0
LINE
  5
228
330
1F
100
AcDbEntity
  8
0
100
AcDbLine
 10
-332.0452702014
 20
232.9299630692644
 30
0.0
 11
-335.8448915410274
 21
229.1303417299502
 31
0.0
  0
LINE
  5
229
330
1F
100
AcDbEntity
  8
0
100
AcDbLine
 10
-335.8448915410274
 20
229.1303417299502
 30
0.0
 11
-337.5672648577594
 21
225.9295452332425
 31
0.0
  0
LINE
  5
22A
330
1F
100
AcDbEntity
  8
0
100
AcDbLine
 10
-334.7033648457536
 20
73.81745354204011
 30
0.0
 11
-334.8415499415911
 21
73.51595878749848
 31
0.0
  0
LINE
  5
22B
330
1F
100
AcDbEntity
  8
0
100
AcDbLine
 10
-334.8415499415911
 20
73.51595878749848
 30
0.0
 11
-335.7087882530781
 21
71.62380247160733
 31
0.0
  0
LINE
  5
22C
330
1F
100
AcDbEntity
  8
0
100
AcDbLine
 10
-95.00131352124768
 20
-42.7245845693634
 30
0.0
 11
-42.73346868558171
 21
-62.95729869930147
 31
0.0
  0
LINE
  5
22D
330
1F
100
AcDbEntity
  8
0
100
AcDbLine
 10
-282.8109471441232
 20
102.8912093175107
 30
0.0
 11
-297.8900328753951
 21
102.8912093175107
 31
0.0
  0
LINE
  5
22E
330
1F
100
AcDbEntity
  8
0
100
AcDbLine
 10
-297.8900328753951
 20
102.8912093175107
 30
0.0
 11
-302.8109471441231
 21
102.8912093175108
 31
0.0
  0
LINE
  5
22F
330
1F
100
AcDbEntity
  8
0
100
AcDbLine
 10
-282.8109471441232
 20
105.3042947380474
 30
0.0
 11
-282.8109471441232
 21
102.9596688162305
 31
0.0
  0
LINE
  5
230
330
1F
100
AcDbEntity
  8
0
100
AcDbLine
 10
-282.8109471441232
 20
102.9596688162305
 30
0.0
 11
-282.8109471441232
 21
102.8912093175107
 31
0.0
  0
LINE
  5
231
330
1F
100
AcDbEntity
  8
0
100
AcDbLine
 10
-132.7326650492195
 20
102.8912093175103
 30
0.0
 11
-147.8117507804915
 21
102.8912093175104
 31
0.0
  0
LINE
  5
232
330
1F
100
AcDbEntity
  8
0
100
AcDbLine
 10
-147.8117507804915
 20
102.8912093175104
 30
0.0
 11
-152.7326650492195
 21
102.8912093175104
 31
0.0
  0
LINE
  5
233
330
1F
100
AcDbEntity
  8
0
100
AcDbLine
 10
-132.7326650492195
 20
105.304294738047
 30
0.0
 11
-132.7326650492195
 21
102.9596688162229
 31
0.0
  0
LINE
  5
234
330
1F
100
AcDbEntity
  8
0
100
AcDbLine
 10
-132.7326650492195
 20
102.9596688162229
 30
0.0
 11
-132.7326650492195
 21
102.8912093175103
 31
0.0
  0
LINE
  5
235
330
1F
100
AcDbEntity
  8
0
100
AcDbLine
 10
-105.8410509839446
 20
-38.88354292381647
 30
0.0
 11
-105.7028658881123
 21
-38.58204816928597
 31
0.0
  0
LINE
  5
236
330
1F
100
AcDbEntity
  8
0
100
AcDbLine
 10
-105.7028658881123
 20
-38.58204816928597
 30
0.0
 11
-104.8356275766203
 21
-36.68989185338364
 31
0.0
  0
LINE
  5
237
330
1F
100
AcDbEntity
  8
0
100
AcDbLine
 10
-90.84185462030689
 20
-204.7320509406235
 30
0.0
 11
-90.70366952448026
 21
-204.4305561861055
 31
0.0
  0
LINE
  5
238
330
1F
100
AcDbEntity
  8
0
100
AcDbLine
 10
-90.70366952448026
 20
-204.4305561861055
 30
0.0
 11
-89.83643121298253
 21
-202.5383998701907
 31
0.0
  0
LINE
  5
239
330
1F
100
AcDbEntity
  8
0
100
AcDbLine
 10
-324.781646940663
 20
-90.06557894244061
 30
0.0
 11
-324.9198320364949
 21
-90.36707369696992
 31
0.0
  0
LINE
  5
23A
330
1F
100
AcDbEntity
  8
0
100
AcDbLine
 10
-324.9198320364949
 20
-90.36707369696992
 30
0.0
 11
-325.7870703479875
 21
-92.25923001287339
 31
0.0
  0
LINE
  5
23B
330
1F
100
AcDbEntity
  8
0
100
AcDbLine
 10
-80.00211715760994
 20
-208.5730925861705
 30
0.0
 11
-32.81175078049109
 21
-226.8403311837822
 31
0.0
  0
LINE
  5
23C
330
1F
100
AcDbEntity
  8
0
100
AcDbLine
 10
-90.84185462030707
 20
130.0679490593764
 30
0.0
 11
-90.70366952448045
 21
130.3694438138944
 31
0.0
  0
LINE
  5
23D
330
1F
100
AcDbEntity
  8
0
100
AcDbLine
 10
-90.70366952448045
 20
130.3694438138944
 30
0.0
 11
-89.83643121298272
 21
132.2616001298093
 31
0.0
  0
LINE
  5
23E
330
1F
100
AcDbEntity
  8
0
100
AcDbLine
 10
-147.8117507804915
 20
102.9596688162236
 30
0.0
 11
-132.7326650492195
 21
102.9596688162229
 31
0.0
  0
LINE
  5
23F
330
1F
100
AcDbEntity
  8
0
100
AcDbLine
 10
-132.7326650492195
 20
102.9596688162229
 30
0.0
 11
-127.8117507804915
 21
102.9596688162226
 31
0.0
  0
LINE
  5
240
330
1F
100
AcDbEntity
  8
0
100
AcDbLine
 10
-147.8117507804916
 20
100.546583395687
 30
0.0
 11
-147.8117507804915
 21
102.8912093175104
 31
0.0
  0
LINE
  5
241
330
1F
100
AcDbEntity
  8
0
100
AcDbLine
 10
-147.8117507804915
 20
102.8912093175104
 30
0.0
 11
-147.8117507804915
 21
102.9596688162236
 31
0.0
  0
LINE
  5
242
330
1F
100
AcDbEntity
  8
0
100
AcDbLine
 10
-297.8900328753951
 20
102.9596688162313
 30
0.0
 11
-282.8109471441232
 21
102.9596688162305
 31
0.0
  0
LINE
  5
243
330
1F
100
AcDbEntity
  8
0
100
AcDbLine
 10
-282.8109471441232
 20
102.9596688162305
 30
0.0
 11
-277.8900328753951
 21
102.9596688162303
 31
0.0
  0
LINE
  5
244
330
1F
100
AcDbEntity
  8
0
100
AcDbLine
 10
-297.8900328753953
 20
100.5465833956946
 30
0.0
 11
-297.8900328753951
 21
102.8912093175107
 31
0.0
  0
LINE
  5
245
330
1F
100
AcDbEntity
  8
0
100
AcDbLine
 10
-297.8900328753951
 20
102.8912093175107
 30
0.0
 11
-297.8900328753951
 21
102.9596688162313
 31
0.0
  0
LINE
  5
246
330
1F
100
AcDbEntity
  8
0
100
AcDbLine
 10
-324.7816469406632
 20
244.7344210575594
 30
0.0
 11
-324.919832036495
 21
244.43292630303
 31
0.0
  0
LINE
  5
247
330
1F
100
AcDbEntity
  8
0
100
AcDbLine
 10
-324.919832036495
 20
244.43292630303
 30
0.0
 11
-325.7870703479877
 21
242.5407699871266
 31
0.0
  0
LINE
  5
248
330
1F
100
AcDbEntity
  8
0
100
AcDbLine
 10
-105.7028658881123
 20
-38.58204816928597
 30
0.0
 11
-95.00131352124768
 21
-42.7245845693634
 31
0.0
  0
LINE
  5
249
330
1F
100
AcDbEntity
  8
0
100
AcDbLine
 10
-334.8415499415911
 20
73.51595878749848
 30
0.0
 11
-345.5431023084503
 21
77.65849518758758
 31
0.0
  0
LINE
  5
24A
330
1F
100
AcDbEntity
  8
0
100
AcDbLine
 10
-345.5431023084503
 20
77.65849518758758
 30
0.0
 11
-397.8109471441231
 21
97.89120931751107
 31
0.0
  0
LINE
  5
24B
330
1F
100
AcDbEntity
  8
0
100
AcDbLine
 10
-324.9198320364949
 20
-90.36707369696992
 30
0.0
 11
-335.6213844033597
 21
-86.22453729689316
 31
0.0
  0
LINE
  5
24C
330
1F
100
AcDbEntity
  8
0
100
AcDbLine
 10
-335.6213844033597
 20
-86.22453729689316
 30
0.0
 11
-382.8117507804854
 21
-67.957298699296
 31
0.0
  0
LINE
  5
24D
330
1F
100
AcDbEntity
  8
0
100
AcDbLine
 10
-90.70366952448026
 20
-204.4305561861055
 30
0.0
 11
-80.00211715760994
 21
-208.5730925861705
 31
0.0
  0
LINE
  5
24E
330
1F
100
AcDbEntity
  8
0
100
AcDbLine
 10
-324.919832036495
 20
244.43292630303
 30
0.0
 11
-335.6213844033599
 21
248.5754627031068
 31
0.0
  0
LINE
  5
24F
330
1F
100
AcDbEntity
  8
0
100
AcDbLine
 10
-335.6213844033599
 20
248.5754627031068
 30
0.0
 11
-382.8117507804856
 21
266.842701300704
 31
0.0
  0
LINE
  5
250
330
1F
100
AcDbEntity
  8
0
100
AcDbLine
 10
-90.70366952448045
 20
130.3694438138944
 30
0.0
 11
-80.00211715761012
 21
126.2269074138295
 31
0.0
  0
LINE
  5
251
330
1F
100
AcDbEntity
  8
0
100
AcDbLine
 10
-80.00211715761012
 20
126.2269074138295
 30
0.0
 11
-32.81175078049127
 21
107.9596688162178
 31
0.0
  0
LINE
  5
252
330
1F
100
AcDbEntity
  8
0
100
AcDbLine
 10
-409.8390547567516
 20
-296.6471759968169
 30
0.0
 11
490.1609452432487
 21
-296.6471759968169
 31
0.0
  0
LINE
  5
253
330
1F
100
AcDbEntity
  8
0
100
AcDbLine
 10
-356.5344453225247
 20
-55.35534542539889
 30
0.0
 11
-352.7334686855817
 21
-62.95729869928576
 31
0.0
  0
LINE
  5
254
330
1F
100
AcDbEntity
  8
0
100
AcDbLine
 10
-157.7334686855819
 20
-67.95729869929559
 30
0.0
 11
-267.8117507804855
 21
-67.9572986992963
 31
0.0
  0
LINE
  5
255
330
1F
100
AcDbEntity
  8
0
100
AcDbLine
 10
-307.8117507804856
 20
-67.95729869928799
 30
0.0
 11
-382.8117507804854
 21
-67.957298699296
 31
0.0
  0
LINE
  5
256
330
1F
100
AcDbEntity
  8
0
100
AcDbLine
 10
-347.4889827628498
 20
55.01257771772328
 30
0.0
 11
-105.7028658881123
 21
-38.58204816928597
 31
0.0
  0
LINE
  5
257
330
1F
100
AcDbEntity
  8
0
100
AcDbLine
 10
-84.00997050717976
 20
90.2892560436236
 30
0.0
 11
-87.81094714412305
 21
97.89120931751027
 31
0.0
  0
LINE
  5
258
330
1F
100
AcDbEntity
  8
0
100
AcDbLine
 10
-93.05543306684936
 20
-20.078667099499
 30
0.0
 11
-334.8415499415911
 21
73.51595878749848
 31
0.0
  0
LINE
  5
259
330
1F
100
AcDbEntity
  8
0
100
AcDbLine
 10
-69.01077414354202
 20
-75.55925197318348
 30
0.0
 11
-72.81175078048531
 21
-67.95729869929679
 31
0.0
  0
LINE
  5
25A
330
1F
100
AcDbEntity
  8
0
100
AcDbLine
 10
-267.8117507804855
 20
-62.95729869929635
 30
0.0
 11
-157.7334686855816
 21
-62.95729869929564
 31
0.0
  0
LINE
  5
25B
330
1F
100
AcDbEntity
  8
0
100
AcDbLine
 10
-117.7334686855818
 20
-62.95729869929674
 30
0.0
 11
-42.73346868558171
 21
-62.95729869930147
 31
0.0
  0
LINE
  5
25C
330
1F
100
AcDbEntity
  8
0
100
AcDbLine
 10
-78.05623670321164
 20
-185.9271751163061
 30
0.0
 11
-324.9198320364949
 21
-90.36707369696992
 31
0.0
  0
LINE
  5
25D
330
1F
100
AcDbEntity
  8
0
100
AcDbLine
 10
-346.6127274174341
 20
-219.2383779098796
 30
0.0
 11
-342.8117507804911
 21
-226.8403311837665
 31
0.0
  0
LINE
  5
25E
330
1F
100
AcDbEntity
  8
0
100
AcDbLine
 10
-337.5672648577592
 20
-108.8704547667574
 30
0.0
 11
-90.70366952448026
 21
-204.4305561861055
 31
0.0
  0
LINE
  5
25F
330
1F
100
AcDbEntity
  8
0
100
AcDbLine
 10
-69.0107741435422
 20
259.2407480268165
 30
0.0
 11
-72.8117507804855
 21
266.8427013007031
 31
0.0
  0
LINE
  5
260
330
1F
100
AcDbEntity
  8
0
100
AcDbLine
 10
-78.05623670321181
 20
148.8728248836939
 30
0.0
 11
-324.919832036495
 21
244.43292630303
 31
0.0
  0
LINE
  5
261
330
1F
100
AcDbEntity
  8
0
100
AcDbLine
 10
-346.6127274174343
 20
115.5616220901204
 30
0.0
 11
-342.8117507804913
 21
107.9596688162335
 31
0.0
  0
LINE
  5
262
330
1F
100
AcDbEntity
  8
0
100
AcDbLine
 10
-337.5672648577594
 20
225.9295452332425
 30
0.0
 11
-90.70366952448045
 21
130.3694438138944
 31
0.0
  0
LINE
  5
263
330
1F
100
AcDbEntity
  8
0
100
AcDbLine
 10
-368.9941862735784
 20
45.90950918496278
 30
0.0
 11
-368.8844746004155
 21
46.16550308902043
 31
0.0
  0
LINE
  5
264
330
1F
100
AcDbEntity
  8
0
100
AcDbLine
 10
-368.9941862735784
 20
46.60434978173699
 30
0.0
 11
-368.9941862735784
 21
45.90950918496278
 31
0.0
  0
LINE
  5
265
330
1F
100
AcDbEntity
  8
0
100
AcDbLine
 10
-368.8844746004155
 20
46.16550308902043
 30
0.0
 11
-368.9941862735784
 21
46.60434978173699
 31
0.0
  0
LINE
  5
266
330
1F
100
AcDbEntity
  8
0
100
AcDbLine
 10
-71.55022955612117
 20
-10.97559856673748
 30
0.0
 11
-71.65994122928406
 21
-11.23159247079513
 31
0.0
  0
LINE
  5
267
330
1F
100
AcDbEntity
  8
0
100
AcDbLine
 10
-71.55022955612117
 20
-11.6704391635117
 30
0.0
 11
-71.55022955612117
 21
-10.97559856673748
 31
0.0
  0
LINE
  5
268
330
1F
100
AcDbEntity
  8
0
100
AcDbLine
 10
-71.65994122928406
 20
-11.23159247079513
 30
0.0
 11
-71.55022955612117
 21
-11.6704391635117
 31
0.0
  0
LINE
  5
269
330
1F
100
AcDbEntity
  8
0
100
AcDbLine
 10
-56.55103319248343
 20
-176.8241065835446
 30
0.0
 11
-56.66074486564633
 21
-177.0801004876022
 31
0.0
  0
LINE
  5
26A
330
1F
100
AcDbEntity
  8
0
100
AcDbLine
 10
-56.55103319248343
 20
-177.5189471803188
 30
0.0
 11
-56.55103319248343
 21
-176.8241065835446
 31
0.0
  0
LINE
  5
26B
330
1F
100
AcDbEntity
  8
0
100
AcDbLine
 10
-56.66074486564633
 20
-177.0801004876022
 30
0.0
 11
-56.55103319248343
 21
-177.5189471803188
 31
0.0
  0
LINE
  5
26C
330
1F
100
AcDbEntity
  8
0
100
AcDbLine
 10
-359.0724683684878
 20
-117.973523299518
 30
0.0
 11
-358.9627566953249
 21
-117.7175293954603
 31
0.0
  0
LINE
  5
26D
330
1F
100
AcDbEntity
  8
0
100
AcDbLine
 10
-359.0724683684878
 20
-117.2786827027437
 30
0.0
 11
-359.0724683684878
 21
-117.973523299518
 31
0.0
  0
LINE
  5
26E
330
1F
100
AcDbEntity
  8
0
100
AcDbLine
 10
-358.9627566953249
 20
-117.7175293954603
 30
0.0
 11
-359.0724683684878
 21
-117.2786827027437
 31
0.0
  0
LINE
  5
26F
330
1F
100
AcDbEntity
  8
0
100
AcDbLine
 10
-56.55103319248362
 20
157.9758934164554
 30
0.0
 11
-56.66074486564651
 21
157.7198995123978
 31
0.0
  0
LINE
  5
270
330
1F
100
AcDbEntity
  8
0
100
AcDbLine
 10
-56.55103319248362
 20
157.2810528196812
 30
0.0
 11
-56.55103319248362
 21
157.9758934164554
 31
0.0
  0
LINE
  5
271
330
1F
100
AcDbEntity
  8
0
100
AcDbLine
 10
-56.66074486564651
 20
157.7198995123978
 30
0.0
 11
-56.55103319248362
 21
157.2810528196812
 31
0.0
  0
LINE
  5
272
330
1F
100
AcDbEntity
  8
0
100
AcDbLine
 10
-359.072468368488
 20
216.826476700482
 30
0.0
 11
-358.9627566953251
 21
217.0824706045397
 31
0.0
  0
LINE
  5
273
330
1F
100
AcDbEntity
  8
0
100
AcDbLine
 10
-359.0724683684879
 20
217.5213172972562
 30
0.0
 11
-359.072468368488
 21
216.826476700482
 31
0.0
  0
LINE
  5
274
330
1F
100
AcDbEntity
  8
0
100
AcDbLine
 10
-358.9627566953251
 20
217.0824706045397
 30
0.0
 11
-359.0724683684879
 21
217.5213172972562
 31
0.0
  0
ENDSEC
  0
SECTION
  2
OBJECTS
  0
DICTIONARY
  5
C
330
0
100
AcDbDictionary
281
     1
  3
ACAD_GROUP
350
D
  3
ACAD_LAYOUT
350
1A
  3
ACAD_MLEADERSTYLE
350
276
  3
ACAD_MLINESTYLE
350
17
  3
ACAD_PLOTSETTINGS
350
19
  3
ACAD_PLOTSTYLENAME
350
E
  3
ACAD_SCALELIST
350
3B
  3
ACAD_TABLESTYLE
350
275
  3
ACAD_VISUALSTYLE
350
2A
  0
DICTIONARY
  5
D
102
{ACAD_REACTORS
330
C
102
}
330
C
100
AcDbDictionary
281
     1
  0
DICTIONARY
  5
1A
102
{ACAD_REACTORS
330
C
102
}
330
C
100
AcDbDictionary
281
     1
  3
Layout1
350
1E
  3
Layout2
350
26
  3
Model
350
22
  0
DICTIONARY
  5
276
102
{ACAD_REACTORS
330
C
102
}
330
C
100
AcDbDictionary
281
     1
  0
DICTIONARY
  5
17
102
{ACAD_REACTORS
330
C
102
}
330
C
100
AcDbDictionary
281
     1
  3
Standard
350
18
  0
DICTIONARY
  5
19
102
{ACAD_REACTORS
330
C
102
}
330
C
100
AcDbDictionary
281
     1
  0
ACDBDICTIONARYWDFLT
  5
E
102
{ACAD_REACTORS
330
C
102
}
330
C
100
AcDbDictionary
281
     1
  3
Normal
350
F
100
AcDbDictionaryWithDefault
340
F
  0
DICTIONARY
  5
3B
102
{ACAD_REACTORS
330
C
102
}
330
C
100
AcDbDictionary
281
     1
  3
A0
350
3C
  3
A1
350
3D
  3
A2
350
3E
  3
A3
350
3F
  3
A4
350
40
  3
A5
350
41
  3
A6
350
42
  3
A7
350
43
  3
A8
350
44
  3
A9
350
45
  3
B0
350
46
  3
B1
350
47
  3
B2
350
48
  3
B3
350
49
  3
B4
350
4A
  3
B5
350
4B
  3
B6
350
4C
  3
B7
350
4D
  3
B8
350
4E
  3
B9
350
4F
  3
C0
350
50
  3
C1
350
51
  3
C2
350
52
  3
C3
350
53
  3
C4
350
54
  3
C5
350
55
  3
C6
350
56
  3
C7
350
57
  3
C8
350
58
  3
C9
350
59
  3
D0
350
5A
  3
D1
350
5B
  3
D2
350
5C
  0
DICTIONARY
  5
275
102
{ACAD_REACTORS
330
C
102
}
330
C
100
AcDbDictionary
281
     1
  0
DICTIONARY
  5
2A
102
{ACAD_REACTORS
330
C
102
}
330
C
100
AcDbDictionary
281
     1
  3
2dWireframe
350
2F
  3
3D Hidden
350
31
  3
3dWireframe
350
30
  3
Basic
350
32
  3
Brighten
350
36
  3
ColorChange
350
3A
  3
Conceptual
350
34
  3
Dim
350
35
  3
Facepattern
350
39
  3
Flat
350
2B
  3
FlatWithEdges
350
2C
  3
Gouraud
350
2D
  3
GouraudWithEdges
350
2E
  3
Linepattern
350
38
  3
Realistic
350
33
  3
Thicken
350
37
  0
LAYOUT
  5
1E
102
{ACAD_REACTORS
330
1A
102
}
330
1A
100
AcDbPlotSettings
  1

  2
none_device
  4

  6

 40
0.0
 41
0.0
 42
0.0
 43
0.0
 44
0.0
 45
0.0
 46
0.0
 47
0.0
 48
0.0
 49
0.0
140
0.0
141
0.0
142
1.0
143
1.0
 70
   688
 72
     0
 73
     0
 74
     5
  7

 75
    16
 76
     0
 77
     2
 78
   300
147
1.0
148
0.0
149
0.0
100
AcDbLayout
  1
Layout1
 70
     1
 71
     1
 10
0.0
 20
0.0
 11
12.0
 21
9.0
 12
0.0
 22
0.0
 32
0.0
 14
1.000000000000000E+20
 24
1.000000000000000E+20
 34
1.000000000000000E+20
 15
-1.000000000000000E+20
 25
-1.000000000000000E+20
 35
-1.000000000000000E+20
146
0.0
 13
0.0
 23
0.0
 33
0.0
 16
1.0
 26
0.0
 36
0.0
 17
0.0
 27
1.0
 37
0.0
 76
     0
330
1B
  0
LAYOUT
  5
26
102
{ACAD_REACTORS
330
1A
102
}
330
1A
100
AcDbPlotSettings
  1

  2
none_device
  4

  6

 40
0.0
 41
0.0
 42
0.0
 43
0.0
 44
0.0
 45
0.0
 46
0.0
 47
0.0
 48
0.0
 49
0.0
140
0.0
141
0.0
142
1.0
143
1.0
 70
   688
 72
     0
 73
     0
 74
     5
  7

 75
    16
 76
     0
 77
     2
 78
   300
147
1.0
148
0.0
149
0.0
100
AcDbLayout
  1
Layout2
 70
     1
 71
     2
 10
0.0
 20
0.0
 11
0.0
 21
0.0
 12
0.0
 22
0.0
 32
0.0
 14
0.0
 24
0.0
 34
0.0
 15
0.0
 25
0.0
 35
0.0
146
0.0
 13
0.0
 23
0.0
 33
0.0
 16
1.0
 26
0.0
 36
0.0
 17
0.0
 27
1.0
 37
0.0
 76
     0
330
23
  0
LAYOUT
  5
22
102
{ACAD_REACTORS
330
1A
102
}
330
1A
100
AcDbPlotSettings
  1

  2
none_device
  4

  6

 40
0.0
 41
0.0
 42
0.0
 43
0.0
 44
0.0
 45
0.0
 46
0.0
 47
0.0
 48
0.0
 49
0.0
140
0.0
141
0.0
142
1.0
143
1.0
 70
  1712
 72
     0
 73
     0
 74
     0
  7

 75
     0
 76
     0
 77
     2
 78
   300
147
1.0
148
0.0
149
0.0
100
AcDbLayout
  1
Model
 70
     1
 71
     0
 10
0.0
 20
0.0
 11
12.0
 21
9.0
 12
0.0
 22
0.0
 32
0.0
 14
1.000000000000000E+20
 24
1.000000000000000E+20
 34
1.000000000000000E+20
 15
-1.000000000000000E+20
 25
-1.000000000000000E+20
 35
-1.000000000000000E+20
146
0.0
 13
0.0
 23
0.0
 33
0.0
 16
1.0
 26
0.0
 36
0.0
 17
0.0
 27
1.0
 37
0.0
 76
     0
330
1F
331
29
  0
MLINESTYLE
  5
18
102
{ACAD_REACTORS
330
17
102
}
330
17
100
AcDbMlineStyle
  2
Standard
 70
     0
  3

 62
   256
 51
90.0
 52
90.0
 71
     2
 49
0.5
 62
   256
  6
BYLAYER
 49
-0.5
 62
   256
  6
BYLAYER
  0
ACDBPLACEHOLDER
  5
F
102
{ACAD_REACTORS
330
E
102
}
330
E
  0
SCALE
  5
3C
102
{ACAD_REACTORS
330
3B
102
}
330
3B
100
AcDbScale
 70
     0
300
1:1
140
1.0
141
1.0
290
     1
  0
SCALE
  5
3D
102
{ACAD_REACTORS
330
3B
102
}
330
3B
100
AcDbScale
 70
     0
300
1:2
140
1.0
141
2.0
290
     0
  0
SCALE
  5
3E
102
{ACAD_REACTORS
330
3B
102
}
330
3B
100
AcDbScale
 70
     0
300
1:4
140
1.0
141
4.0
290
     0
  0
SCALE
  5
3F
102
{ACAD_REACTORS
330
3B
102
}
330
3B
100
AcDbScale
 70
     0
300
1:5
140
1.0
141
5.0
290
     0
  0
SCALE
  5
40
102
{ACAD_REACTORS
330
3B
102
}
330
3B
100
AcDbScale
 70
     0
300
1:8
140
1.0
141
8.0
290
     0
  0
SCALE
  5
41
102
{ACAD_REACTORS
330
3B
102
}
330
3B
100
AcDbScale
 70
     0
300
1:10
140
1.0
141
10.0
290
     0
  0
SCALE
  5
42
102
{ACAD_REACTORS
330
3B
102
}
330
3B
100
AcDbScale
 70
     0
300
1:16
140
1.0
141
16.0
290
     0
  0
SCALE
  5
43
102
{ACAD_REACTORS
330
3B
102
}
330
3B
100
AcDbScale
 70
     0
300
1:20
140
1.0
141
20.0
290
     0
  0
SCALE
  5
44
102
{ACAD_REACTORS
330
3B
102
}
330
3B
100
AcDbScale
 70
     0
300
1:30
140
1.0
141
30.0
290
     0
  0
SCALE
  5
45
102
{ACAD_REACTORS
330
3B
102
}
330
3B
100
AcDbScale
 70
     0
300
1:40
140
1.0
141
40.0
290
     0
  0
SCALE
  5
46
102
{ACAD_REACTORS
330
3B
102
}
330
3B
100
AcDbScale
 70
     0
300
1:50
140
1.0
141
50.0
290
     0
  0
SCALE
  5
47
102
{ACAD_REACTORS
330
3B
102
}
330
3B
100
AcDbScale
 70
     0
300
1:100
140
1.0
141
100.0
290
     0
  0
SCALE
  5
48
102
{ACAD_REACTORS
330
3B
102
}
330
3B
100
AcDbScale
 70
     0
300
2:1
140
2.0
141
1.0
290
     0
  0
SCALE
  5
49
102
{ACAD_REACTORS
330
3B
102
}
330
3B
100
AcDbScale
 70
     0
300
4:1
140
4.0
141
1.0
290
     0
  0
SCALE
  5
4A
102
{ACAD_REACTORS
330
3B
102
}
330
3B
100
AcDbScale
 70
     0
300
8:1
140
8.0
141
1.0
290
     0
  0
SCALE
  5
4B
102
{ACAD_REACTORS
330
3B
102
}
330
3B
100
AcDbScale
 70
     0
300
10:1
140
10.0
141
1.0
290
     0
  0
SCALE
  5
4C
102
{ACAD_REACTORS
330
3B
102
}
330
3B
100
AcDbScale
 70
     0
300
100:1
140
100.0
141
1.0
290
     0
  0
SCALE
  5
4D
102
{ACAD_REACTORS
330
3B
102
}
330
3B
100
AcDbScale
 70
     0
300
1/128" = 1'-0"
140
0.0078125
141
12.0
290
     0
  0
SCALE
  5
4E
102
{ACAD_REACTORS
330
3B
102
}
330
3B
100
AcDbScale
 70
     0
300
1/64" = 1'-0"
140
0.015625
141
12.0
290
     0
  0
SCALE
  5
4F
102
{ACAD_REACTORS
330
3B
102
}
330
3B
100
AcDbScale
 70
     0
300
1/32" = 1'-0"
140
0.03125
141
12.0
290
     0
  0
SCALE
  5
50
102
{ACAD_REACTORS
330
3B
102
}
330
3B
100
AcDbScale
 70
     0
300
1/16" = 1'-0"
140
0.0625
141
12.0
290
     0
  0
SCALE
  5
51
102
{ACAD_REACTORS
330
3B
102
}
330
3B
100
AcDbScale
 70
     0
300
3/32" = 1'-0"
140
0.09375
141
12.0
290
     0
  0
SCALE
  5
52
102
{ACAD_REACTORS
330
3B
102
}
330
3B
100
AcDbScale
 70
     0
300
1/8" = 1'-0"
140
0.125
141
12.0
290
     0
  0
SCALE
  5
53
102
{ACAD_REACTORS
330
3B
102
}
330
3B
100
AcDbScale
 70
     0
300
3/16" = 1'-0"
140
0.1875
141
12.0
290
     0
  0
SCALE
  5
54
102
{ACAD_REACTORS
330
3B
102
}
330
3B
100
AcDbScale
 70
     0
300
1/4" = 1'-0"
140
0.25
141
12.0
290
     0
  0
SCALE
  5
55
102
{ACAD_REACTORS
330
3B
102
}
330
3B
100
AcDbScale
 70
     0
300
3/8" = 1'-0"
140
0.375
141
12.0
290
     0
  0
SCALE
  5
56
102
{ACAD_REACTORS
330
3B
102
}
330
3B
100
AcDbScale
 70
     0
300
1/2" = 1'-0"
140
0.5
141
12.0
290
     0
  0
SCALE
  5
57
102
{ACAD_REACTORS
330
3B
102
}
330
3B
100
AcDbScale
 70
     0
300
3/4" = 1'-0"
140
0.75
141
12.0
290
     0
  0
SCALE
  5
58
102
{ACAD_REACTORS
330
3B
102
}
330
3B
100
AcDbScale
 70
     0
300
1" = 1'-0"
140
1.0
141
12.0
290
     0
  0
SCALE
  5
59
102
{ACAD_REACTORS
330
3B
102
}
330
3B
100
AcDbScale
 70
     0
300
1-1/2" = 1'-0"
140
1.5
141
12.0
290
     0
  0
SCALE
  5
5A
102
{ACAD_REACTORS
330
3B
102
}
330
3B
100
AcDbScale
 70
     0
300
3" = 1'-0"
140
3.0
141
12.0
290
     0
  0
SCALE
  5
5B
102
{ACAD_REACTORS
330
3B
102
}
330
3B
100
AcDbScale
 70
     0
300
6" = 1'-0"
140
6.0
141
12.0
290
     0
  0
SCALE
  5
5C
102
{ACAD_REACTORS
330
3B
102
}
330
3B
100
AcDbScale
 70
     0
300
1'-0" = 1'-0"
140
12.0
141
12.0
290
     0
  0
VISUALSTYLE
  5
2F
102
{ACAD_REACTORS
330
2A
102
}
330
2A
100
AcDbVisualStyle
  2
2dWireframe
 70
     4
 71
     0
 72
     2
 73
     0
 90
        0
 40
-0.6
 41
-30.0
 62
     5
 63
     7
421
 16777215
 74
     1
 91
        4
 64
     7
 65
   257
 75
     1
175
     1
 42
1.0
 92
        0
 66
   257
 43
1.0
 76
     1
 77
     6
 78
     2
 67
     7
 79
     5
170
     0
171
     0
290
     0
174
     0
 93
        1
 44
0.0
173
     0
291
     0
 45
0.0
  0
VISUALSTYLE
  5
31
102
{ACAD_REACTORS
330
2A
102
}
330
2A
100
AcDbVisualStyle
  2
3D Hidden
 70
     6
 71
     1
 72
     2
 73
     2
 90
        0
 40
-0.6
 41
-30.0
 62
     5
 63
     7
421
 16777215
 74
     2
 91
        2
 64
     7
 65
   257
 75
     2
175
     1
 42
40.0
 92
        0
 66
   257
 43
1.0
 76
     1
 77
     6
 78
     2
 67
     7
 79
     3
170
     0
171
     0
290
     0
174
     0
 93
        1
 44
0.0
173
     0
291
     0
 45
0.0
  0
VISUALSTYLE
  5
30
102
{ACAD_REACTORS
330
2A
102
}
330
2A
100
AcDbVisualStyle
  2
3dWireframe
 70
     5
 71
     0
 72
     2
 73
     0
 90
        0
 40
-0.6
 41
-30.0
 62
     5
 63
     7
421
 16777215
 74
     1
 91
        4
 64
     7
 65
   257
 75
     1
175
     1
 42
1.0
 92
        0
 66
   257
 43
1.0
 76
     1
 77
     6
 78
     2
 67
     7
 79
     5
170
     0
171
     0
290
     0
174
     0
 93
        1
 44
0.0
173
     0
291
     0
 45
0.0
  0
VISUALSTYLE
  5
32
102
{ACAD_REACTORS
330
2A
102
}
330
2A
100
AcDbVisualStyle
  2
Basic
 70
     7
 71
     1
 72
     0
 73
     1
 90
        0
 40
-0.6
 41
-30.0
 62
     5
 63
     7
421
 16777215
 74
     0
 91
        4
 64
     7
 65
   257
 75
     1
175
     1
 42
1.0
 92
        8
 66
     7
 43
1.0
 76
     1
 77
     6
 78
     2
 67
     7
 79
     5
170
     0
171
     0
290
     0
174
     0
 93
        1
 44
0.0
173
     0
291
     1
 45
0.0
  0
VISUALSTYLE
  5
36
102
{ACAD_REACTORS
330
2A
102
}
330
2A
100
AcDbVisualStyle
  2
Brighten
 70
    12
 71
     2
 72
     2
 73
     0
 90
        0
 40
-0.6
 41
-30.0
 62
     5
 63
     7
421
 16777215
 74
     1
 91
        4
 64
     7
 65
   257
 75
     1
175
     1
 42
1.0
 92
        8
 66
     7
 43
1.0
 76
     1
 77
     6
 78
     2
 67
     7
 79
     5
170
     0
171
     0
290
     0
174
     0
 93
        1
 44
50.0
173
     0
291
     1
 45
0.0
  0
VISUALSTYLE
  5
3A
102
{ACAD_REACTORS
330
2A
102
}
330
2A
100
AcDbVisualStyle
  2
ColorChange
 70
    16
 71
     2
 72
     2
 73
     3
 90
        0
 40
-0.6
 41
-30.0
 62
     5
 63
     8
421
  8421504
 74
     1
 91
        4
 64
     7
 65
   257
 75
     1
175
     1
 42
1.0
 92
        8
 66
     8
424
  8421504
 43
1.0
 76
     1
 77
     6
 78
     2
 67
     7
 79
     5
170
     0
171
     0
290
     0
174
     0
 93
        1
 44
0.0
173
     0
291
     1
 45
0.0
  0
VISUALSTYLE
  5
34
102
{ACAD_REACTORS
330
2A
102
}
330
2A
100
AcDbVisualStyle
  2
Conceptual
 70
     9
 71
     3
 72
     2
 73
     0
 90
        0
 40
-0.6
 41
-30.0
 62
     5
 63
     7
421
 16777215
 74
     2
 91
        2
 64
     7
 65
   257
 75
     1
175
     1
 42
40.0
 92
        8
 66
     7
 43
1.0
 76
     1
 77
     6
 78
     2
 67
     7
 79
     3
170
     0
171
     0
290
     0
174
     0
 93
        1
 44
0.0
173
     0
291
     0
 45
0.0
  0
VISUALSTYLE
  5
35
102
{ACAD_REACTORS
330
2A
102
}
330
2A
100
AcDbVisualStyle
  2
Dim
 70
    11
 71
     2
 72
     2
 73
     0
 90
        0
 40
-0.6
 41
-30.0
 62
     5
 63
     7
421
 16777215
 74
     1
 91
        4
 64
     7
 65
   257
 75
     1
175
     1
 42
1.0
 92
        8
 66
     7
 43
1.0
 76
     1
 77
     6
 78
     2
 67
     7
 79
     5
170
     0
171
     0
290
     0
174
     0
 93
        1
 44
-50.0
173
     0
291
     1
 45
0.0
  0
VISUALSTYLE
  5
39
102
{ACAD_REACTORS
330
2A
102
}
330
2A
100
AcDbVisualStyle
  2
Facepattern
 70
    15
 71
     2
 72
     2
 73
     0
 90
        0
 40
-0.6
 41
-30.0
 62
     5
 63
     7
421
 16777215
 74
     1
 91
        4
 64
     7
 65
   257
 75
     1
175
     1
 42
1.0
 92
        8
 66
     7
 43
1.0
 76
     1
 77
     6
 78
     2
 67
     7
 79
     5
170
     0
171
     0
290
     0
174
     0
 93
        1
 44
0.0
173
     0
291
     1
 45
0.0
  0
VISUALSTYLE
  5
2B
102
{ACAD_REACTORS
330
2A
102
}
330
2A
100
AcDbVisualStyle
  2
Flat
 70
     0
 71
     2
 72
     1
 73
     1
 90
        2
 40
-0.6
 41
30.0
 62
     5
 63
     7
421
 16777215
 74
     0
 91
        4
 64
     7
 65
   257
 75
     1
175
     1
 42
1.0
 92
        8
 66
     7
 43
1.0
 76
     1
 77
     6
 78
     2
 67
     7
 79
     5
170
     0
171
     0
290
     0
174
     0
 93
       13
 44
0.0
173
     0
291
     1
 45
0.0
  0
VISUALSTYLE
  5
2C
102
{ACAD_REACTORS
330
2A
102
}
330
2A
100
AcDbVisualStyle
  2
FlatWithEdges
 70
     1
 71
     2
 72
     1
 73
     1
 90
        2
 40
-0.6
 41
30.0
 62
     5
 63
     7
421
 16777215
 74
     1
 91
        4
 64
     7
 65
   257
 75
     1
175
     1
 42
1.0
 92
        0
 66
   257
 43
1.0
 76
     1
 77
     6
 78
     2
 67
     7
 79
     5
170
     0
171
     0
290
     0
174
     0
 93
       13
 44
0.0
173
     0
291
     1
 45
0.0
  0
VISUALSTYLE
  5
2D
102
{ACAD_REACTORS
330
2A
102
}
330
2A
100
AcDbVisualStyle
  2
Gouraud
 70
     2
 71
     2
 72
     2
 73
     1
 90
        2
 40
-0.6
 41
30.0
 62
     5
 63
     7
421
 16777215
 74
     0
 91
        4
 64
     7
 65
   257
 75
     1
175
     1
 42
1.0
 92
        0
 66
     7
 43
1.0
 76
     1
 77
     6
 78
     2
 67
     7
 79
     5
170
     0
171
     0
290
     0
174
     0
 93
       13
 44
0.0
173
     0
291
     1
 45
0.0
  0
VISUALSTYLE
  5
2E
102
{ACAD_REACTORS
330
2A
102
}
330
2A
100
AcDbVisualStyle
  2
GouraudWithEdges
 70
     3
 71
     2
 72
     2
 73
     1
 90
        2
 40
-0.6
 41
30.0
 62
     5
 63
     7
421
 16777215
 74
     1
 91
        4
 64
     7
 65
   257
 75
     1
175
     1
 42
1.0
 92
        0
 66
   257
 43
1.0
 76
     1
 77
     6
 78
     2
 67
     7
 79
     5
170
     0
171
     0
290
     0
174
     0
 93
       13
 44
0.0
173
     0
291
     1
 45
0.0
  0
VISUALSTYLE
  5
38
102
{ACAD_REACTORS
330
2A
102
}
330
2A
100
AcDbVisualStyle
  2
Linepattern
 70
    14
 71
     2
 72
     2
 73
     0
 90
        0
 40
-0.6
 41
-30.0
 62
     5
 63
     7
421
 16777215
 74
     1
 91
        4
 64
     7
 65
   257
 75
     7
175
     7
 42
1.0
 92
        8
 66
     7
 43
1.0
 76
     1
 77
     6
 78
     2
 67
     7
 79
     5
170
     0
171
     0
290
     0
174
     0
 93
        1
 44
0.0
173
     0
291
     1
 45
0.0
  0
VISUALSTYLE
  5
33
102
{ACAD_REACTORS
330
2A
102
}
330
2A
100
AcDbVisualStyle
  2
Realistic
 70
     8
 71
     2
 72
     2
 73
     0
 90
        0
 40
-0.6
 41
-30.0
 62
     5
 63
     7
421
 16777215
 74
     1
 91
        0
 64
     7
 65
   257
 75
     1
175
     1
 42
1.0
 92
        8
 66
     8
424
  7895160
 43
1.0
 76
     1
 77
     6
 78
     2
 67
     7
 79
     5
170
     0
171
     0
290
     0
174
     0
 93
       13
 44
0.0
173
     0
291
     0
 45
0.0
  0
VISUALSTYLE
  5
37
102
{ACAD_REACTORS
330
2A
102
}
330
2A
100
AcDbVisualStyle
  2
Thicken
 70
    13
 71
     2
 72
     2
 73
     0
 90
        0
 40
-0.6
 41
-30.0
 62
     5
 63
     7
421
 16777215
 74
     1
 91
        4
 64
     7
 65
   257
 75
     1
175
     1
 42
1.0
 92
       12
 66
     7
 43
1.0
 76
     1
 77
     6
 78
     2
 67
     7
 79
     5
170
     0
171
     0
290
     0
174
     0
 93
        1
 44
0.0
173
     0
291
     1
 45
0.0
  0
ENDSEC
  0
EOF
