0
SECTION
2
HEADER
9
$INSUNITS
70
4
9
$ACADVER
1
AC1014
9
$HANDSEED
5
FFFF
0
ENDSEC
0
SECTION
2
TABLES
0
TABLE
2
VPORT
5
8
100
AcDbSymbolTable
0
ENDTAB
0
TABLE
2
LTYPE
5
5
100
AcDbSymbolTable
0
LTYPE
5
14
100
AcDbSymbolTableRecord
100
AcDbLinetypeTableRecord
2
BYBLOCK
70
0
0
LTYPE
5
15
100
AcDbSymbolTableRecord
100
AcDbLinetypeTableRecord
2
BYLAYER
70
0
0
ENDTAB
0
TABLE
2
LAYER
5
2
100
AcDbSymbolTable
70
2
0
LAYER
5
50
100
AcDbSymbolTableRecord
100
AcDbLayerTableRecord
2
0
70
0
6
CONTINUOUS
0
ENDTAB
0
TABLE
2
STYLE
5
3
100
AcDbSymbolTable
70
1
0
STYLE
5
11
100
AcDbSymbolTableRecord
100
AcDbTextStyleTableRecord
2
STANDARD
70
0
0
ENDTAB
0
TABLE
2
VIEW
5
6
100
AcDbSymbolTable
70
0
0
ENDTAB
0
TABLE
2
UCS
5
7
100
AcDbSymbolTable
70
0
0
ENDTAB
0
TABLE
2
APPID
5
9
100
AcDbSymbolTable
70
2
0
APPID
5
12
100
AcDbSymbolTableRecord
100
AcDbRegAppTableRecord
2
ACAD
70
0
0
ENDTAB
0
TABLE
2
DIMSTYLE
5
A
100
AcDbSymbolTable
70
1
0
ENDTAB
0
TABLE
2
BLOCK_RECORD
5
1
100
AcDbSymbolTable
70
1
0
BLOCK_RECORD
5
1F
100
AcDbSymbolTableRecord
100
AcDbBlockTableRecord
2
*MODEL_SPACE
0
BLOCK_RECORD
5
1B
100
AcDbSymbolTableRecord
100
AcDbBlockTableRecord
2
*PAPER_SPACE
0
ENDTAB
0
ENDSEC
0
SECTION
2
BLOCKS
0
BLOCK
5
20
100
AcDbEntity
100
AcDbBlockBegin
2
*MODEL_SPACE
0
ENDBLK
5
21
100
AcDbEntity
100
AcDbBlockEnd
0
BLOCK
5
1C
100
AcDbEntity
100
AcDbBlockBegin
2
*PAPER_SPACE
0
ENDBLK
5
1D
100
AcDbEntity
100
AcDbBlockEnd
0
ENDSEC
0
SECTION
2
ENTITIES
0
LWPOLYLINE
5
100
100
AcDbEntity
8
0
100
AcDbPolyline
90
8
70
1
43
0.0
10
140
20
0
10
9.9999999999999982
20
1.1102230246251565e-15
42
-0.41421356237309565
10
1.1102230246251565e-15
20
10
10
0
20
69.999999999999986
42
-0.41421356237309476
10
10
20
80
10
140
20
80.000000000000014
42
-0.41421356237309553
10
150
20
70
10
150
20
9.9999999999999964
42
-0.41421356237309515
0
LWPOLYLINE
5
101
100
AcDbEntity
8
0
100
AcDbPolyline
90
4
70
1
43
0.0
10
110.67538465153248
20
65.508189335394874
10
39.375384651532471
20
65.508189335394874
10
39.375384651532471
20
41.208189335394863
10
110.67538465153248
20
41.208189335394863
0
CIRCLE
5
102
100
AcDbEntity
8
0
100
AcDbCircle
10
60
20
19.999999999999996
30
0
40
3.0000000000000018
0
CIRCLE
5
103
100
AcDbEntity
8
0
100
AcDbCircle
10
90
20
20
30
0
40
3.5
0
CIRCLE
5
104
100
AcDbEntity
8
0
100
AcDbCircle
10
10.000000000000009
20
69.999999999999986
30
0
40
2.5
0
CIRCLE
5
105
100
AcDbEntity
8
0
100
AcDbCircle
10
140
20
70.000000000000014
30
0
40
2.5
0
CIRCLE
5
106
100
AcDbEntity
8
0
100
AcDbCircle
10
9.9999999999999893
20
9.9999999999999893
30
0
40
2.5
0
CIRCLE
5
107
100
AcDbEntity
8
0
100
AcDbCircle
10
140
20
9.9999999999999911
30
0
40
2.5
0
CIRCLE
5
108
100
AcDbEntity
8
0
100
AcDbCircle
10
90
20
20
30
0
40
8.0000000000000036
0
CIRCLE
5
109
100
AcDbEntity
8
0
100
AcDbCircle
10
60
20
19.999999999999996
30
0
40
6.5000000000000036
0
LWPOLYLINE
5
110
100
AcDbEntity
8
0
100
AcDbPolyline
90
4
70
1
43
0.0
10
63.351878555962109
20
27.987419638086163
10
56.051096948334262
20
27.987419638086163
10
56.051096948334262
20
33.987419638086152
10
63.351878555962109
20
33.987419638086152
0
LWPOLYLINE
5
111
100
AcDbEntity
8
0
100
AcDbPolyline
90
4
70
1
43
0.0
10
64.063433388892989
20
5
10
56.144487837974417
20
5
10
56.144487837974417
20
11
10
64.063433388892989
20
11
0
LWPOLYLINE
5
112
100
AcDbEntity
8
0
100
AcDbPolyline
90
4
70
1
43
0.0
10
96.69192166376601
20
5.143060979746803
10
84.28469510126601
20
5.143060979746803
10
84.28469510126601
20
11.143060979746803
10
96.69192166376601
20
11.143060979746803
0
LWPOLYLINE
5
113
100
AcDbEntity
8
0
100
AcDbPolyline
90
200
70
1
43
0.0
10
93.996852409586552
20
33.288281133240325
10
94.00395240958656
20
33.280681133240321
10
94.00753240958656
20
33.276931133240325
10
94.042482409586569
20
33.238311133240323
10
94.045952409586562
20
33.234351133240324
10
94.049422409586555
20
33.230441133240326
10
94.084202409586553
20
33.190891133240321
10
94.08773240958655
20
33.186931133240321
10
94.091202409586558
20
33.182971133240329
10
94.126302409586557
20
33.142991133240322
10
94.129822409586552
20
33.138971133240325
10
94.133302409586562
20
33.134961133240324
10
94.167482409586555
20
33.093831133240329
10
94.170952409586562
20
33.089711133240328
10
94.177732409586554
20
33.081461133240325
10
94.24598240958656
20
32.998351133240327
10
94.252712409586564
20
32.989881133240324
10
94.259272409586558
20
32.981361133240327
10
94.325072409586554
20
32.896181133240326
10
94.33164240958655
20
32.887671133240325
10
94.351282409586545
20
32.862111133240326
10
94.370172409586544
20
32.836131133240329
10
94.37325240958657
20
32.831791133240323
10
94.404452409586554
20
32.788651133240322
10
94.407602409586559
20
32.784321133240326
10
94.420242409586564
20
32.767221133240326
10
94.537872409586555
20
32.595241133240329
10
94.549252409586558
20
32.578421133240326
10
94.55463240958656
20
32.569851133240327
10
94.607742409586564
20
32.485651133240324
10
94.612952409586555
20
32.477351133240326
10
94.615502409586554
20
32.473221133240322
10
94.641052409586564
20
32.432211133240322
10
94.643602409586549
20
32.428141133240324
10
94.645992409586555
20
32.424071133240325
10
94.66987240958656
20
32.383381133240327
10
94.672252409586548
20
32.37936113324033
10
94.676922409586567
20
32.371331133240325
10
94.722552409586569
20
32.293151133240329
10
94.726992409586558
20
32.285561133240329
10
94.731232409586553
20
32.277921133240326
10
94.771752409586554
20
32.203691133240326
10
94.775662409586545
20
32.196531133240327
10
94.777562409586551
20
32.192941133240325
10
94.796552409586553
20
32.157901133240323
10
94.798392409586555
20
32.154431133240323
10
94.80023240958657
20
32.150961133240322
10
94.818352409586566
20
32.116941133240324
10
94.820202409586557
20
32.113191133240321
10
94.823782409586556
20
32.106041133240325
10
94.857572409586552
20
32.038001133240328
10
94.860782409586548
20
32.031541133240324
10
94.863922409586564
20
32.025141133240325
10
94.893382409586565
20
31.965141133240323
10
94.896162409586552
20
31.959561133240328
10
94.898212409586549
20
31.955101133240326
10
94.917592409586561
20
31.914311133240325
10
94.919382409586547
20
31.910611133240327
10
94.921212409586545
20
31.906711133240325
10
94.93760240958656
20
31.872101133240328
10
94.939022409586556
20
31.869111133240327
10
94.941192409586549
20
31.864441133240327
10
94.943952409586544
20
31.848561133240324
10
94.94042240958656
20
31.828471133240328
10
94.929302409586555
20
31.81133113324033
10
94.916502409586556
20
31.801461133240323
10
94.911732409586563
20
31.799501133240327
10
93.354812409586557
20
31.174011133240324
10
93.349982409586559
20
31.172111133240325
10
93.333922409586563
20
31.170331133240325
10
93.314072409586558
20
31.175041133240327
10
93.29757240958655
20
31.187101133240326
10
93.28857240958655
20
31.200441133240325
10
93.286942409586558
20
31.205321133240322
10
93.285852409586568
20
31.208471133240323
10
93.273752409586564
20
31.244761133240324
10
93.272412409586565
20
31.248891133240324
10
93.271162409586566
20
31.252631133240328
10
93.257482409586572
20
31.293381133240324
10
93.256022409586564
20
31.297821133240326
10
93.254882409586557
20
31.301081133240327
10
93.242622409586545
20
31.335961133240321
10
93.241312409586556
20
31.339651133240324
10
93.240002409586552
20
31.343441133240326
10
93.22628240958656
20
31.383431133240322
10
93.224882409586556
20
31.387611133240327
10
93.224232409586563
20
31.389621133240325
10
93.215162409586569
20
31.413331133240323
10
93.214242409586561
20
31.415721133240325
10
93.213272409586537
20
31.418211133240327
10
93.203342409586554
20
31.443501133240325
10
93.202372409586545
20
31.446041133240325
10
93.200302409586556
20
31.451251133240326
10
93.17924240958655
20
31.505071133240325
10
93.177072409586557
20
31.510611133240328
10
93.174682409586552
20
31.516141133240328
10
93.150282409586552
20
31.573001133240325
10
93.147782409586569
20
31.578811133240325
10
93.146532409586555
20
31.581791133240323
10
93.133842409586563
20
31.611571133240325
10
93.132592409586564
20
31.614561133240326
10
93.131192409586561
20
31.617541133240326
10
93.117192409586551
20
31.647491133240329
10
93.115772409586555
20
31.650531133240328
10
93.112892409586564
20
31.656651133240324
10
93.084032409586541
20
31.718721133240322
10
93.081102409586549
20
31.725011133240322
10
93.074642409586545
20
31.737391133240326
10
93.008952409586556
20
31.865101133240323
10
93.001672409586561
20
31.877791133240322
10
92.999882409586547
20
31.881041133240323
10
92.982202409586563
20
31.913391133240324
10
92.980462409586551
20
31.916581133240328
10
92.969822409586556
20
31.936171133240325
10
92.958492409586569
20
31.955321133240325
10
92.954702409586559
20
31.961721133240324
10
92.916772409586557
20
32.026071133240322
10
92.912982409586547
20
32.032471133240328
10
92.909062409586568
20
32.03887113324032
10
92.869032409586566
20
32.101971133240326
10
92.865062409586571
20
32.108261133240326
10
92.863002409586556
20
32.111401133240328
10
92.843032409586556
20
32.142931133240324
10
92.840982409586559
20
32.14597113324033
10
92.838872409586557
20
32.149061133240323
10
92.81803240958655
20
32.179561133240327
10
92.815962409586561
20
32.182581133240326
10
92.813852409586559
20
32.18568113324033
10
92.793192409586553
20
32.216111133240325
10
92.791172409586551
20
32.219151133240324
10
92.789122409586554
20
32.22225113324032
10
92.76823240958656
20
32.252031133240322
10
92.766052409586564
20
32.254901133240324
10
92.76177240958657
20
32.260761133240322
10
92.719672409586565
20
32.318601133240328
10
92.71555240958655
20
32.324251133240324
10
92.711372409586545
20
32.330001133240323
10
92.668882409586558
20
32.384631133240326
10
92.664772409586561
20
32.390001133240325
10
92.660592409586556
20
32.395371133240324
10
92.619302409586567
20
32.447401133240326
10
92.615062409586557
20
32.452281133240326
10
92.610892409586555
20
32.457281133240329
10
92.570692409586556
20
32.505671133240327
10
92.566782409586551
20
32.510331133240328
10
92.56288240958655
20
32.515111133240325
10
92.523922409586561
20
32.559111133240329
10
92.520232409586555
20
32.563331133240332
10
92.516432409586557
20
32.567571133240328
10
92.480462409586565
20
32.608151133240327
10
92.477052409586548
20
32.612001133240327
10
92.47346240958656
20
32.615751133240323
10
92.439772409586553
20
32.651181133240328
10
92.436632409586551
20
32.654491133240327
10
92.433422409586555
20
32.657851133240328
10
92.403802409586561
20
32.689151133240323
10
92.401092409586568
20
32.692031133240327
10
92.398322409586555
20
32.694961133240326
10
92.372392409586553
20
32.720621133240321
10
92.370062409586566
20
32.722961133240325
10
92.367622409586559
20
32.725391133240322
10
92.345962409586548
20
32.746761133240327
10
92.344132409586564
20
32.748611133240324
10
92.339412409586558
20
32.753281133240321
10
92.328992409586562
20
32.782531133240326
10
92.336532409586567
20
32.812641133240326
10
92.340752409586571
20
32.817741133240325
10
93.238712409586554
20
33.904711133240326
10
93.243102409586555
20
33.910071133240322
10
93.272452409586549
20
33.923101133240323
10
93.304032409586569
20
33.917011133240322
10
93.309502409586557
20
33.912791133240326
10
93.313092409586545
20
33.910011133240324
10
93.358062409586552
20
33.875511133240323
10
93.363442409586554
20
33.87139113324033
10
93.367072409586569
20
33.868511133240325
10
93.407922409586561
20
33.836891133240329
10
93.412322409586551
20
33.833311133240322
10
93.416662409586564
20
33.829721133240326
10
93.46370240958656
20
33.791211133240324
10
93.468742409586554
20
33.787031133240326
10
93.473742409586563
20
33.78290113324033
10
93.527232409586546
20
33.738851133240324
10
93.53287240958656
20
33.734181133240327
10
93.538352409586565
20
33.729401133240323
10
93.596132409586545
20
33.678901133240323
10
93.602212409586571
20
33.673581133240326
10
93.608172409586558
20
33.668261133240321
10
93.670732409586549
20
33.612871133240326
10
93.677072409586543
20
33.606901133240321
10
93.683372409586539
20
33.600991133240321
10
93.74868240958655
20
33.539851133240326
10
93.755422409586544
20
33.533561133240326
10
93.762202409586564
20
33.527371133240329
10
93.829742409586572
20
33.461241133240321
10
93.836642409586545
20
33.454401133240324
10
93.843422409586566
20
33.447571133240324
10
93.913072409586547
20
33.37747113324032
10
93.920022409586551
20
33.370141133240324
10
93.926922409586552
20
33.362821133240324
0
LWPOLYLINE
5
114
100
AcDbEntity
8
0
100
AcDbPolyline
90
204
70
1
43
0.0
10
86.548119409586548
20
31.917781133240325
10
86.527394409586549
20
31.885711133240324
10
86.525386409586545
20
31.882511133240325
10
86.523433409586545
20
31.879311133240329
10
86.50428140958654
20
31.847461133240323
10
86.502383409586542
20
31.844321133240324
10
86.498586409586551
20
31.838031133240325
10
86.461638409586556
20
31.776881133240327
10
86.458112409586562
20
31.770971133240327
10
86.454694409586551
20
31.764941133240324
10
86.421979409586541
20
31.706741133240328
10
86.418833409586568
20
31.701141133240327
10
86.415686409586542
20
31.695561133240325
10
86.385738409586551
20
31.641741133240323
10
86.383025409586551
20
31.636531133240325
10
86.380312409586551
20
31.631321133240323
10
86.354759409586563
20
31.582061133240327
10
86.352372409586536
20
31.577391133240326
10
86.349930409586563
20
31.572781133240326
10
86.327361409586558
20
31.529321133240327
10
86.325300409586561
20
31.525251133240324
10
86.323293409586555
20
31.521181133240326
10
86.305334409586564
20
31.483751133240325
10
86.303706409586567
20
31.480331133240327
10
86.301700409586545
20
31.476261133240321
10
86.284718409586546
20
31.440621133240324
10
86.283308409586553
20
31.437641133240323
10
86.281245409586546
20
31.433401133240327
10
86.271805409586548
20
31.422111133240325
10
86.255963409586542
20
31.412141133240326
10
86.237572409586548
20
31.408441133240323
10
86.222977409586562
20
31.410181133240329
10
86.218583409586543
20
31.411861133240325
10
85.825733409586547
20
31.562471133240322
10
85.821176409586556
20
31.564211133240327
10
85.808915409586547
20
31.573061133240326
10
85.797630409586546
20
31.588571133240325
10
85.792856409586562
20
31.607121133240327
10
85.793887409586546
20
31.622211133240327
10
85.795461409586551
20
31.626761133240326
10
85.796654409586566
20
31.630441133240325
10
85.811790409586564
20
31.675371133240326
10
85.81358040958655
20
31.680581133240327
10
85.814937409586548
20
31.684601133240324
10
85.829965409586549
20
31.728761133240326
10
85.831647409586566
20
31.733531133240326
10
85.83338340958656
20
31.738311133240327
10
85.852643409586562
20
31.789851133240322
10
85.854705409586558
20
31.795331133240325
10
85.856766409586555
20
31.800861133240325
10
85.878684409586555
20
31.859461133240327
10
85.881018409586559
20
31.865641133240324
10
85.883351409586552
20
31.871821133240324
10
85.909555409586545
20
31.936061133240322
10
85.912322409586551
20
31.942791133240327
10
85.915088409586545
20
31.949511133240325
10
85.943952409586558
20
32.019391133240319
10
85.946990409586562
20
32.026611133240323
10
85.950191409586552
20
32.033781133240325
10
85.98334040958656
20
32.107611133240326
10
85.986758409586557
20
32.115211133240329
10
85.988440409586545
20
32.119001133240324
10
86.005747409586562
20
32.157581133240328
10
86.007537409586547
20
32.161431133240328
10
86.009381409586553
20
32.165281133240327
10
86.028316409586552
20
32.204291133240325
10
86.030269409586566
20
32.208191133240327
10
86.034122409586544
20
32.216111133240325
10
86.073401409586566
20
32.296531133240329
10
86.07741540958655
20
32.304711133240325
10
86.085987409586551
20
32.320781133240324
10
86.174855409586556
20
32.486251133240323
10
86.184620409586557
20
32.502791133240329
10
86.187008409586554
20
32.506971133240327
10
86.210879409586568
20
32.548851133240319
10
86.213320409586558
20
32.553031133240324
10
86.227752409586572
20
32.578321133240323
10
86.242943409586559
20
32.603171133240323
10
86.248043409586558
20
32.611461133240326
10
86.299150409586559
20
32.694681133240323
10
86.30430440958655
20
32.702991133240324
10
86.309512409586546
20
32.711291133240323
10
86.363169409586561
20
32.793001133240324
10
86.368540409586544
20
32.801141133240328
10
86.371252409586546
20
32.805211133240327
10
86.398162409586547
20
32.845781133240322
10
86.400983409586559
20
32.849751133240325
10
86.403750409586564
20
32.853761133240326
10
86.431636409586559
20
32.893361133240326
10
86.434458409586554
20
32.89726113324032
10
86.437224409586563
20
32.901241133240326
10
86.465056409586566
20
32.940511133240321
10
86.467823409586543
20
32.944421133240326
10
86.470536409586543
20
32.948381133240325
10
86.498586409586551
20
32.986901133240323
10
86.501515409586546
20
32.990641133240324
10
86.507212409586543
20
32.998241133240327
10
86.56363240958656
20
33.072941133240327
10
86.569222409586558
20
33.08026113324032
10
86.574752409586551
20
33.087641133240325
10
86.631502409586545
20
33.158331133240324
10
86.637092409586543
20
33.165281133240327
10
86.642682409586556
20
33.172221133240328
10
86.697962409586552
20
33.239281133240326
10
86.703612409586555
20
33.245631133240323
10
86.709142409586548
20
33.252081133240324
10
86.762962409586564
20
33.314471133240325
10
86.768222409586556
20
33.320501133240327
10
86.77338240958656
20
33.326581133240325
10
86.825412409586562
20
33.383541133240328
10
86.830402409586554
20
33.389031133240323
10
86.835392409586547
20
33.394501133240325
10
86.883672409586552
20
33.446751133240326
10
86.888292409586555
20
33.451681133240328
10
86.893222409586571
20
33.456741133240328
10
86.939992409586552
20
33.504261133240327
10
86.944432409586554
20
33.508711133240325
10
86.948842409586561
20
33.513211133240326
10
86.99023240958654
20
33.554931133240324
10
86.994072409586551
20
33.558781133240323
10
86.996032409586547
20
33.560851133240327
10
87.013072409586556
20
33.577391133240326
10
87.014702409586562
20
33.578961133240327
10
87.016272409586563
20
33.580541133240324
10
87.031412409586565
20
33.595081133240321
10
87.03287240958656
20
33.596431133240323
10
87.035962409586546
20
33.599471133240321
10
87.06352240958654
20
33.626061133240327
10
87.065912409586574
20
33.628331133240323
10
87.069602409586565
20
33.631971133240327
10
87.083872409586562
20
33.639621133240325
10
87.104002409586556
20
33.642601133240326
10
87.123742409586555
20
33.637611133240327
10
87.137142409586545
20
33.628561133240325
10
87.140562409586551
20
33.624601133240326
10
87.587822409586551
20
33.100671133240326
10
87.591142409586553
20
33.096761133240321
10
87.597982409586564
20
33.082111133240325
10
87.599822409586551
20
33.061761133240324
10
87.593632409586561
20
33.042351133240324
10
87.583872409586547
20
33.02949113324032
10
87.579742409586544
20
33.026331133240326
10
87.577092409586555
20
33.024391133240329
10
87.546602409586555
20
33.001391133240325
10
87.543132409586548
20
32.998721133240323
10
87.54150240958657
20
32.997531133240322
10
87.524732409586562
20
32.984891133240325
10
87.522992409586564
20
32.983531133240326
10
87.521252409586566
20
32.982241133240329
10
87.503462409586561
20
32.968671133240328
10
87.502002409586552
20
32.967421133240322
10
87.498682409586564
20
32.964821133240328
10
87.463422409586556
20
32.936761133240324
10
87.459682409586549
20
32.933721133240319
10
87.45588240958655
20
32.930751133240321
10
87.415522409586558
20
32.898791133240323
10
87.411302409586554
20
32.895371133240324
10
87.406952409586566
20
32.891681133240326
10
87.361382409586554
20
32.852891133240327
10
87.356662409586534
20
32.848821133240321
10
87.351882409586551
20
32.844751133240322
10
87.302302409586559
20
32.802281133240328
10
87.297352409586551
20
32.797671133240328
10
87.292312409586557
20
32.793101133240327
10
87.240662409586562
20
32.746121133240329
10
87.235352409586554
20
32.741241133240329
10
87.22992240958655
20
32.736461133240326
10
87.176372409586548
20
32.685511133240325
10
87.170952409586562
20
32.680211133240327
10
87.165522409586558
20
32.67489113324033
10
87.110072409586564
20
32.620901133240324
10
87.104642409586546
20
32.615211133240322
10
87.099172409586544
20
32.60957113324033
10
87.043502409586551
20
32.551891133240332
10
87.037872409586541
20
32.546031133240326
10
87.03499240958655
20
32.543151133240322
10
87.007102409586551
20
32.513261133240327
10
87.004392409586572
20
32.510171133240327
10
87.001622409586545
20
32.507141133240324
10
86.973892409586554
20
32.476491133240323
10
86.971132409586559
20
32.473391133240327
10
86.968312409586559
20
32.470351133240321
10
86.940252409586549
20
32.439371133240321
10
86.937492409586554
20
32.436281133240328
10
86.934672409586554
20
32.433181133240325
10
86.907442409586565
20
32.401241133240326
10
86.904722409586554
20
32.398031133240323
10
86.899302409586568
20
32.391631133240324
10
86.844672409586551
20
32.327071133240324
10
86.839352409586553
20
32.320501133240327
10
86.834032409586555
20
32.313891133240325
10
86.781352409586546
20
32.247641133240329
10
86.776142409586555
20
32.241011133240328
10
86.76041240958655
20
32.221171133240325
10
86.745332409586538
20
32.200931133240324
10
86.742782409586553
20
32.197571133240324
10
86.71782240958656
20
32.163871133240328
10
86.715332409586551
20
32.160511133240327
10
86.705072409586563
20
32.147261133240328
10
86.610672409586556
20
32.013101133240326
10
86.601452409586557
20
32.000031133240327
10
86.597052409586567
20
31.993351133240324
10
86.554412409586547
20
31.927431133240326
10
86.550232409586556
20
31.920971133240322
0
LWPOLYLINE
5
115
100
AcDbEntity
8
0
100
AcDbPolyline
90
59
70
1
43
0.0
10
91.043882409586558
20
34.874971133240322
10
91.113272409586557
20
34.864121133240317
10
91.120322409586549
20
34.862991133240321
10
90.55360240958656
20
33.703811133240322
10
90.548662409586569
20
33.704831133240326
10
90.501192409586537
20
33.714601133240322
10
90.496632409586539
20
33.715361133240329
10
90.491312409586556
20
33.716281133240329
10
90.441392409586555
20
33.724851133240328
10
90.436742409586543
20
33.725671133240326
10
90.432022409586565
20
33.726491133240323
10
90.388072409586556
20
33.734131133240325
10
90.384002409586572
20
33.734831133240327
10
90.379882409586557
20
33.735431133240326
10
90.34234240958655
20
33.740531133240324
10
90.338962409586557
20
33.740971133240322
10
90.335232409586567
20
33.74151113324033
10
90.302562409586557
20
33.745961133240328
10
90.299802409586562
20
33.746331133240325
10
90.295072409586567
20
33.746991133240329
10
90.281572409586559
20
33.752531133240325
10
90.267302409586563
20
33.764461133240324
10
90.258192409586542
20
33.780681133240329
10
90.255312409586551
20
33.795061133240324
10
90.255532409586564
20
33.799721133240325
10
90.307232409586561
20
34.878611133240319
10
90.307452409586546
20
34.883491133240327
10
90.311952409586539
20
34.897971133240318
10
90.32324240958657
20
34.91360113324032
10
90.339462409586559
20
34.923961133240326
10
90.35416240958655
20
34.927601133240323
10
90.359102409586555
20
34.927541133240318
10
90.363442409586554
20
34.927491133240316
10
90.417482409586555
20
34.926891133240318
10
90.423882409586554
20
34.926781133240318
10
90.428432409586549
20
34.92674113324032
10
90.478732409586542
20
34.925921133240323
10
90.484212409586547
20
34.925811133240323
10
90.489692409586553
20
34.925541133240323
10
90.54888240958654
20
34.922761133240321
10
90.555232409586552
20
34.922441133240326
10
90.561572409586546
20
34.922171133240319
10
90.628952409586546
20
34.918811133240325
10
90.636122409586548
20
34.918431133240318
10
90.64323240958656
20
34.91810113324032
10
90.717932409586552
20
34.912141133240318
10
90.725742409586559
20
34.91154113324032
10
90.733502409586578
20
34.91089113324032
10
90.814712409586562
20
34.903941133240323
10
90.823182409586551
20
34.903181133240324
10
90.831532409586544
20
34.902211133240321
10
90.918282409586553
20
34.891901133240324
10
90.927242409586569
20
34.890821133240323
10
90.93169240958656
20
34.890281133240322
10
90.976992409586558
20
34.884851133240325
10
90.981602409586557
20
34.884251133240326
10
90.986162409586555
20
34.883711133240325
10
91.032382409586546
20
34.87671113324032
10
91.037052409586551
20
34.876001133240322
0
LWPOLYLINE
5
116
100
AcDbEntity
8
0
100
AcDbPolyline
90
181
70
1
43
0.0
10
85.63020430958656
20
29.208251133240321
10
85.629065009586554
20
29.214331133240321
10
85.628956609586538
20
29.214931133240327
10
85.627871409586547
20
29.220831133240324
10
85.627763009586545
20
29.221431133240326
10
85.626406609586553
20
29.228921133240323
10
85.612951709586554
20
29.305961133240327
10
85.611812409586548
20
29.313891133240325
10
85.610564609586547
20
29.321861133240326
10
85.597977809586553
20
29.403571133240327
10
85.596729909586571
20
29.411921133240323
10
85.595644909586554
20
29.420331133240328
10
85.584739909586546
20
29.506041133240327
10
85.583654909586556
20
29.514721133240322
10
85.58338370958657
20
29.516961133240326
10
85.580616709586565
20
29.538931133240322
10
85.58034550958655
20
29.541101133240325
10
85.580074109586548
20
29.543321133240322
10
85.577849809586567
20
29.565781133240321
10
85.577632709586567
20
29.568001133240326
10
85.57714450958656
20
29.572571133240327
10
85.57269560958656
20
29.618031133240326
10
85.572261609586562
20
29.622581133240327
10
85.571773409586569
20
29.627191133240327
10
85.567324609586564
20
29.673311133240325
10
85.566890609586551
20
29.677921133240325
10
85.56656500958654
20
29.682371133240327
10
85.563255609586548
20
29.727031133240324
10
85.562930009586552
20
29.731471133240326
10
85.562604509586549
20
29.735971133240326
10
85.559295049586552
20
29.780901133240324
10
85.558969529586548
20
29.785401133240327
10
85.557938719586559
20
29.798901133240324
10
85.557450439586546
20
29.805691133240323
10
85.557124909586562
20
29.814811133240326
10
85.55593133958655
20
29.842851133240323
10
85.555551559586561
20
29.852241133240327
10
85.551753809586558
20
29.946421133240328
10
85.551374049586556
20
29.955811133240324
10
85.550288972586543
20
29.984131133240322
10
85.550071958586557
20
30.012391133240325
10
85.550017705586541
20
30.017111133240327
10
85.549746437586549
20
30.064321133240327
10
85.549746437586549
20
30.068991133240324
10
85.549692184586547
20
30.073711133240323
10
85.54942091658657
20
30.120681133240325
10
85.54942091658657
20
30.125351133240326
10
85.549312409586548
20
30.153461133240324
10
85.550071958586557
20
30.181441133240323
10
85.55061448958655
20
30.200061133240325
10
85.557667449586546
20
30.382681133240329
10
85.559078039586552
20
30.400421133240325
10
85.559674809586554
20
30.409321133240322
10
85.565425709586549
20
30.496611133240322
10
85.56613100958657
20
30.505131133240326
10
85.566944809586559
20
30.513691133240325
10
85.575245609586545
20
30.597081133240323
10
85.576059309586554
20
30.605221133240327
10
85.57741570958656
20
30.621561133240323
10
85.596784209586559
20
30.774281133240326
10
85.598628809586558
20
30.788431133240323
10
85.599062809586556
20
30.792011133240322
10
85.60378300958655
20
30.826741133240326
10
85.604271209586557
20
30.830101133240326
10
85.604759509586557
20
30.833531133240328
10
85.610456009586557
20
30.867211133240325
10
85.610998709586553
20
30.870471133240326
10
85.612138009586559
20
30.877081133240324
10
85.622825909586538
20
30.939381133240328
10
85.623856709586548
20
30.945241133240327
10
85.624887509586557
20
30.951081133240326
10
85.634436209586568
20
31.005781133240326
10
85.635412709586546
20
31.010561133240323
10
85.63633500958656
20
31.015281133240329
10
85.645124109586561
20
31.058511133240323
10
85.645937809586542
20
31.062421133240324
10
85.646805909586561
20
31.066711133240325
10
85.654455409586561
20
31.104191133240327
10
85.655106409586551
20
31.107391133240327
10
85.656083409586557
20
31.112501133240325
10
85.66346140958656
20
31.126871133240325
10
85.678327409586558
20
31.140821133240326
10
85.697479409586549
20
31.147921133240324
10
85.713645409586547
20
31.148081133240325
10
85.718691409586555
20
31.146721133240327
10
86.065751409586554
20
31.054171133240324
10
86.070743409586541
20
31.052871133240323
10
86.084631409586549
20
31.044681133240324
10
86.097706409586564
20
31.029001133240325
10
86.103675409586558
20
31.009471133240325
10
86.102915409586558
20
30.993351133240328
10
86.101287409586561
20
30.988421133240326
10
86.100202409586558
20
30.985321133240326
10
86.088158409586555
20
30.948971133240324
10
86.086801409586556
20
30.944851133240327
10
86.085499409586546
20
30.941061133240325
10
86.071665409586558
20
30.899221133240324
10
86.070145409586559
20
30.894611133240325
10
86.068680409586563
20
30.890171133240326
10
86.054791409586556
20
30.843831133240329
10
86.053327409586572
20
30.838831133240326
10
86.051808409586556
20
30.833901133240325
10
86.036075409586559
20
30.781331133240325
10
86.034447409586562
20
30.775741133240327
10
86.033633409586542
20
30.772971133240322
10
86.025115409586562
20
30.744391133240324
10
86.02430140958657
20
30.741401133240323
10
86.023487409586551
20
30.738421133240323
10
86.015458409586557
20
30.707491133240325
10
86.014644409586566
20
30.704291133240325
10
86.011443409586548
20
30.691651133240327
10
85.977047409586547
20
30.554991133240325
10
85.97400840958656
20
30.540281133240327
10
85.972380409586563
20
30.532961133240324
10
85.955562409586548
20
30.457711133240323
10
85.953880409586546
20
30.450001133240324
10
85.952252409586563
20
30.442311133240324
10
85.937387409586563
20
30.363081133240325
10
85.935868409586561
20
30.355001133240329
10
85.93255940958656
20
30.338891133240327
10
85.905866409586551
20
30.171961133240327
10
85.903262409586546
20
30.154811133240326
10
85.899409409586553
20
30.129041133240328
10
85.896426409586567
20
30.103111133240326
10
85.895937409586551
20
30.098821133240325
10
85.890947409586559
20
30.055421133240326
10
85.890458409586557
20
30.051031133240325
10
85.889915409586564
20
30.046681133240327
10
85.884870409586554
20
30.003071133240326
10
85.884381409586567
20
29.998671133240325
10
85.881398409586552
20
29.972421133240328
10
85.879227409586548
20
29.946101133240326
10
85.878522409586552
20
29.937311133240321
10
85.871523409586544
20
29.849471133240325
10
85.870818409586548
20
29.840681133240324
10
85.868702409586547
20
29.814431133240326
10
85.868431409586563
20
29.811171133240325
10
85.868323409586566
20
29.809491133240329
10
85.868268409586562
20
29.810791133240325
10
85.868213409586559
20
29.809921133240319
10
85.867943409586559
20
29.803141133240324
10
85.867291409586556
20
29.789581133240326
10
85.867075409586562
20
29.785071133240322
10
85.864959409586561
20
29.740041133240322
10
85.864795409586563
20
29.735541133240325
10
85.864579409586554
20
29.731101133240326
10
85.862463409586553
20
29.686391133240324
10
85.862247409586558
20
29.681941133240322
10
85.862137409586552
20
29.677711133240322
10
85.861215409586549
20
29.635441133240327
10
85.861161409586543
20
29.631211133240324
10
85.861052409586563
20
29.627031133240326
10
85.86013040958656
20
29.585311133240324
10
85.860076409586554
20
29.581141133240326
10
85.860022409586563
20
29.579071133240326
10
85.859533409586547
20
29.558351133240322
10
85.859479409586555
20
29.556291133240325
10
85.859479409586555
20
29.554221133240326
10
85.859587409586567
20
29.533391133240325
10
85.859643409586553
20
29.531281133240324
10
85.859697409586545
20
29.522971133240326
10
85.860184409586552
20
29.441321133240326
10
85.860238409586543
20
29.433291133240328
10
85.860511409586564
20
29.425321133240324
10
85.863059409586555
20
29.347081133240323
10
85.86333140958655
20
29.339431133240325
10
85.863494409586551
20
29.331831133240325
10
85.867345409586562
20
29.257781133240325
10
85.867780409586558
20
29.250571133240328
10
85.867888409586556
20
29.248561133240326
10
85.869136409586559
20
29.228761133240326
10
85.869300409586558
20
29.226751133240324
10
85.869570409586544
20
29.221601133240327
10
85.866152409586562
20
29.205811133240328
10
85.855356409586548
20
29.188501133240322
10
85.838699409586553
20
29.176741133240327
10
85.823129409586556
20
29.172331133240323
10
85.817976409586549
20
29.172331133240323
10
85.679575409586562
20
29.172331133240323
10
85.67132840958655
20
29.172331133240323
10
85.646697409586551
20
29.184221133240325
0
LWPOLYLINE
5
117
100
AcDbEntity
8
0
100
AcDbPolyline
90
214
70
1
43
0.0
10
89.712022409586538
20
33.775581133240323
10
89.707572409586547
20
33.775421133240322
10
89.703062409586551
20
33.775311133240329
10
89.655492409586572
20
33.774061133240323
10
89.650492409586562
20
33.773901133240322
10
89.643062409586562
20
33.773901133240322
10
89.620812409586549
20
33.772381133240323
10
89.617992409586549
20
33.77217113324032
10
89.615122409586547
20
33.772001133240323
10
89.586052409586543
20
33.769991133240325
10
89.583122409586551
20
33.769781133240329
10
89.577142409586543
20
33.769391133240326
10
89.515072409586551
20
33.765221133240324
10
89.508672409586566
20
33.764781133240326
10
89.502272409586553
20
33.764131133240326
10
89.436142409586552
20
33.757241133240321
10
89.429352409586556
20
33.756541133240326
10
89.425942409586568
20
33.756211133240328
10
89.391322409586564
20
33.752681133240323
10
89.387852409586571
20
33.752311133240326
10
89.384322409586559
20
33.751971133240325
10
89.349062409586551
20
33.747101133240328
10
89.345482409586552
20
33.746611133240322
10
89.338322409586567
20
33.745631133240323
10
89.26541240958656
20
33.73560113324033
10
89.258022409586545
20
33.734571133240323
10
89.250592409586574
20
33.733321133240331
10
89.175502409586556
20
33.72029113324033
10
89.167912409586563
20
33.718941133240328
10
89.164122409586568
20
33.718291133240321
10
89.125752409586568
20
33.711501133240326
10
89.121952409586541
20
33.710751133240329
10
89.118102409586555
20
33.709931133240325
10
89.079642409586555
20
33.701791133240327
10
89.075782409586552
20
33.700991133240322
10
89.07188240958655
20
33.700171133240325
10
89.033032409586554
20
33.69197113324033
10
89.029182409586554
20
33.691171133240324
10
89.025282409586566
20
33.690351133240327
10
88.986272409586547
20
33.681611133240324
10
88.982422409586547
20
33.680581133240324
10
88.974602409586566
20
33.678681133240325
10
88.89653240958657
20
33.659371133240327
10
88.888732409586538
20
33.657421133240327
10
88.880912409586557
20
33.655461133240323
10
88.803382409586561
20
33.633491133240327
10
88.795622409586557
20
33.631321133240327
10
88.791712409586552
20
33.630241133240325
10
88.753092409586557
20
33.619221133240323
10
88.749282409586556
20
33.618031133240322
10
88.745442409586559
20
33.616831133240325
10
88.707462409586554
20
33.604571133240327
10
88.703712409586558
20
33.603321133240328
10
88.699922409586549
20
33.60213113324032
10
88.662102409586538
20
33.589971133240326
10
88.658372409586562
20
33.588741133240326
10
88.654562409586561
20
33.587541133240329
10
88.617242409586538
20
33.575061133240325
10
88.613602409586548
20
33.573651133240325
10
88.606232409586539
20
33.570991133240319
10
88.533522409586553
20
33.544791133240324
10
88.526422409586559
20
33.542181133240319
10
88.519202409586555
20
33.539681133240322
10
88.449592409586558
20
33.512071133240326
10
88.442752409586546
20
33.509421133240323
10
88.435922409586553
20
33.506691133240324
10
88.369412409586545
20
33.479461133240328
10
88.363062409586561
20
33.476531133240329
10
88.356602409586571
20
33.473711133240329
10
88.294212409586549
20
33.446321133240325
10
88.288192409586543
20
33.443651133240323
10
88.282062409586558
20
33.441111133240327
10
88.22449240958656
20
33.41360113324032
10
88.218962409586538
20
33.411001133240326
10
88.213422409586556
20
33.408391133240329
10
88.160422409586545
20
33.382941133240323
10
88.155382409586565
20
33.380501133240323
10
88.15038240958657
20
33.377961133240326
10
88.103302409586561
20
33.353321133240328
10
88.098892409586554
20
33.350991133240328
10
88.094452409586552
20
33.348711133240329
10
88.053002409586568
20
33.327121133240325
10
88.049142409586551
20
33.325111133240327
10
88.045302409586554
20
33.323111133240324
10
88.010682409586565
20
33.303631133240323
10
88.00753240958656
20
33.301891133240325
10
88.00389240958657
20
33.29989113324033
10
87.972382409586558
20
33.282081133240325
10
87.969732409586555
20
33.280571133240329
10
87.963872409586543
20
33.277321133240328
10
87.932772409586562
20
33.275311133240329
10
87.905812409586559
20
33.290931133240328
10
87.902062409586549
20
33.296421133240329
10
87.480032409586556
20
33.91690113324033
10
87.476122409586566
20
33.922671133240328
10
87.471782409586552
20
33.954461133240329
10
87.486322409586563
20
33.982991133240326
10
87.491912409586547
20
33.987061133240324
10
87.495212409586571
20
33.989561133240322
10
87.536072409586566
20
34.019671133240323
10
87.540912409586554
20
34.023191133240324
10
87.544422409586545
20
34.025791133240325
10
87.583552409586559
20
34.054441133240324
10
87.58794240958656
20
34.057431133240328
10
87.592282409586559
20
34.060461133240324
10
87.639312409586552
20
34.092811133240325
10
87.644372409586552
20
34.096281133240325
10
87.64941240958656
20
34.099751133240325
10
87.703002409586546
20
34.136581133240327
10
87.708712409586553
20
34.140431133240327
10
87.714462409586559
20
34.14418113324033
10
87.775282409586566
20
34.18313113324033
10
87.78163240958655
20
34.187191133240326
10
87.787982409586562
20
34.191211133240323
10
87.854382409586563
20
34.233261133240326
10
87.861442409586559
20
34.237331133240325
10
87.86844240958655
20
34.241511133240323
10
87.94085240958654
20
34.284531133240328
10
87.948342409586559
20
34.288931133240325
10
87.955732409586545
20
34.293491133240323
10
88.033372409586548
20
34.337001133240321
10
88.041392409586564
20
34.341391133240322
10
88.049422409586541
20
34.345721133240325
10
88.131282409586547
20
34.390221133240324
10
88.139812409586554
20
34.394441133240321
10
88.148272409586554
20
34.398741133240321
10
88.234372409586555
20
34.442251133240326
10
88.243102409586555
20
34.44664113324032
10
88.247452409586558
20
34.448921133240326
10
88.291882409586549
20
34.470081133240328
10
88.296382409586556
20
34.472141133240321
10
88.300822409586544
20
34.474251133240323
10
88.345962409586548
20
34.495191133240326
10
88.350532409586549
20
34.497261133240329
10
88.355032409586556
20
34.499381133240327
10
88.400662409586559
20
34.520431133240322
10
88.405272409586559
20
34.522491133240322
10
88.409822409586553
20
34.524541133240319
10
88.456382409586553
20
34.544351133240319
10
88.461052409586557
20
34.546311133240323
10
88.47037240958656
20
34.550211133240325
10
88.564232409586552
20
34.589491133240323
10
88.57373240958654
20
34.593181133240321
10
88.583212409586565
20
34.596821133240319
10
88.678432409586563
20
34.633171133240317
10
88.687922409586548
20
34.636751133240324
10
88.692642409586554
20
34.63864113324032
10
88.740392409586548
20
34.655681133240321
10
88.745212409586557
20
34.65731113324032
10
88.749992409586554
20
34.65899113324032
10
88.797742409586547
20
34.675321133240317
10
88.802502409586566
20
34.676941133240319
10
88.807232409586561
20
34.678571133240318
10
88.854702409586551
20
34.694791133240322
10
88.859422409586557
20
34.696371133240319
10
88.864142409586563
20
34.69794113324032
10
88.911622409586556
20
34.71249113324032
10
88.916342409586548
20
34.713941133240318
10
88.925772409586571
20
34.716821133240323
10
89.019202409586569
20
34.744991133240319
10
89.028422409586554
20
34.747751133240321
10
89.037702409586558
20
34.750241133240323
10
89.128952409586546
20
34.774541133240319
10
89.137912409586562
20
34.776881133240323
10
89.14235240958655
20
34.778071133240324
10
89.186682409586552
20
34.789681133240322
10
89.191132409586544
20
34.790721133240318
10
89.195522409586545
20
34.791751133240318
10
89.239032409586571
20
34.80174113324032
10
89.243382409586559
20
34.802711133240322
10
89.252002409586567
20
34.804711133240318
10
89.335712409586563
20
34.823751133240322
10
89.34385240958656
20
34.825601133240326
10
89.351992409586558
20
34.827181133240323
10
89.430772409586567
20
34.842421133240322
10
89.438372409586563
20
34.843891133240319
10
89.442162409586544
20
34.844641133240316
10
89.479322409586558
20
34.85175113324032
10
89.482962409586548
20
34.852401133240321
10
89.486592409586549
20
34.853111133240319
10
89.522672409586548
20
34.859571133240323
10
89.526462409586557
20
34.860111133240324
10
89.533802409586542
20
34.861251133240323
10
89.603622409586563
20
34.871871133240319
10
89.610182409586542
20
34.87286113324032
10
89.616742409586564
20
34.873831133240323
10
89.678272409586555
20
34.882941133240323
10
89.683962409586556
20
34.88376113324032
10
89.688742409586553
20
34.884421133240323
10
89.732962409586577
20
34.890061133240323
10
89.73698240958656
20
34.890541133240319
10
89.741252409586551
20
34.89108113324032
10
89.779242409586558
20
34.895921133240321
10
89.782492409586553
20
34.896291133240318
10
89.787592409586551
20
34.896941133240318
10
89.803602409586546
20
34.894561133240323
10
89.821562409586562
20
34.884961133240317
10
89.834352409586558
20
34.869111133240324
10
89.83973240958656
20
34.853861133240322
10
89.840122409586556
20
34.848651133240324
10
89.906732409586553
20
33.832281133240329
10
89.907062409586558
20
33.827121133240325
10
89.903752409586559
20
33.811331133240323
10
89.893062409586562
20
33.793971133240326
10
89.876522409586542
20
33.782081133240325
10
89.860992409586544
20
33.777641133240323
10
89.855842409586558
20
33.777581133240325
10
89.852532409586559
20
33.777581133240325
10
89.814232409586552
20
33.777371133240322
10
89.809892409586553
20
33.777321133240321
10
89.805932409586546
20
33.777321133240321
10
89.762312409586556
20
33.777041133240324
10
89.75759240958655
20
33.77699113324033
10
89.75368240958656
20
33.776881133240323
0
LWPOLYLINE
5
118
100
AcDbEntity
8
0
100
AcDbPolyline
90
185
70
1
43
0.0
10
95.437922409586548
20
29.826851133240325
10
95.438092409586545
20
29.808511133240323
10
95.438202409586552
20
29.806441133240327
10
95.438522409586554
20
29.798261133240324
10
95.43912240958656
20
29.781931133240324
10
95.439282409586554
20
29.77650113324032
10
95.441302409586569
20
29.722031133240328
10
95.441502409586562
20
29.716611133240324
10
95.441672409586559
20
29.711241133240325
10
95.443572409586551
20
29.657191133240325
10
95.443782409586532
20
29.651831133240325
10
95.443842409586551
20
29.646461133240326
10
95.444382409586552
20
29.592901133240325
10
95.444492409586559
20
29.587541133240322
10
95.444492409586559
20
29.576901133240323
10
95.444922409586553
20
29.471711133240323
10
95.444662409586556
20
29.461291133240323
10
95.444432409586568
20
29.450931133240324
10
95.442492409586563
20
29.348991133240325
10
95.442322409586552
20
29.339001133240323
10
95.441842409586556
20
29.329011133240325
10
95.437492409586554
20
29.231311133240325
10
95.43712240958655
20
29.221761133240328
10
95.43712240958655
20
29.221651133240325
10
95.437062409586559
20
29.221321133240327
10
95.437062409586545
20
29.221281133240321
10
95.436842409586546
20
29.216501133240325
10
95.432452409586546
20
29.202121133240325
10
95.421272409586564
20
29.186561133240325
10
95.405212409586554
20
29.176141133240321
10
95.390622409586555
20
29.172331133240323
10
95.385802409586546
20
29.172331133240323
10
93.33952240958655
20
29.172331133240323
10
93.339782409586562
20
29.173421133240325
10
93.342602409586561
20
29.184001133240326
10
93.342932409586552
20
29.185081133240324
10
93.343422409586552
20
29.186881133240323
10
93.34852240958655
20
29.205321133240325
10
93.349062409586566
20
29.207221133240324
10
93.349552409586551
20
29.209441133240329
10
93.354812409586557
20
29.232241133240326
10
93.355352409586558
20
29.234571133240323
10
93.356432409586546
20
29.239331133240324
10
93.367932409586558
20
29.289031133240325
10
93.36919240958656
20
29.294241133240323
10
93.370382409586554
20
29.299441133240322
10
93.381452409586558
20
29.353921133240327
10
93.382642409586566
20
29.359571133240326
10
93.383732409586543
20
29.365261133240324
10
93.395122409586548
20
29.423811133240324
10
93.396102409586561
20
29.429821133240324
10
93.397132409586561
20
29.435901133240321
10
93.407922409586561
20
29.498131133240328
10
93.409062409586568
20
29.504471133240322
10
93.40999240958655
20
29.510931133240327
10
93.419422409586559
20
29.576311133240324
10
93.420412409586532
20
29.582991133240327
10
93.421492409586548
20
29.589651133240324
10
93.429632409586546
20
29.657641133240325
10
93.430552409586554
20
29.664531133240324
10
93.430932409586546
20
29.668001133240324
10
93.435102409586563
20
29.702781133240322
10
93.435552409586563
20
29.706251133240325
10
93.435812409586546
20
29.70976113324032
10
93.43891240958655
20
29.745031133240325
10
93.439232409586566
20
29.748561133240329
10
93.439562409586557
20
29.752141133240325
10
93.442752409586546
20
29.787741133240324
10
93.443092409586569
20
29.791321133240324
10
93.444122409586555
20
29.802061133240322
10
93.444602409586551
20
29.807431133240328
10
93.444712409586558
20
29.808721133240326
10
93.444712409586558
20
29.809651133240326
10
93.444662409586556
20
29.812251133240327
10
93.444772409586562
20
29.804821133240328
10
93.444872409586566
20
29.795221133240325
10
93.444922409586553
20
29.792131133240328
10
93.444982409586558
20
29.792941133240326
10
93.445142409586566
20
29.796311133240323
10
93.446282409586559
20
29.823541133240326
10
93.446662409586565
20
29.832651133240326
10
93.450572409586556
20
29.923691133240325
10
93.450952409586563
20
29.932811133240325
10
93.452092409586541
20
29.959931133240328
10
93.452462409586559
20
29.978761133240326
10
93.452522409586564
20
29.981901133240324
10
93.453392409586542
20
30.013371133240323
10
93.453502409586548
20
30.016461133240323
10
93.453602409586566
20
30.019611133240325
10
93.454702409586559
20
30.051031133240325
10
93.454802409586563
20
30.054111133240326
10
93.455562409586562
20
30.072941133240327
10
93.455282409586559
20
30.09415113324032
10
93.455022409586547
20
30.108431133240327
10
93.452202409586548
20
30.248461133240326
10
93.451322409586567
20
30.262011133240321
10
93.450952409586563
20
30.268851133240325
10
93.447852409586559
20
30.335811133240323
10
93.447482409586542
20
30.342311133240326
10
93.446942409586569
20
30.348881133240329
10
93.441622409586557
20
30.412791133240326
10
93.441132409586558
20
30.419031133240324
10
93.440312409586554
20
30.431561133240326
10
93.427562409586557
20
30.548531133240324
10
93.42642240958655
20
30.559431133240324
10
93.426102409586562
20
30.562151133240324
10
93.423062409586564
20
30.588781133240325
10
93.422802409586566
20
30.591391133240325
10
93.422412409586556
20
30.593991133240323
10
93.418562409586556
20
30.619281133240325
10
93.418242409586554
20
30.621721133240328
10
93.41748240958654
20
30.626651133240323
10
93.410312409586552
20
30.673421133240325
10
93.409662409586574
20
30.677821133240325
10
93.408962409586564
20
30.682211133240326
10
93.402712409586556
20
30.723391133240323
10
93.402062409586563
20
30.727181133240325
10
93.401312409586552
20
30.730991133240323
10
93.394742409586541
20
30.765651133240329
10
93.39414240958655
20
30.768751133240325
10
93.393552409586547
20
30.771891133240324
10
93.388392409586558
20
30.799721133240325
10
93.387962409586564
20
30.802111133240327
10
93.387092409586558
20
30.806781133240328
10
93.388022409586554
20
30.821261133240327
10
93.394802409586561
20
30.838571133240325
10
93.407272409586554
20
30.852291133240325
10
93.41987240958656
20
30.859571133240323
10
93.424422409586555
20
30.860811133240325
10
95.097442409586563
20
31.337601133240327
10
95.102102409586564
20
31.338941133240326
10
95.117302409586557
20
31.339281133240323
10
95.135682409586551
20
31.333571133240326
10
95.150712409586546
20
31.321471133240326
10
95.158912409586549
20
31.308721133240326
10
95.160422409586545
20
31.304061133240324
10
95.161842409586541
20
31.299611133240326
10
95.179892409586557
20
31.243511133240322
10
95.182072409586567
20
31.236791133240324
10
95.18348240958656
20
31.232241133240322
10
95.199532409586553
20
31.181891133240324
10
95.201322409586567
20
31.176351133240324
10
95.20300240958656
20
31.170871133240322
10
95.220212409586566
20
31.111031133240324
10
95.222062409586556
20
31.104571133240327
10
95.223842409586567
20
31.098171133240324
10
95.24316240958656
20
31.029971133240327
10
95.245212409586557
20
31.022761133240326
10
95.246202409586544
20
31.019181133240327
10
95.256452409586544
20
30.982121133240327
10
95.25753240958656
20
30.978321133240328
10
95.258462409586556
20
30.974531133240326
10
95.268122409586553
20
30.935571133240323
10
95.26914240958655
20
30.931561133240322
10
95.27299240958655
20
30.915611133240326
10
95.31391240958655
20
30.743251133240324
10
95.317592409586553
20
30.724751133240325
10
95.319492409586545
20
30.715511133240327
10
95.339242409586547
20
30.620741133240323
10
95.341302409586575
20
30.611031133240324
10
95.343142409586562
20
30.601321133240326
10
95.360672409586556
20
30.501821133240327
10
95.362462409586556
20
30.491671133240324
10
95.366202409586549
20
30.471431133240326
10
95.39702240958654
20
30.261811133240325
10
95.400002409586548
20
30.240321133240325
10
95.400322409586551
20
30.237651133240323
10
95.403962409586569
20
30.210531133240327
10
95.404352409586551
20
30.207821133240323
10
95.404622409586551
20
30.204891133240324
10
95.407602409586559
20
30.175581133240325
10
95.407922409586547
20
30.172611133240324
10
95.408462409586562
20
30.166751133240325
10
95.414272409586559
20
30.107721133240325
10
95.414872409586565
20
30.101811133240325
10
95.415412409586565
20
30.095891133240325
10
95.421002409586549
20
30.036541133240323
10
95.421602409586541
20
30.030571133240326
10
95.424852409586549
20
29.994871133240327
10
95.427022409586556
20
29.967311133240322
10
95.427732409586554
20
29.958251133240324
10
95.43478240958656
20
29.867321133240328
10
95.435492409586558
20
29.858261133240326
10
95.43760240958656
20
29.831141133240322
10
95.437822409586559
20
29.827721133240324
0
LWPOLYLINE
5
119
100
AcDbEntity
8
0
100
AcDbPolyline
90
68
70
1
43
0.0
10
91.862092409586552
20
33.146891133240331
10
91.857742409586564
20
33.149761133240325
10
91.812172409586566
20
33.179991133240328
10
91.80745240958656
20
33.183131133240323
10
91.803322409586556
20
33.185791133240329
10
91.76117240958655
20
33.213781133240325
10
91.756782409586549
20
33.216561133240326
10
92.07600240958655
20
34.601971133240319
10
92.078342409586554
20
34.60110113324032
10
92.102102409586564
20
34.59210113324032
10
92.104492409586555
20
34.591171133240323
10
92.113772409586559
20
34.58769113324032
10
92.203882409586555
20
34.550491133240314
10
92.212782409586552
20
34.546851133240324
10
92.221562409586539
20
34.543151133240322
10
92.307452409586546
20
34.506261133240329
10
92.315702409586549
20
34.502361133240328
10
92.32394240958655
20
34.498561133240322
10
92.404502409586541
20
34.46167113324033
10
92.412322409586551
20
34.458081133240327
10
92.420132409586557
20
34.454561133240325
10
92.494352409586554
20
34.418001133240324
10
92.501522409586556
20
34.414471133240326
10
92.50862240958655
20
34.41089113324032
10
92.576872409586571
20
34.376651133240323
10
92.583382409586534
20
34.373401133240328
10
92.590162409586569
20
34.36971113324033
10
92.654842409586564
20
34.334501133240323
10
92.660912409586558
20
34.331191133240324
10
92.666992409586555
20
34.32782113324032
10
92.723802409586554
20
34.296571133240327
10
92.729052409586558
20
34.293641133240328
10
92.731322409586568
20
34.292401133240325
10
92.753092409586557
20
34.280031133240328
10
92.755202409586559
20
34.278831133240324
10
92.757102409586565
20
34.277751133240322
10
92.775382409586555
20
34.267281133240324
10
92.777122409586553
20
34.266251133240324
10
92.78087240958655
20
34.264131133240326
10
92.814072409586558
20
34.245081133240326
10
92.816952409586548
20
34.243401133240326
10
92.821392409586551
20
34.240861133240323
10
92.832732409586555
20
34.229361133240332
10
92.841302409586547
20
34.210861133240329
10
92.841952409586554
20
34.190461133240326
10
92.837072409586554
20
34.175041133240327
10
92.834252409586554
20
34.170711133240324
10
92.094342409586559
20
33.04369113324033
10
92.091462409586569
20
33.039421133240324
10
92.079312409586564
20
33.028781133240329
10
92.060322409586561
20
33.021291133240325
10
92.039982409586557
20
33.021781133240331
10
92.024892409586556
20
33.027581133240325
10
92.02077240958657
20
33.030681133240329
10
92.018122409586567
20
33.032641133240325
10
91.987412409586554
20
33.055531133240322
10
91.983942409586561
20
33.05813113324033
10
91.982312409586555
20
33.059321133240324
10
91.965492409586545
20
33.071921133240323
10
91.963752409586561
20
33.073211133240321
10
91.962022409586552
20
33.074511133240321
10
91.944662409586556
20
33.087321133240323
10
91.943412409586557
20
33.088191133240329
10
91.940422409586546
20
33.090311133240327
10
91.90869240958655
20
33.11304113324033
10
91.905322409586574
20
33.115421133240325
10
91.901912409586558
20
33.117921133240323
10
91.865882409586561
20
33.144121133240326
0
LWPOLYLINE
5
120
100
AcDbEntity
8
0
100
AcDbPolyline
90
50
70
1
43
0.0
10
90.639642409586557
20
29.649221133240324
10
90.59385240958656
20
29.574621133240324
10
90.523272409586554
20
29.485651133240328
10
90.442162409586558
20
29.408931133240323
10
90.352162409586555
20
29.344921133240327
10
90.254772409586565
20
29.294191133240325
10
90.151572409586549
20
29.257291133240329
10
90.044162409586548
20
29.234721133240328
10
89.96164240958656
20
29.227081133240326
10
89.934132409586567
20
29.227081133240326
10
89.889872409586559
20
29.227081133240326
10
89.757162409586556
20
29.247101133240324
10
89.612092409586552
20
29.294681133240328
10
89.583872409586562
20
29.308461133240328
10
89.547682409586571
20
29.326141133240323
10
89.446342409586563
20
29.393791133240327
10
89.332072409586544
20
29.501491133240325
10
89.24250240958655
20
29.627251133240328
10
89.179142409586547
20
29.766791133240325
10
89.143442409586555
20
29.915881133240326
10
89.136882409586562
20
30.070121133240324
10
89.160912409586558
20
30.225291133240326
10
89.199382409586562
20
30.340901133240322
10
89.217062409586561
20
30.377031133240322
10
90.812662409586551
20
33.640651133240326
10
91.384982409586556
20
34.811391133240321
10
91.772952409586566
20
35.604961133240323
10
91.777282409586562
20
35.613961133240323
10
91.795352409586556
20
35.638541133240324
10
91.82330240958656
20
35.661691133240325
10
91.85498240958654
20
35.675101133240325
10
91.880052409586568
20
35.679391133240316
10
91.888452409586549
20
35.679391133240316
10
91.895562409586574
20
35.679391133240316
10
91.91705240958656
20
35.676401133240319
10
91.944442409586571
20
35.667671133240319
10
91.969562409586558
20
35.65357113324032
10
91.991162409586565
20
35.634571133240321
10
92.008132409586551
20
35.611081133240326
10
92.019312409586561
20
35.583471133240323
10
92.023552409586557
20
35.552111133240324
10
92.02159240958656
20
35.525961133240322
10
92.019692409586554
20
35.517501133240323
10
91.829052409586552
20
34.690031133240325
10
91.521312409586542
20
33.354251133240325
10
90.713212409586561
20
29.846821133240326
10
90.70985240958656
20
29.832651133240326
10
90.687772409586557
20
29.760221133240321
10
90.659062409586554
20
29.688931133240324
10
90.652392409586554
20
29.675261133240323
0
LWPOLYLINE
5
121
100
AcDbEntity
8
0
100
AcDbPolyline
90
40
70
1
43
0.0
10
90.355302409586557
20
30.046471133240324
10
90.355302409586557
20
30.066211133240323
10
90.347322409586553
20
30.125401133240324
10
90.324492409586554
20
30.198921133240326
10
90.288412409586556
20
30.265381133240329
10
90.240602409586558
20
30.323321133240327
10
90.182672409586559
20
30.371131133240326
10
90.116162409586536
20
30.407251133240326
10
90.042642409586549
20
30.430041133240326
10
89.983452409586562
20
30.437961133240321
10
89.963752409586561
20
30.437961133240321
10
89.94400240958656
20
30.437961133240329
10
89.884812409586559
20
30.430041133240326
10
89.811352409586561
20
30.407251133240326
10
89.744842409586568
20
30.371131133240326
10
89.686892409586548
20
30.323321133240327
10
89.639102409586556
20
30.265381133240325
10
89.603022409586558
20
30.198921133240326
10
89.580182409586541
20
30.125401133240324
10
89.572252409586554
20
30.066211133240323
10
89.572252409586554
20
30.046471133240324
10
89.572252409586554
20
30.026781133240323
10
89.58018240958657
20
29.967581133240323
10
89.603022409586558
20
29.894071133240327
10
89.639102409586556
20
29.827561133240327
10
89.686892409586562
20
29.769611133240325
10
89.744842409586568
20
29.721821133240326
10
89.811352409586561
20
29.685741133240327
10
89.884812409586559
20
29.662891133240326
10
89.94400240958656
20
29.654921133240325
10
89.963752409586561
20
29.654921133240325
10
89.983452409586548
20
29.654921133240325
10
90.042642409586563
20
29.662891133240326
10
90.116162409586565
20
29.685741133240327
10
90.182672409586559
20
29.721821133240326
10
90.240602409586558
20
29.769611133240325
10
90.288412409586556
20
29.827561133240323
10
90.324492409586554
20
29.894071133240327
10
90.347322409586553
20
29.967581133240323
10
90.355302409586557
20
30.026781133240323
0
ENDSEC
0
SECTION
2
OBJECTS
0
DICTIONARY
5
C
100
AcDbDictionary
3
ACAD_GROUP
350
D
3
ACAD_MLINESTYLE
350
17
0
DICTIONARY
5
D
100
AcDbDictionary
0
DICTIONARY
5
1A
330
C
100
AcDbDictionary
0
DICTIONARY
5
17
100
AcDbDictionary
0
ENDSEC
0
EOF
