0
SECTION
2
HEADER
9
$INSUNITS
70
4
9
$ACADVER
1
AC1014
9
$HANDSEED
5
FFFF
0
ENDSEC
0
SECTION
2
TABLES
0
TABLE
2
VPORT
5
8
100
AcDbSymbolTable
0
ENDTAB
0
TABLE
2
LTYPE
5
5
100
AcDbSymbolTable
0
LTYPE
5
14
100
AcDbSymbolTableRecord
100
AcDbLinetypeTableRecord
2
BYBLOCK
70
0
0
LTYPE
5
15
100
AcDbSymbolTableRecord
100
AcDbLinetypeTableRecord
2
BYLAYER
70
0
0
ENDTAB
0
TABLE
2
LAYER
5
2
100
AcDbSymbolTable
70
2
0
LAYER
5
50
100
AcDbSymbolTableRecord
100
AcDbLayerTableRecord
2
0
70
0
6
CONTINUOUS
0
ENDTAB
0
TABLE
2
STYLE
5
3
100
AcDbSymbolTable
70
1
0
STYLE
5
11
100
AcDbSymbolTableRecord
100
AcDbTextStyleTableRecord
2
STANDARD
70
0
0
ENDTAB
0
TABLE
2
VIEW
5
6
100
AcDbSymbolTable
70
0
0
ENDTAB
0
TABLE
2
UCS
5
7
100
AcDbSymbolTable
70
0
0
ENDTAB
0
TABLE
2
APPID
5
9
100
AcDbSymbolTable
70
2
0
APPID
5
12
100
AcDbSymbolTableRecord
100
AcDbRegAppTableRecord
2
ACAD
70
0
0
ENDTAB
0
TABLE
2
DIMSTYLE
5
A
100
AcDbSymbolTable
70
1
0
ENDTAB
0
TABLE
2
BLOCK_RECORD
5
1
100
AcDbSymbolTable
70
1
0
BLOCK_RECORD
5
1F
100
AcDbSymbolTableRecord
100
AcDbBlockTableRecord
2
*MODEL_SPACE
0
BLOCK_RECORD
5
1B
100
AcDbSymbolTableRecord
100
AcDbBlockTableRecord
2
*PAPER_SPACE
0
ENDTAB
0
ENDSEC
0
SECTION
2
BLOCKS
0
BLOCK
5
20
100
AcDbEntity
100
AcDbBlockBegin
2
*MODEL_SPACE
0
ENDBLK
5
21
100
AcDbEntity
100
AcDbBlockEnd
0
BLOCK
5
1C
100
AcDbEntity
100
AcDbBlockBegin
2
*PAPER_SPACE
0
ENDBLK
5
1D
100
AcDbEntity
100
AcDbBlockEnd
0
ENDSEC
0
SECTION
2
ENTITIES
0
LINE
5
100
100
AcDbEntity
8
0
100
AcDbLine
10
934.60033794118203
20
1591.7996012340732
30
0
11
934.60033794118203
21
1491.9010794128283
31
0
0
LINE
5
101
100
AcDbEntity
8
0
100
AcDbLine
10
948.57033794118195
20
1491.9010794128283
30
0
11
948.57033794118195
21
1591.7996012340732
31
0
0
LINE
5
102
100
AcDbEntity
8
0
100
AcDbLine
10
1074.3003379411823
20
1591.7996012340732
30
0
11
1074.3003379411823
21
1491.9010794128283
31
0
0
LINE
5
103
100
AcDbEntity
8
0
100
AcDbLine
10
948.57033794118195
20
1620.602557591583
30
0
11
947.30033794118197
21
1620.602557591583
31
0
0
LINE
5
104
100
AcDbEntity
8
0
100
AcDbLine
10
953.06983594701614
20
1670.5518185022056
30
0
11
953.06983594701614
21
1542.7010794128278
31
0
0
LINE
5
105
100
AcDbEntity
8
0
100
AcDbLine
10
935.87033794118202
20
1720.5010794128279
30
0
11
935.87033794118202
21
1620.602557591583
31
0
0
LINE
5
106
100
AcDbEntity
8
0
100
AcDbLine
10
934.60033794118203
20
1620.602557591583
30
0
11
934.60033794118203
21
1720.5010794128279
31
0
0
LINE
5
107
100
AcDbEntity
8
0
100
AcDbLine
10
939.099835947016
20
1542.7010794128278
30
0
11
939.099835947016
21
1670.5518185022056
31
0
0
LINE
5
108
100
AcDbEntity
8
0
100
AcDbLine
10
935.87033794118202
20
1620.602557591583
30
0
11
934.60033794118203
21
1620.602557591583
31
0
0
LINE
5
109
100
AcDbEntity
8
0
100
AcDbLine
10
940.3698359470161
20
1670.5518185022056
30
0
11
940.3698359470161
21
1542.7010794128278
31
0
0
LINE
5
110
100
AcDbEntity
8
0
100
AcDbLine
10
1062.8703379411822
20
1591.7996012340732
30
0
11
1061.6003379411823
21
1591.7996012340732
31
0
0
LINE
5
111
100
AcDbEntity
8
0
100
AcDbLine
10
1075.5703379411825
20
1620.602557591583
30
0
11
1074.3003379411823
21
1620.602557591583
31
0
0
LINE
5
112
100
AcDbEntity
8
0
100
AcDbLine
10
1080.0698359470164
20
1670.5518185022056
30
0
11
1080.0698359470164
21
1542.7010794128278
31
0
0
LINE
5
113
100
AcDbEntity
8
0
100
AcDbLine
10
1062.8703379411822
20
1720.5010794128279
30
0
11
1062.8703379411822
21
1620.602557591583
31
0
0
LINE
5
114
100
AcDbEntity
8
0
100
AcDbLine
10
1061.6003379411823
20
1620.602557591583
30
0
11
1061.6003379411823
21
1720.5010794128279
31
0
0
LINE
5
115
100
AcDbEntity
8
0
100
AcDbLine
10
1066.0998359470163
20
1542.7010794128278
30
0
11
1066.0998359470163
21
1670.5518185022056
31
0
0
LINE
5
116
100
AcDbEntity
8
0
100
AcDbLine
10
1062.8703379411822
20
1620.602557591583
30
0
11
1061.6003379411823
21
1620.602557591583
31
0
0
LINE
5
117
100
AcDbEntity
8
0
100
AcDbLine
10
1067.3698359470163
20
1670.5518185022056
30
0
11
1067.3698359470163
21
1542.7010794128278
31
0
0
LINE
5
118
100
AcDbEntity
8
0
100
AcDbLine
10
1050.1703379411822
20
1720.5010794128279
30
0
11
1050.1703379411822
21
1620.602557591583
31
0
0
LINE
5
119
100
AcDbEntity
8
0
100
AcDbLine
10
1048.9003379411822
20
1620.602557591583
30
0
11
1048.9003379411822
21
1720.5010794128279
31
0
0
LINE
5
120
100
AcDbEntity
8
0
100
AcDbLine
10
1053.3998359470163
20
1542.7010794128278
30
0
11
1053.3998359470163
21
1670.5518185022056
31
0
0
LINE
5
121
100
AcDbEntity
8
0
100
AcDbLine
10
1050.1703379411822
20
1620.602557591583
30
0
11
1048.9003379411822
21
1620.602557591583
31
0
0
LINE
5
122
100
AcDbEntity
8
0
100
AcDbLine
10
1054.6698359470165
20
1670.5518185022056
30
0
11
1054.6698359470165
21
1542.7010794128278
31
0
0
LINE
5
123
100
AcDbEntity
8
0
100
AcDbLine
10
1037.4703379411822
20
1720.5010794128279
30
0
11
1037.4703379411822
21
1620.602557591583
31
0
0
LINE
5
124
100
AcDbEntity
8
0
100
AcDbLine
10
1036.2003379411822
20
1620.602557591583
30
0
11
1036.2003379411822
21
1720.5010794128279
31
0
0
LINE
5
125
100
AcDbEntity
8
0
100
AcDbLine
10
1040.6998359470163
20
1542.7010794128278
30
0
11
1040.6998359470163
21
1670.5518185022056
31
0
0
LINE
5
126
100
AcDbEntity
8
0
100
AcDbLine
10
1037.4703379411822
20
1620.602557591583
30
0
11
1036.2003379411822
21
1620.602557591583
31
0
0
LINE
5
127
100
AcDbEntity
8
0
100
AcDbLine
10
1041.9698359470162
20
1670.5518185022056
30
0
11
1041.9698359470162
21
1542.7010794128278
31
0
0
LINE
5
128
100
AcDbEntity
8
0
100
AcDbLine
10
1151.7703379411823
20
1720.5010794128279
30
0
11
1151.7703379411823
21
1620.602557591583
31
0
0
LINE
5
129
100
AcDbEntity
8
0
100
AcDbLine
10
1150.5003379411826
20
1620.602557591583
30
0
11
1150.5003379411826
21
1720.5010794128279
31
0
0
LINE
5
130
100
AcDbEntity
8
0
100
AcDbLine
10
1151.7703379411823
20
1620.602557591583
30
0
11
1150.5003379411826
21
1620.602557591583
31
0
0
LINE
5
131
100
AcDbEntity
8
0
100
AcDbLine
10
1139.0703379411825
20
1720.5010794128279
30
0
11
1139.0703379411825
21
1620.602557591583
31
0
0
LINE
5
132
100
AcDbEntity
8
0
100
AcDbLine
10
1016.5698359470163
20
1670.5518185022056
30
0
11
1016.5698359470163
21
1542.7010794128278
31
0
0
LINE
5
133
100
AcDbEntity
8
0
100
AcDbLine
10
999.37033794118202
20
1720.5010794128279
30
0
11
999.37033794118202
21
1620.602557591583
31
0
0
LINE
5
134
100
AcDbEntity
8
0
100
AcDbLine
10
998.10033794118215
20
1620.602557591583
30
0
11
998.10033794118215
21
1720.5010794128279
31
0
0
LINE
5
135
100
AcDbEntity
8
0
100
AcDbLine
10
1002.5998359470162
20
1542.7010794128278
30
0
11
1002.5998359470162
21
1670.5518185022056
31
0
0
LINE
5
136
100
AcDbEntity
8
0
100
AcDbLine
10
999.37033794118202
20
1620.602557591583
30
0
11
998.10033794118215
21
1620.602557591583
31
0
0
LINE
5
137
100
AcDbEntity
8
0
100
AcDbLine
10
1003.8698359470163
20
1670.5518185022056
30
0
11
1003.8698359470163
21
1542.7010794128278
31
0
0
LINE
5
138
100
AcDbEntity
8
0
100
AcDbLine
10
986.67033794118208
20
1720.5010794128279
30
0
11
986.67033794118208
21
1620.602557591583
31
0
0
LINE
5
139
100
AcDbEntity
8
0
100
AcDbLine
10
985.40033794118222
20
1620.602557591583
30
0
11
985.40033794118222
21
1720.5010794128279
31
0
0
LINE
5
140
100
AcDbEntity
8
0
100
AcDbLine
10
989.89983594701607
20
1542.7010794128278
30
0
11
989.89983594701607
21
1670.5518185022056
31
0
0
LINE
5
141
100
AcDbEntity
8
0
100
AcDbLine
10
986.67033794118208
20
1620.602557591583
30
0
11
985.40033794118222
21
1620.602557591583
31
0
0
LINE
5
142
100
AcDbEntity
8
0
100
AcDbLine
10
991.16983594701628
20
1670.5518185022056
30
0
11
991.16983594701628
21
1542.7010794128278
31
0
0
LINE
5
143
100
AcDbEntity
8
0
100
AcDbLine
10
973.97033794118215
20
1720.5010794128279
30
0
11
973.97033794118215
21
1620.602557591583
31
0
0
LINE
5
144
100
AcDbEntity
8
0
100
AcDbLine
10
972.70033794118206
20
1620.602557591583
30
0
11
972.70033794118206
21
1720.5010794128279
31
0
0
LINE
5
145
100
AcDbEntity
8
0
100
AcDbLine
10
977.19983594701614
20
1542.7010794128278
30
0
11
977.19983594701614
21
1670.5518185022056
31
0
0
LINE
5
146
100
AcDbEntity
8
0
100
AcDbLine
10
973.97033794118215
20
1620.602557591583
30
0
11
972.70033794118206
21
1620.602557591583
31
0
0
LINE
5
147
100
AcDbEntity
8
0
100
AcDbLine
10
978.46983594701612
20
1670.5518185022056
30
0
11
978.46983594701612
21
1542.7010794128278
31
0
0
LINE
5
148
100
AcDbEntity
8
0
100
AcDbLine
10
1088.2703379411823
20
1720.5010794128279
30
0
11
1088.2703379411823
21
1620.602557591583
31
0
0
LINE
5
149
100
AcDbEntity
8
0
100
AcDbLine
10
1087.0003379411824
20
1620.602557591583
30
0
11
1087.0003379411824
21
1720.5010794128279
31
0
0
LINE
5
150
100
AcDbEntity
8
0
100
AcDbLine
10
1091.4998359470164
20
1542.7010794128278
30
0
11
1091.4998359470164
21
1670.5518185022056
31
0
0
LINE
5
151
100
AcDbEntity
8
0
100
AcDbLine
10
1075.5703379411825
20
1591.7996012340732
30
0
11
1074.3003379411823
21
1591.7996012340732
31
0
0
LINE
5
152
100
AcDbEntity
8
0
100
AcDbLine
10
862.89983594701596
20
1542.7010794128278
30
0
11
862.89983594701596
21
1670.5518185022056
31
0
0
LINE
5
153
100
AcDbEntity
8
0
100
AcDbLine
10
858.40033794118176
20
1620.602557591583
30
0
11
858.40033794118176
21
1720.5010794128279
31
0
0
LINE
5
154
100
AcDbEntity
8
0
100
AcDbLine
10
859.67033794118174
20
1720.5010794128279
30
0
11
859.67033794118174
21
1620.602557591583
31
0
0
LINE
5
155
100
AcDbEntity
8
0
100
AcDbLine
10
876.86983594701587
20
1670.5518185022056
30
0
11
876.86983594701587
21
1542.7010794128278
31
0
0
LINE
5
156
100
AcDbEntity
8
0
100
AcDbLine
10
872.3703379411819
20
1620.602557591583
30
0
11
871.10033794118181
21
1620.602557591583
31
0
0
LINE
5
157
100
AcDbEntity
8
0
100
AcDbLine
10
872.3703379411819
20
1591.7996012340732
30
0
11
871.10033794118181
21
1591.7996012340732
31
0
0
LINE
5
158
100
AcDbEntity
8
0
100
AcDbLine
10
875.59983594701589
20
1542.7010794128278
30
0
11
875.59983594701589
21
1670.5518185022056
31
0
0
LINE
5
159
100
AcDbEntity
8
0
100
AcDbLine
10
871.10033794118181
20
1620.602557591583
30
0
11
871.10033794118181
21
1720.5010794128279
31
0
0
LINE
5
160
100
AcDbEntity
8
0
100
AcDbLine
10
770.77033794118165
20
1620.602557591583
30
0
11
769.50033794118156
21
1620.602557591583
31
0
0
LINE
5
161
100
AcDbEntity
8
0
100
AcDbLine
10
770.77033794118165
20
1591.7996012340732
30
0
11
769.50033794118156
21
1591.7996012340732
31
0
0
LINE
5
162
100
AcDbEntity
8
0
100
AcDbLine
10
773.99983594701564
20
1542.7010794128278
30
0
11
773.99983594701564
21
1670.5518185022056
31
0
0
LINE
5
163
100
AcDbEntity
8
0
100
AcDbLine
10
896.5003379411819
20
1591.7996012340732
30
0
11
896.5003379411819
21
1491.9010794128283
31
0
0
LINE
5
164
100
AcDbEntity
8
0
100
AcDbLine
10
897.77033794118188
20
1491.9010794128283
30
0
11
897.77033794118188
21
1591.7996012340732
31
0
0
LINE
5
165
100
AcDbEntity
8
0
100
AcDbLine
10
883.80033794118185
20
1591.7996012340732
30
0
11
883.80033794118185
21
1491.9010794128283
31
0
0
LINE
5
166
100
AcDbEntity
8
0
100
AcDbLine
10
885.07033794118183
20
1491.9010794128283
30
0
11
885.07033794118183
21
1591.7996012340732
31
0
0
LINE
5
167
100
AcDbEntity
8
0
100
AcDbLine
10
737.1698359470156
20
1670.5518185022056
30
0
11
737.1698359470156
21
1542.7010794128278
31
0
0
LINE
5
168
100
AcDbEntity
8
0
100
AcDbLine
10
732.67033794118151
20
1620.602557591583
30
0
11
731.40033794118153
21
1620.602557591583
31
0
0
LINE
5
169
100
AcDbEntity
8
0
100
AcDbLine
10
732.67033794118151
20
1591.7996012340732
30
0
11
731.40033794118153
21
1591.7996012340732
31
0
0
LINE
5
170
100
AcDbEntity
8
0
100
AcDbLine
10
681.87033794118133
20
1620.602557591583
30
0
11
680.60033794118135
21
1620.602557591583
31
0
0
LINE
5
171
100
AcDbEntity
8
0
100
AcDbLine
10
681.87033794118133
20
1591.7996012340732
30
0
11
680.60033794118135
21
1591.7996012340732
31
0
0
LINE
5
172
100
AcDbEntity
8
0
100
AcDbLine
10
685.09983594701544
20
1542.7010794128278
30
0
11
685.09983594701544
21
1670.5518185022056
31
0
0
LINE
5
173
100
AcDbEntity
8
0
100
AcDbLine
10
680.60033794118135
20
1620.602557591583
30
0
11
680.60033794118135
21
1720.5010794128279
31
0
0
LINE
5
174
100
AcDbEntity
8
0
100
AcDbLine
10
681.87033794118133
20
1720.5010794128279
30
0
11
681.87033794118133
21
1620.602557591583
31
0
0
LINE
5
175
100
AcDbEntity
8
0
100
AcDbLine
10
699.06983594701558
20
1670.5518185022056
30
0
11
699.06983594701558
21
1542.7010794128278
31
0
0
LINE
5
176
100
AcDbEntity
8
0
100
AcDbLine
10
783.47033794118158
20
1720.5010794128279
30
0
11
783.47033794118158
21
1620.602557591583
31
0
0
LINE
5
177
100
AcDbEntity
8
0
100
AcDbLine
10
800.66983594701583
20
1670.5518185022056
30
0
11
800.66983594701583
21
1542.7010794128278
31
0
0
LINE
5
178
100
AcDbEntity
8
0
100
AcDbLine
10
871.10033794118181
20
1591.7996012340732
30
0
11
871.10033794118181
21
1491.9010794128283
31
0
0
LINE
5
179
100
AcDbEntity
8
0
100
AcDbLine
10
872.3703379411819
20
1491.9010794128283
30
0
11
872.3703379411819
21
1591.7996012340732
31
0
0
LINE
5
180
100
AcDbEntity
8
0
100
AcDbLine
10
858.40033794118176
20
1591.7996012340732
30
0
11
858.40033794118176
21
1491.9010794128283
31
0
0
LINE
5
181
100
AcDbEntity
8
0
100
AcDbLine
10
859.67033794118174
20
1491.9010794128283
30
0
11
859.67033794118174
21
1591.7996012340732
31
0
0
LINE
5
182
100
AcDbEntity
8
0
100
AcDbLine
10
680.60033794118135
20
1591.7996012340732
30
0
11
680.60033794118135
21
1491.9010794128283
31
0
0
LINE
5
183
100
AcDbEntity
8
0
100
AcDbLine
10
681.87033794118133
20
1491.9010794128283
30
0
11
681.87033794118133
21
1591.7996012340732
31
0
0
LINE
5
184
100
AcDbEntity
8
0
100
AcDbLine
10
667.90033794118131
20
1591.7996012340732
30
0
11
667.90033794118131
21
1491.9010794128283
31
0
0
LINE
5
185
100
AcDbEntity
8
0
100
AcDbLine
10
669.1703379411814
20
1491.9010794128283
30
0
11
669.1703379411814
21
1591.7996012340732
31
0
0
LINE
5
186
100
AcDbEntity
8
0
100
AcDbLine
10
655.20033794118126
20
1591.7996012340732
30
0
11
655.20033794118126
21
1491.9010794128283
31
0
0
LINE
5
187
100
AcDbEntity
8
0
100
AcDbLine
10
656.47033794118124
20
1491.9010794128283
30
0
11
656.47033794118124
21
1591.7996012340732
31
0
0
LINE
5
188
100
AcDbEntity
8
0
100
AcDbLine
10
642.50033794118121
20
1591.7996012340732
30
0
11
642.50033794118121
21
1491.9010794128283
31
0
0
LINE
5
189
100
AcDbEntity
8
0
100
AcDbLine
10
643.7703379411812
20
1491.9010794128283
30
0
11
643.7703379411812
21
1591.7996012340732
31
0
0
LINE
5
190
100
AcDbEntity
8
0
100
AcDbLine
10
629.80033794118117
20
1591.7996012340732
30
0
11
629.80033794118117
21
1491.9010794128283
31
0
0
LINE
5
191
100
AcDbEntity
8
0
100
AcDbLine
10
631.07033794118126
20
1491.9010794128283
30
0
11
631.07033794118126
21
1591.7996012340732
31
0
0
LINE
5
192
100
AcDbEntity
8
0
100
AcDbLine
10
897.77033794118188
20
1720.5010794128279
30
0
11
897.77033794118188
21
1620.602557591583
31
0
0
LINE
5
193
100
AcDbEntity
8
0
100
AcDbLine
10
909.20033794118183
20
1591.7996012340732
30
0
11
909.20033794118183
21
1491.9010794128283
31
0
0
LINE
5
194
100
AcDbEntity
8
0
100
AcDbLine
10
923.17033794118197
20
1491.9010794128283
30
0
11
923.17033794118197
21
1591.7996012340732
31
0
0
LINE
5
195
100
AcDbEntity
8
0
100
AcDbLine
10
923.17033794118197
20
1591.7996012340732
30
0
11
921.90033794118199
21
1591.7996012340732
31
0
0
LINE
5
196
100
AcDbEntity
8
0
100
AcDbLine
10
921.90033794118199
20
1591.7996012340732
30
0
11
921.90033794118199
21
1491.9010794128283
31
0
0
LINE
5
197
100
AcDbEntity
8
0
100
AcDbLine
10
935.87033794118202
20
1491.9010794128283
30
0
11
935.87033794118202
21
1591.7996012340732
31
0
0
LINE
5
198
100
AcDbEntity
8
0
100
AcDbLine
10
935.87033794118202
20
1591.7996012340732
30
0
11
934.60033794118203
21
1591.7996012340732
31
0
0
LINE
5
199
100
AcDbEntity
8
0
100
AcDbLine
10
910.47033794118192
20
1491.9010794128283
30
0
11
910.47033794118192
21
1591.7996012340732
31
0
0
LINE
5
200
100
AcDbEntity
8
0
100
AcDbLine
10
910.47033794118192
20
1591.7996012340732
30
0
11
909.20033794118183
21
1591.7996012340732
31
0
0
LINE
5
201
100
AcDbEntity
8
0
100
AcDbLine
10
719.97033794118147
20
1591.7996012340732
30
0
11
718.70033794118149
21
1591.7996012340732
31
0
0
LINE
5
202
100
AcDbEntity
8
0
100
AcDbLine
10
723.19983594701557
20
1542.7010794128278
30
0
11
723.19983594701557
21
1670.5518185022056
31
0
0
LINE
5
203
100
AcDbEntity
8
0
100
AcDbLine
10
718.70033794118149
20
1620.602557591583
30
0
11
718.70033794118149
21
1720.5010794128279
31
0
0
LINE
5
204
100
AcDbEntity
8
0
100
AcDbLine
10
719.97033794118147
20
1720.5010794128279
30
0
11
719.97033794118147
21
1620.602557591583
31
0
0
LINE
5
205
100
AcDbEntity
8
0
100
AcDbLine
10
799.39983594701573
20
1542.7010794128278
30
0
11
799.39983594701573
21
1670.5518185022056
31
0
0
LINE
5
206
100
AcDbEntity
8
0
100
AcDbLine
10
794.90033794118165
20
1620.602557591583
30
0
11
794.90033794118165
21
1720.5010794128279
31
0
0
LINE
5
207
100
AcDbEntity
8
0
100
AcDbLine
10
796.17033794118151
20
1720.5010794128279
30
0
11
796.17033794118151
21
1620.602557591583
31
0
0
LINE
5
208
100
AcDbEntity
8
0
100
AcDbLine
10
813.36983594701576
20
1670.5518185022056
30
0
11
813.36983594701576
21
1542.7010794128278
31
0
0
LINE
5
209
100
AcDbEntity
8
0
100
AcDbLine
10
808.87033794118167
20
1620.602557591583
30
0
11
807.60033794118158
21
1620.602557591583
31
0
0
LINE
5
210
100
AcDbEntity
8
0
100
AcDbLine
10
808.87033794118167
20
1591.7996012340732
30
0
11
807.60033794118158
21
1591.7996012340732
31
0
0
LINE
5
211
100
AcDbEntity
8
0
100
AcDbLine
10
812.09983594701589
20
1542.7010794128278
30
0
11
812.09983594701589
21
1670.5518185022056
31
0
0
LINE
5
212
100
AcDbEntity
8
0
100
AcDbLine
10
796.17033794118151
20
1620.602557591583
30
0
11
794.90033794118165
21
1620.602557591583
31
0
0
LINE
5
213
100
AcDbEntity
8
0
100
AcDbLine
10
796.17033794118151
20
1591.7996012340732
30
0
11
794.90033794118165
21
1591.7996012340732
31
0
0
LINE
5
214
100
AcDbEntity
8
0
100
AcDbLine
10
872.3703379411819
20
1720.5010794128279
30
0
11
872.3703379411819
21
1620.602557591583
31
0
0
LINE
5
215
100
AcDbEntity
8
0
100
AcDbLine
10
889.56983594701592
20
1670.5518185022056
30
0
11
889.56983594701592
21
1542.7010794128278
31
0
0
LINE
5
216
100
AcDbEntity
8
0
100
AcDbLine
10
885.07033794118183
20
1620.602557591583
30
0
11
883.80033794118185
21
1620.602557591583
31
0
0
LINE
5
217
100
AcDbEntity
8
0
100
AcDbLine
10
885.07033794118183
20
1591.7996012340732
30
0
11
883.80033794118185
21
1591.7996012340732
31
0
0
LINE
5
218
100
AcDbEntity
8
0
100
AcDbLine
10
888.29983594701594
20
1542.7010794128278
30
0
11
888.29983594701594
21
1670.5518185022056
31
0
0
LINE
5
219
100
AcDbEntity
8
0
100
AcDbLine
10
826.06983594701569
20
1670.5518185022056
30
0
11
826.06983594701569
21
1542.7010794128278
31
0
0
LINE
5
220
100
AcDbEntity
8
0
100
AcDbLine
10
821.57033794118183
20
1620.602557591583
30
0
11
820.30033794118162
21
1620.602557591583
31
0
0
LINE
5
221
100
AcDbEntity
8
0
100
AcDbLine
10
821.57033794118183
20
1591.7996012340732
30
0
11
820.30033794118162
21
1591.7996012340732
31
0
0
LINE
5
222
100
AcDbEntity
8
0
100
AcDbLine
10
824.79983594701582
20
1542.7010794128278
30
0
11
824.79983594701582
21
1670.5518185022056
31
0
0
LINE
5
223
100
AcDbEntity
8
0
100
AcDbLine
10
820.30033794118162
20
1620.602557591583
30
0
11
820.30033794118162
21
1720.5010794128279
31
0
0
LINE
5
224
100
AcDbEntity
8
0
100
AcDbLine
10
821.57033794118183
20
1720.5010794128279
30
0
11
821.57033794118183
21
1620.602557591583
31
0
0
LINE
5
225
100
AcDbEntity
8
0
100
AcDbLine
10
838.76983594701585
20
1670.5518185022056
30
0
11
838.76983594701585
21
1542.7010794128278
31
0
0
LINE
5
226
100
AcDbEntity
8
0
100
AcDbLine
10
834.27033794118177
20
1620.602557591583
30
0
11
833.00033794118178
21
1620.602557591583
31
0
0
LINE
5
227
100
AcDbEntity
8
0
100
AcDbLine
10
834.27033794118177
20
1591.7996012340732
30
0
11
833.00033794118178
21
1591.7996012340732
31
0
0
LINE
5
228
100
AcDbEntity
8
0
100
AcDbLine
10
837.49983594701575
20
1542.7010794128278
30
0
11
837.49983594701575
21
1670.5518185022056
31
0
0
LINE
5
229
100
AcDbEntity
8
0
100
AcDbLine
10
833.00033794118178
20
1620.602557591583
30
0
11
833.00033794118178
21
1720.5010794128279
31
0
0
LINE
5
230
100
AcDbEntity
8
0
100
AcDbLine
10
834.27033794118177
20
1720.5010794128279
30
0
11
834.27033794118177
21
1620.602557591583
31
0
0
LINE
5
231
100
AcDbEntity
8
0
100
AcDbLine
10
807.60033794118158
20
1591.7996012340732
30
0
11
807.60033794118158
21
1491.9010794128283
31
0
0
LINE
5
232
100
AcDbEntity
8
0
100
AcDbLine
10
808.87033794118167
20
1491.9010794128283
30
0
11
808.87033794118167
21
1591.7996012340732
31
0
0
LINE
5
233
100
AcDbEntity
8
0
100
AcDbLine
10
794.90033794118165
20
1591.7996012340732
30
0
11
794.90033794118165
21
1491.9010794128283
31
0
0
LINE
5
234
100
AcDbEntity
8
0
100
AcDbLine
10
796.17033794118151
20
1491.9010794128283
30
0
11
796.17033794118151
21
1591.7996012340732
31
0
0
LINE
5
235
100
AcDbEntity
8
0
100
AcDbLine
10
782.20033794118171
20
1591.7996012340732
30
0
11
782.20033794118171
21
1491.9010794128283
31
0
0
LINE
5
236
100
AcDbEntity
8
0
100
AcDbLine
10
783.47033794118158
20
1491.9010794128283
30
0
11
783.47033794118158
21
1591.7996012340732
31
0
0
LINE
5
237
100
AcDbEntity
8
0
100
AcDbLine
10
769.50033794118156
20
1591.7996012340732
30
0
11
769.50033794118156
21
1491.9010794128283
31
0
0
LINE
5
238
100
AcDbEntity
8
0
100
AcDbLine
10
770.77033794118165
20
1491.9010794128283
30
0
11
770.77033794118165
21
1591.7996012340732
31
0
0
LINE
5
239
100
AcDbEntity
8
0
100
AcDbLine
10
635.56983594701535
20
1670.5518185022056
30
0
11
635.56983594701535
21
1542.7010794128278
31
0
0
LINE
5
240
100
AcDbEntity
8
0
100
AcDbLine
10
631.07033794118126
20
1620.602557591583
30
0
11
629.80033794118117
21
1620.602557591583
31
0
0
LINE
5
241
100
AcDbEntity
8
0
100
AcDbLine
10
631.07033794118126
20
1591.7996012340732
30
0
11
629.80033794118117
21
1591.7996012340732
31
0
0
LINE
5
242
100
AcDbEntity
8
0
100
AcDbLine
10
634.29983594701537
20
1542.7010794128278
30
0
11
634.29983594701537
21
1670.5518185022056
31
0
0
LINE
5
243
100
AcDbEntity
8
0
100
AcDbLine
10
756.8003379411814
20
1591.7996012340732
30
0
11
756.8003379411814
21
1491.9010794128283
31
0
0
LINE
5
244
100
AcDbEntity
8
0
100
AcDbLine
10
758.07033794118161
20
1491.9010794128283
30
0
11
758.07033794118161
21
1591.7996012340732
31
0
0
LINE
5
245
100
AcDbEntity
8
0
100
AcDbLine
10
744.10033794118146
20
1591.7996012340732
30
0
11
744.10033794118146
21
1491.9010794128283
31
0
0
LINE
5
246
100
AcDbEntity
8
0
100
AcDbLine
10
745.37033794118145
20
1491.9010794128283
30
0
11
745.37033794118145
21
1591.7996012340732
31
0
0
LINE
5
247
100
AcDbEntity
8
0
100
AcDbLine
10
731.40033794118153
20
1591.7996012340732
30
0
11
731.40033794118153
21
1491.9010794128283
31
0
0
LINE
5
248
100
AcDbEntity
8
0
100
AcDbLine
10
732.67033794118151
20
1491.9010794128283
30
0
11
732.67033794118151
21
1591.7996012340732
31
0
0
LINE
5
249
100
AcDbEntity
8
0
100
AcDbLine
10
718.70033794118149
20
1591.7996012340732
30
0
11
718.70033794118149
21
1491.9010794128283
31
0
0
LINE
5
250
100
AcDbEntity
8
0
100
AcDbLine
10
719.97033794118147
20
1491.9010794128283
30
0
11
719.97033794118147
21
1591.7996012340732
31
0
0
LINE
5
251
100
AcDbEntity
8
0
100
AcDbLine
10
851.46983594701601
20
1670.5518185022056
30
0
11
851.46983594701601
21
1542.7010794128278
31
0
0
LINE
5
252
100
AcDbEntity
8
0
100
AcDbLine
10
846.9703379411817
20
1620.602557591583
30
0
11
845.70033794118171
21
1620.602557591583
31
0
0
LINE
5
253
100
AcDbEntity
8
0
100
AcDbLine
10
846.9703379411817
20
1591.7996012340732
30
0
11
845.70033794118171
21
1591.7996012340732
31
0
0
LINE
5
254
100
AcDbEntity
8
0
100
AcDbLine
10
850.1998359470158
20
1542.7010794128278
30
0
11
850.1998359470158
21
1670.5518185022056
31
0
0
LINE
5
255
100
AcDbEntity
8
0
100
AcDbLine
10
845.70033794118171
20
1620.602557591583
30
0
11
845.70033794118171
21
1720.5010794128279
31
0
0
LINE
5
256
100
AcDbEntity
8
0
100
AcDbLine
10
846.9703379411817
20
1720.5010794128279
30
0
11
846.9703379411817
21
1620.602557591583
31
0
0
LINE
5
257
100
AcDbEntity
8
0
100
AcDbLine
10
864.16983594701594
20
1670.5518185022056
30
0
11
864.16983594701594
21
1542.7010794128278
31
0
0
LINE
5
258
100
AcDbEntity
8
0
100
AcDbLine
10
859.67033794118174
20
1620.602557591583
30
0
11
858.40033794118176
21
1620.602557591583
31
0
0
LINE
5
259
100
AcDbEntity
8
0
100
AcDbLine
10
859.67033794118174
20
1591.7996012340732
30
0
11
858.40033794118176
21
1591.7996012340732
31
0
0
LINE
5
260
100
AcDbEntity
8
0
100
AcDbLine
10
706.00033794118133
20
1591.7996012340732
30
0
11
706.00033794118133
21
1491.9010794128283
31
0
0
LINE
5
261
100
AcDbEntity
8
0
100
AcDbLine
10
707.27033794118142
20
1491.9010794128283
30
0
11
707.27033794118142
21
1591.7996012340732
31
0
0
LINE
5
262
100
AcDbEntity
8
0
100
AcDbLine
10
693.3003379411814
20
1591.7996012340732
30
0
11
693.3003379411814
21
1491.9010794128283
31
0
0
LINE
5
263
100
AcDbEntity
8
0
100
AcDbLine
10
694.57033794118138
20
1491.9010794128283
30
0
11
694.57033794118138
21
1591.7996012340732
31
0
0
LINE
5
264
100
AcDbEntity
8
0
100
AcDbLine
10
883.80033794118185
20
1620.602557591583
30
0
11
883.80033794118185
21
1720.5010794128279
31
0
0
LINE
5
265
100
AcDbEntity
8
0
100
AcDbLine
10
885.07033794118183
20
1720.5010794128279
30
0
11
885.07033794118183
21
1620.602557591583
31
0
0
LINE
5
266
100
AcDbEntity
8
0
100
AcDbLine
10
902.26983594701608
20
1670.5518185022056
30
0
11
902.26983594701608
21
1542.7010794128278
31
0
0
LINE
5
267
100
AcDbEntity
8
0
100
AcDbLine
10
897.77033794118188
20
1620.602557591583
30
0
11
896.5003379411819
21
1620.602557591583
31
0
0
LINE
5
268
100
AcDbEntity
8
0
100
AcDbLine
10
897.77033794118188
20
1591.7996012340732
30
0
11
896.5003379411819
21
1591.7996012340732
31
0
0
LINE
5
269
100
AcDbEntity
8
0
100
AcDbLine
10
900.99983594701598
20
1542.7010794128278
30
0
11
900.99983594701598
21
1670.5518185022056
31
0
0
LINE
5
270
100
AcDbEntity
8
0
100
AcDbLine
10
896.5003379411819
20
1620.602557591583
30
0
11
896.5003379411819
21
1720.5010794128279
31
0
0
LINE
5
271
100
AcDbEntity
8
0
100
AcDbLine
10
1024.7703379411823
20
1591.7996012340732
30
0
11
1023.5003379411821
21
1591.7996012340732
31
0
0
LINE
5
272
100
AcDbEntity
8
0
100
AcDbLine
10
1023.5003379411821
20
1591.7996012340732
30
0
11
1023.5003379411821
21
1491.9010794128283
31
0
0
LINE
5
273
100
AcDbEntity
8
0
100
AcDbLine
10
1037.4703379411822
20
1491.9010794128283
30
0
11
1037.4703379411822
21
1591.7996012340732
31
0
0
LINE
5
274
100
AcDbEntity
8
0
100
AcDbLine
10
1037.4703379411822
20
1591.7996012340732
30
0
11
1036.2003379411822
21
1591.7996012340732
31
0
0
LINE
5
275
100
AcDbEntity
8
0
100
AcDbLine
10
1036.2003379411822
20
1591.7996012340732
30
0
11
1036.2003379411822
21
1491.9010794128283
31
0
0
LINE
5
276
100
AcDbEntity
8
0
100
AcDbLine
10
1050.1703379411822
20
1491.9010794128283
30
0
11
1050.1703379411822
21
1591.7996012340732
31
0
0
LINE
5
277
100
AcDbEntity
8
0
100
AcDbLine
10
1050.1703379411822
20
1591.7996012340732
30
0
11
1048.9003379411822
21
1591.7996012340732
31
0
0
LINE
5
278
100
AcDbEntity
8
0
100
AcDbLine
10
1048.9003379411822
20
1591.7996012340732
30
0
11
1048.9003379411822
21
1491.9010794128283
31
0
0
LINE
5
279
100
AcDbEntity
8
0
100
AcDbLine
10
1062.8703379411822
20
1491.9010794128283
30
0
11
1062.8703379411822
21
1591.7996012340732
31
0
0
LINE
5
280
100
AcDbEntity
8
0
100
AcDbLine
10
735.8998359470155
20
1542.7010794128278
30
0
11
735.8998359470155
21
1670.5518185022056
31
0
0
LINE
5
281
100
AcDbEntity
8
0
100
AcDbLine
10
731.40033794118153
20
1620.602557591583
30
0
11
731.40033794118153
21
1720.5010794128279
31
0
0
LINE
5
282
100
AcDbEntity
8
0
100
AcDbLine
10
732.67033794118151
20
1720.5010794128279
30
0
11
732.67033794118151
21
1620.602557591583
31
0
0
LINE
5
283
100
AcDbEntity
8
0
100
AcDbLine
10
749.86983594701564
20
1670.5518185022056
30
0
11
749.86983594701564
21
1542.7010794128278
31
0
0
LINE
5
284
100
AcDbEntity
8
0
100
AcDbLine
10
745.37033794118145
20
1620.602557591583
30
0
11
744.10033794118146
21
1620.602557591583
31
0
0
LINE
5
285
100
AcDbEntity
8
0
100
AcDbLine
10
646.9998359470153
20
1542.7010794128278
30
0
11
646.9998359470153
21
1670.5518185022056
31
0
0
LINE
5
286
100
AcDbEntity
8
0
100
AcDbLine
10
642.50033794118121
20
1620.602557591583
30
0
11
642.50033794118121
21
1720.5010794128279
31
0
0
LINE
5
287
100
AcDbEntity
8
0
100
AcDbLine
10
643.7703379411812
20
1720.5010794128279
30
0
11
643.7703379411812
21
1620.602557591583
31
0
0
LINE
5
288
100
AcDbEntity
8
0
100
AcDbLine
10
660.96983594701544
20
1670.5518185022056
30
0
11
660.96983594701544
21
1542.7010794128278
31
0
0
LINE
5
289
100
AcDbEntity
8
0
100
AcDbLine
10
656.47033794118124
20
1620.602557591583
30
0
11
655.20033794118126
21
1620.602557591583
31
0
0
LINE
5
290
100
AcDbEntity
8
0
100
AcDbLine
10
656.47033794118124
20
1591.7996012340732
30
0
11
655.20033794118126
21
1591.7996012340732
31
0
0
LINE
5
291
100
AcDbEntity
8
0
100
AcDbLine
10
659.69983594701546
20
1542.7010794128278
30
0
11
659.69983594701546
21
1670.5518185022056
31
0
0
LINE
5
292
100
AcDbEntity
8
0
100
AcDbLine
10
655.20033794118126
20
1620.602557591583
30
0
11
655.20033794118126
21
1720.5010794128279
31
0
0
LINE
5
293
100
AcDbEntity
8
0
100
AcDbLine
10
656.47033794118124
20
1720.5010794128279
30
0
11
656.47033794118124
21
1620.602557591583
31
0
0
LINE
5
294
100
AcDbEntity
8
0
100
AcDbLine
10
673.66983594701537
20
1670.5518185022056
30
0
11
673.66983594701537
21
1542.7010794128278
31
0
0
LINE
5
295
100
AcDbEntity
8
0
100
AcDbLine
10
845.70033794118171
20
1591.7996012340732
30
0
11
845.70033794118171
21
1491.9010794128283
31
0
0
LINE
5
296
100
AcDbEntity
8
0
100
AcDbLine
10
846.9703379411817
20
1491.9010794128283
30
0
11
846.9703379411817
21
1591.7996012340732
31
0
0
LINE
5
297
100
AcDbEntity
8
0
100
AcDbLine
10
833.00033794118178
20
1591.7996012340732
30
0
11
833.00033794118178
21
1491.9010794128283
31
0
0
LINE
5
298
100
AcDbEntity
8
0
100
AcDbLine
10
834.27033794118177
20
1491.9010794128283
30
0
11
834.27033794118177
21
1591.7996012340732
31
0
0
LINE
5
299
100
AcDbEntity
8
0
100
AcDbLine
10
820.30033794118162
20
1591.7996012340732
30
0
11
820.30033794118162
21
1491.9010794128283
31
0
0
LINE
5
300
100
AcDbEntity
8
0
100
AcDbLine
10
821.57033794118183
20
1491.9010794128283
30
0
11
821.57033794118183
21
1591.7996012340732
31
0
0
LINE
5
301
100
AcDbEntity
8
0
100
AcDbLine
10
745.37033794118145
20
1591.7996012340732
30
0
11
744.10033794118146
21
1591.7996012340732
31
0
0
LINE
5
302
100
AcDbEntity
8
0
100
AcDbLine
10
748.59983594701566
20
1542.7010794128278
30
0
11
748.59983594701566
21
1670.5518185022056
31
0
0
LINE
5
303
100
AcDbEntity
8
0
100
AcDbLine
10
744.10033794118146
20
1620.602557591583
30
0
11
744.10033794118146
21
1720.5010794128279
31
0
0
LINE
5
304
100
AcDbEntity
8
0
100
AcDbLine
10
745.37033794118145
20
1720.5010794128279
30
0
11
745.37033794118145
21
1620.602557591583
31
0
0
LINE
5
305
100
AcDbEntity
8
0
100
AcDbLine
10
762.56983594701569
20
1670.5518185022056
30
0
11
762.56983594701569
21
1542.7010794128278
31
0
0
LINE
5
306
100
AcDbEntity
8
0
100
AcDbLine
10
807.60033794118158
20
1620.602557591583
30
0
11
807.60033794118158
21
1720.5010794128279
31
0
0
LINE
5
307
100
AcDbEntity
8
0
100
AcDbLine
10
808.87033794118167
20
1720.5010794128279
30
0
11
808.87033794118167
21
1620.602557591583
31
0
0
LINE
5
308
100
AcDbEntity
8
0
100
AcDbLine
10
629.80033794118117
20
1620.602557591583
30
0
11
629.80033794118117
21
1720.5010794128279
31
0
0
LINE
5
309
100
AcDbEntity
8
0
100
AcDbLine
10
631.07033794118126
20
1720.5010794128279
30
0
11
631.07033794118126
21
1620.602557591583
31
0
0
LINE
5
310
100
AcDbEntity
8
0
100
AcDbLine
10
648.26983594701551
20
1670.5518185022056
30
0
11
648.26983594701551
21
1542.7010794128278
31
0
0
LINE
5
311
100
AcDbEntity
8
0
100
AcDbLine
10
643.7703379411812
20
1620.602557591583
30
0
11
642.50033794118121
21
1620.602557591583
31
0
0
LINE
5
312
100
AcDbEntity
8
0
100
AcDbLine
10
643.7703379411812
20
1591.7996012340732
30
0
11
642.50033794118121
21
1591.7996012340732
31
0
0
LINE
5
313
100
AcDbEntity
8
0
100
AcDbLine
10
948.57033794118195
20
1591.7996012340732
30
0
11
947.30033794118197
21
1591.7996012340732
31
0
0
LINE
5
314
100
AcDbEntity
8
0
100
AcDbLine
10
947.30033794118197
20
1591.7996012340732
30
0
11
947.30033794118197
21
1491.9010794128283
31
0
0
LINE
5
315
100
AcDbEntity
8
0
100
AcDbLine
10
961.27033794118211
20
1491.9010794128283
30
0
11
961.27033794118211
21
1591.7996012340732
31
0
0
LINE
5
316
100
AcDbEntity
8
0
100
AcDbLine
10
961.27033794118211
20
1591.7996012340732
30
0
11
960.0003379411819
21
1591.7996012340732
31
0
0
LINE
5
317
100
AcDbEntity
8
0
100
AcDbLine
10
960.0003379411819
20
1591.7996012340732
30
0
11
960.0003379411819
21
1491.9010794128283
31
0
0
LINE
5
318
100
AcDbEntity
8
0
100
AcDbLine
10
973.97033794118215
20
1491.9010794128283
30
0
11
973.97033794118215
21
1591.7996012340732
31
0
0
LINE
5
319
100
AcDbEntity
8
0
100
AcDbLine
10
973.97033794118215
20
1591.7996012340732
30
0
11
972.70033794118206
21
1591.7996012340732
31
0
0
LINE
5
320
100
AcDbEntity
8
0
100
AcDbLine
10
972.70033794118206
20
1591.7996012340732
30
0
11
972.70033794118206
21
1491.9010794128283
31
0
0
LINE
5
321
100
AcDbEntity
8
0
100
AcDbLine
10
986.67033794118208
20
1491.9010794128283
30
0
11
986.67033794118208
21
1591.7996012340732
31
0
0
LINE
5
322
100
AcDbEntity
8
0
100
AcDbLine
10
986.67033794118208
20
1591.7996012340732
30
0
11
985.40033794118222
21
1591.7996012340732
31
0
0
LINE
5
323
100
AcDbEntity
8
0
100
AcDbLine
10
985.40033794118222
20
1591.7996012340732
30
0
11
985.40033794118222
21
1491.9010794128283
31
0
0
LINE
5
324
100
AcDbEntity
8
0
100
AcDbLine
10
999.37033794118202
20
1491.9010794128283
30
0
11
999.37033794118202
21
1591.7996012340732
31
0
0
LINE
5
325
100
AcDbEntity
8
0
100
AcDbLine
10
999.37033794118202
20
1591.7996012340732
30
0
11
998.10033794118215
21
1591.7996012340732
31
0
0
LINE
5
326
100
AcDbEntity
8
0
100
AcDbLine
10
998.10033794118215
20
1591.7996012340732
30
0
11
998.10033794118215
21
1491.9010794128283
31
0
0
LINE
5
327
100
AcDbEntity
8
0
100
AcDbLine
10
1012.0703379411822
20
1491.9010794128283
30
0
11
1012.0703379411822
21
1591.7996012340732
31
0
0
LINE
5
328
100
AcDbEntity
8
0
100
AcDbLine
10
1012.0703379411822
20
1591.7996012340732
30
0
11
1010.8003379411821
21
1591.7996012340732
31
0
0
LINE
5
329
100
AcDbEntity
8
0
100
AcDbLine
10
1010.8003379411821
20
1591.7996012340732
30
0
11
1010.8003379411821
21
1491.9010794128283
31
0
0
LINE
5
330
100
AcDbEntity
8
0
100
AcDbLine
10
1024.7703379411823
20
1491.9010794128283
30
0
11
1024.7703379411823
21
1591.7996012340732
31
0
0
LINE
5
331
100
AcDbEntity
8
0
100
AcDbLine
10
786.69983594701557
20
1542.7010794128278
30
0
11
786.69983594701557
21
1670.5518185022056
31
0
0
LINE
5
332
100
AcDbEntity
8
0
100
AcDbLine
10
782.20033794118171
20
1620.602557591583
30
0
11
782.20033794118171
21
1720.5010794128279
31
0
0
LINE
5
333
100
AcDbEntity
8
0
100
AcDbLine
10
694.57033794118138
20
1620.602557591583
30
0
11
693.3003379411814
21
1620.602557591583
31
0
0
LINE
5
334
100
AcDbEntity
8
0
100
AcDbLine
10
694.57033794118138
20
1591.7996012340732
30
0
11
693.3003379411814
21
1591.7996012340732
31
0
0
LINE
5
335
100
AcDbEntity
8
0
100
AcDbLine
10
697.79983594701548
20
1542.7010794128278
30
0
11
697.79983594701548
21
1670.5518185022056
31
0
0
LINE
5
336
100
AcDbEntity
8
0
100
AcDbLine
10
693.3003379411814
20
1620.602557591583
30
0
11
693.3003379411814
21
1720.5010794128279
31
0
0
LINE
5
337
100
AcDbEntity
8
0
100
AcDbLine
10
769.50033794118156
20
1620.602557591583
30
0
11
769.50033794118156
21
1720.5010794128279
31
0
0
LINE
5
338
100
AcDbEntity
8
0
100
AcDbLine
10
770.77033794118165
20
1720.5010794128279
30
0
11
770.77033794118165
21
1620.602557591583
31
0
0
LINE
5
339
100
AcDbEntity
8
0
100
AcDbLine
10
787.96983594701578
20
1670.5518185022056
30
0
11
787.96983594701578
21
1542.7010794128278
31
0
0
LINE
5
340
100
AcDbEntity
8
0
100
AcDbLine
10
783.47033794118158
20
1620.602557591583
30
0
11
782.20033794118171
21
1620.602557591583
31
0
0
LINE
5
341
100
AcDbEntity
8
0
100
AcDbLine
10
783.47033794118158
20
1591.7996012340732
30
0
11
782.20033794118171
21
1591.7996012340732
31
0
0
LINE
5
342
100
AcDbEntity
8
0
100
AcDbLine
10
694.57033794118138
20
1720.5010794128279
30
0
11
694.57033794118138
21
1620.602557591583
31
0
0
LINE
5
343
100
AcDbEntity
8
0
100
AcDbLine
10
711.76983594701551
20
1670.5518185022056
30
0
11
711.76983594701551
21
1542.7010794128278
31
0
0
LINE
5
344
100
AcDbEntity
8
0
100
AcDbLine
10
707.27033794118142
20
1620.602557591583
30
0
11
706.00033794118133
21
1620.602557591583
31
0
0
LINE
5
345
100
AcDbEntity
8
0
100
AcDbLine
10
707.27033794118142
20
1591.7996012340732
30
0
11
706.00033794118133
21
1591.7996012340732
31
0
0
LINE
5
346
100
AcDbEntity
8
0
100
AcDbLine
10
710.49983594701553
20
1542.7010794128278
30
0
11
710.49983594701553
21
1670.5518185022056
31
0
0
LINE
5
347
100
AcDbEntity
8
0
100
AcDbLine
10
706.00033794118133
20
1620.602557591583
30
0
11
706.00033794118133
21
1720.5010794128279
31
0
0
LINE
5
348
100
AcDbEntity
8
0
100
AcDbLine
10
707.27033794118142
20
1720.5010794128279
30
0
11
707.27033794118142
21
1620.602557591583
31
0
0
LINE
5
349
100
AcDbEntity
8
0
100
AcDbLine
10
724.46983594701555
20
1670.5518185022056
30
0
11
724.46983594701555
21
1542.7010794128278
31
0
0
LINE
5
350
100
AcDbEntity
8
0
100
AcDbLine
10
719.97033794118147
20
1620.602557591583
30
0
11
718.70033794118149
21
1620.602557591583
31
0
0
LINE
5
351
100
AcDbEntity
8
0
100
AcDbLine
10
758.07033794118161
20
1620.602557591583
30
0
11
756.8003379411814
21
1620.602557591583
31
0
0
LINE
5
352
100
AcDbEntity
8
0
100
AcDbLine
10
758.07033794118161
20
1591.7996012340732
30
0
11
756.8003379411814
21
1591.7996012340732
31
0
0
LINE
5
353
100
AcDbEntity
8
0
100
AcDbLine
10
761.29983594701571
20
1542.7010794128278
30
0
11
761.29983594701571
21
1670.5518185022056
31
0
0
LINE
5
354
100
AcDbEntity
8
0
100
AcDbLine
10
756.8003379411814
20
1620.602557591583
30
0
11
756.8003379411814
21
1720.5010794128279
31
0
0
LINE
5
355
100
AcDbEntity
8
0
100
AcDbLine
10
758.07033794118161
20
1720.5010794128279
30
0
11
758.07033794118161
21
1620.602557591583
31
0
0
LINE
5
356
100
AcDbEntity
8
0
100
AcDbLine
10
775.26983594701562
20
1670.5518185022056
30
0
11
775.26983594701562
21
1542.7010794128278
31
0
0
LINE
5
357
100
AcDbEntity
8
0
100
AcDbLine
10
669.1703379411814
20
1620.602557591583
30
0
11
667.90033794118131
21
1620.602557591583
31
0
0
LINE
5
358
100
AcDbEntity
8
0
100
AcDbLine
10
669.1703379411814
20
1591.7996012340732
30
0
11
667.90033794118131
21
1591.7996012340732
31
0
0
LINE
5
359
100
AcDbEntity
8
0
100
AcDbLine
10
672.39983594701539
20
1542.7010794128278
30
0
11
672.39983594701539
21
1670.5518185022056
31
0
0
LINE
5
360
100
AcDbEntity
8
0
100
AcDbLine
10
667.90033794118131
20
1620.602557591583
30
0
11
667.90033794118131
21
1720.5010794128279
31
0
0
LINE
5
361
100
AcDbEntity
8
0
100
AcDbLine
10
669.1703379411814
20
1720.5010794128279
30
0
11
669.1703379411814
21
1620.602557591583
31
0
0
LINE
5
362
100
AcDbEntity
8
0
100
AcDbLine
10
686.36983594701542
20
1670.5518185022056
30
0
11
686.36983594701542
21
1542.7010794128278
31
0
0
LWPOLYLINE
5
363
100
AcDbEntity
8
0
100
AcDbPolyline
90
28
70
1
43
0.0
10
1559.0898577497869
20
1491.901079412828
10
522.76985774978721
20
1491.901079412828
10
522.76985774978721
20
1530.0010794128277
10
525.76985774978721
20
1530.0010794128277
10
525.76985774978721
20
1555.401079412828
10
522.76985774978721
20
1555.401079412828
10
522.76985774978721
20
1593.5010794128279
10
525.76985774978721
20
1593.5010794128279
10
525.76985774978721
20
1618.9010794128283
10
522.76985774978721
20
1618.9010794128283
10
522.76985774978721
20
1657.0010794128279
10
525.76985774978721
20
1657.0010794128279
10
525.76985774978721
20
1682.401079412828
10
522.76985774978721
20
1682.401079412828
10
522.76985774978721
20
1720.5010794128279
10
1559.0898577497869
20
1720.5010794128279
10
1559.0898577497869
20
1682.401079412828
10
1562.0898577497871
20
1682.401079412828
10
1562.0898577497871
20
1657.0010794128279
10
1559.0898577497869
20
1657.0010794128279
10
1559.0898577497869
20
1618.9010794128283
10
1562.0898577497871
20
1618.9010794128283
10
1562.0898577497871
20
1593.5010794128279
10
1559.0898577497869
20
1593.5010794128279
10
1559.0898577497869
20
1555.401079412828
10
1562.0898577497871
20
1555.401079412828
10
1562.0898577497871
20
1530.0010794128277
10
1559.0898577497869
20
1530.0010794128277
0
LINE
5
364
100
AcDbEntity
8
0
100
AcDbLine
10
1164.4703379411826
20
1491.9010794128283
30
0
11
1164.4703379411826
21
1591.7996012340732
31
0
0
LINE
5
365
100
AcDbEntity
8
0
100
AcDbLine
10
1164.4703379411826
20
1591.7996012340732
30
0
11
1163.2003379411824
21
1591.7996012340732
31
0
0
LINE
5
366
100
AcDbEntity
8
0
100
AcDbLine
10
1163.2003379411824
20
1591.7996012340732
30
0
11
1163.2003379411824
21
1491.9010794128283
31
0
0
LINE
5
367
100
AcDbEntity
8
0
100
AcDbLine
10
1177.1703379411827
20
1491.9010794128283
30
0
11
1177.1703379411827
21
1591.7996012340732
31
0
0
LINE
5
368
100
AcDbEntity
8
0
100
AcDbLine
10
1177.1703379411827
20
1591.7996012340732
30
0
11
1175.9003379411824
21
1591.7996012340732
31
0
0
LINE
5
369
100
AcDbEntity
8
0
100
AcDbLine
10
1175.9003379411824
20
1591.7996012340732
30
0
11
1175.9003379411824
21
1491.9010794128283
31
0
0
LINE
5
370
100
AcDbEntity
8
0
100
AcDbLine
10
1189.8703379411825
20
1491.9010794128283
30
0
11
1189.8703379411825
21
1591.7996012340732
31
0
0
LINE
5
371
100
AcDbEntity
8
0
100
AcDbLine
10
1189.8703379411825
20
1591.7996012340732
30
0
11
1188.6003379411825
21
1591.7996012340732
31
0
0
LINE
5
372
100
AcDbEntity
8
0
100
AcDbLine
10
1188.6003379411825
20
1591.7996012340732
30
0
11
1188.6003379411825
21
1491.9010794128283
31
0
0
LINE
5
373
100
AcDbEntity
8
0
100
AcDbLine
10
1202.5703379411825
20
1491.9010794128283
30
0
11
1202.5703379411825
21
1591.7996012340732
31
0
0
LINE
5
374
100
AcDbEntity
8
0
100
AcDbLine
10
1202.5703379411825
20
1591.7996012340732
30
0
11
1201.3003379411825
21
1591.7996012340732
31
0
0
LINE
5
375
100
AcDbEntity
8
0
100
AcDbLine
10
1201.3003379411825
20
1591.7996012340732
30
0
11
1201.3003379411825
21
1491.9010794128283
31
0
0
LINE
5
376
100
AcDbEntity
8
0
100
AcDbLine
10
1215.2703379411828
20
1491.9010794128283
30
0
11
1215.2703379411828
21
1591.7996012340732
31
0
0
LINE
5
377
100
AcDbEntity
8
0
100
AcDbLine
10
1215.2703379411828
20
1591.7996012340732
30
0
11
1214.0003379411828
21
1591.7996012340732
31
0
0
LINE
5
378
100
AcDbEntity
8
0
100
AcDbLine
10
1214.0003379411828
20
1591.7996012340732
30
0
11
1214.0003379411828
21
1491.9010794128283
31
0
0
LINE
5
379
100
AcDbEntity
8
0
100
AcDbLine
10
1227.9703379411828
20
1491.9010794128283
30
0
11
1227.9703379411828
21
1591.7996012340732
31
0
0
LINE
5
380
100
AcDbEntity
8
0
100
AcDbLine
10
1227.9703379411828
20
1591.7996012340732
30
0
11
1226.7003379411826
21
1591.7996012340732
31
0
0
LINE
5
381
100
AcDbEntity
8
0
100
AcDbLine
10
1226.7003379411826
20
1591.7996012340732
30
0
11
1226.7003379411826
21
1491.9010794128283
31
0
0
LINE
5
382
100
AcDbEntity
8
0
100
AcDbLine
10
1240.6703379411827
20
1491.9010794128283
30
0
11
1240.6703379411827
21
1591.7996012340732
31
0
0
LINE
5
383
100
AcDbEntity
8
0
100
AcDbLine
10
1240.6703379411827
20
1591.7996012340732
30
0
11
1239.4003379411827
21
1591.7996012340732
31
0
0
LINE
5
384
100
AcDbEntity
8
0
100
AcDbLine
10
1239.4003379411827
20
1591.7996012340732
30
0
11
1239.4003379411827
21
1491.9010794128283
31
0
0
LINE
5
385
100
AcDbEntity
8
0
100
AcDbLine
10
1253.3703379411827
20
1491.9010794128283
30
0
11
1253.3703379411827
21
1591.7996012340732
31
0
0
LINE
5
386
100
AcDbEntity
8
0
100
AcDbLine
10
1253.3703379411827
20
1591.7996012340732
30
0
11
1252.1003379411827
21
1591.7996012340732
31
0
0
LINE
5
387
100
AcDbEntity
8
0
100
AcDbLine
10
1252.1003379411827
20
1591.7996012340732
30
0
11
1252.1003379411827
21
1491.9010794128283
31
0
0
LINE
5
388
100
AcDbEntity
8
0
100
AcDbLine
10
1266.0703379411827
20
1491.9010794128283
30
0
11
1266.0703379411827
21
1591.7996012340732
31
0
0
LINE
5
389
100
AcDbEntity
8
0
100
AcDbLine
10
1266.0703379411827
20
1591.7996012340732
30
0
11
1264.8003379411828
21
1591.7996012340732
31
0
0
LINE
5
390
100
AcDbEntity
8
0
100
AcDbLine
10
1264.8003379411828
20
1591.7996012340732
30
0
11
1264.8003379411828
21
1491.9010794128283
31
0
0
LINE
5
391
100
AcDbEntity
8
0
100
AcDbLine
10
1278.7703379411828
20
1491.9010794128283
30
0
11
1278.7703379411828
21
1591.7996012340732
31
0
0
LINE
5
392
100
AcDbEntity
8
0
100
AcDbLine
10
1278.7703379411828
20
1591.7996012340732
30
0
11
1277.5003379411828
21
1591.7996012340732
31
0
0
LINE
5
393
100
AcDbEntity
8
0
100
AcDbLine
10
1277.5003379411828
20
1591.7996012340732
30
0
11
1277.5003379411828
21
1491.9010794128283
31
0
0
LINE
5
394
100
AcDbEntity
8
0
100
AcDbLine
10
1291.4703379411826
20
1491.9010794128283
30
0
11
1291.4703379411826
21
1591.7996012340732
31
0
0
LINE
5
395
100
AcDbEntity
8
0
100
AcDbLine
10
1291.4703379411826
20
1591.7996012340732
30
0
11
1290.2003379411826
21
1591.7996012340732
31
0
0
LINE
5
396
100
AcDbEntity
8
0
100
AcDbLine
10
1290.2003379411826
20
1591.7996012340732
30
0
11
1290.2003379411826
21
1491.9010794128283
31
0
0
LINE
5
397
100
AcDbEntity
8
0
100
AcDbLine
10
1304.1703379411829
20
1491.9010794128283
30
0
11
1304.1703379411829
21
1591.7996012340732
31
0
0
LINE
5
398
100
AcDbEntity
8
0
100
AcDbLine
10
1304.1703379411829
20
1591.7996012340732
30
0
11
1302.9003379411829
21
1591.7996012340732
31
0
0
LINE
5
399
100
AcDbEntity
8
0
100
AcDbLine
10
1302.9003379411829
20
1591.7996012340732
30
0
11
1302.9003379411829
21
1491.9010794128283
31
0
0
LINE
5
400
100
AcDbEntity
8
0
100
AcDbLine
10
1316.8703379411829
20
1491.9010794128283
30
0
11
1316.8703379411829
21
1591.7996012340732
31
0
0
LINE
5
401
100
AcDbEntity
8
0
100
AcDbLine
10
1316.8703379411829
20
1591.7996012340732
30
0
11
1315.6003379411827
21
1591.7996012340732
31
0
0
LINE
5
402
100
AcDbEntity
8
0
100
AcDbLine
10
1315.6003379411827
20
1591.7996012340732
30
0
11
1315.6003379411827
21
1491.9010794128283
31
0
0
LINE
5
403
100
AcDbEntity
8
0
100
AcDbLine
10
1329.570337941183
20
1491.9010794128283
30
0
11
1329.570337941183
21
1591.7996012340732
31
0
0
LINE
5
404
100
AcDbEntity
8
0
100
AcDbLine
10
1329.570337941183
20
1591.7996012340732
30
0
11
1328.300337941183
21
1591.7996012340732
31
0
0
LINE
5
405
100
AcDbEntity
8
0
100
AcDbLine
10
1328.300337941183
20
1591.7996012340732
30
0
11
1328.300337941183
21
1491.9010794128283
31
0
0
LINE
5
406
100
AcDbEntity
8
0
100
AcDbLine
10
1342.2703379411828
20
1491.9010794128283
30
0
11
1342.2703379411828
21
1591.7996012340732
31
0
0
LINE
5
407
100
AcDbEntity
8
0
100
AcDbLine
10
1342.2703379411828
20
1591.7996012340732
30
0
11
1341.000337941183
21
1591.7996012340732
31
0
0
LINE
5
408
100
AcDbEntity
8
0
100
AcDbLine
10
1341.000337941183
20
1591.7996012340732
30
0
11
1341.000337941183
21
1491.9010794128283
31
0
0
LINE
5
409
100
AcDbEntity
8
0
100
AcDbLine
10
1354.9703379411831
20
1491.9010794128283
30
0
11
1354.9703379411831
21
1591.7996012340732
31
0
0
LINE
5
410
100
AcDbEntity
8
0
100
AcDbLine
10
1354.9703379411831
20
1591.7996012340732
30
0
11
1353.7003379411829
21
1591.7996012340732
31
0
0
LINE
5
411
100
AcDbEntity
8
0
100
AcDbLine
10
1353.7003379411829
20
1591.7996012340732
30
0
11
1353.7003379411829
21
1491.9010794128283
31
0
0
LINE
5
412
100
AcDbEntity
8
0
100
AcDbLine
10
1367.6703379411831
20
1491.9010794128283
30
0
11
1367.6703379411831
21
1591.7996012340732
31
0
0
LINE
5
413
100
AcDbEntity
8
0
100
AcDbLine
10
1367.6703379411831
20
1591.7996012340732
30
0
11
1366.4003379411834
21
1591.7996012340732
31
0
0
LINE
5
414
100
AcDbEntity
8
0
100
AcDbLine
10
1366.4003379411834
20
1591.7996012340732
30
0
11
1366.4003379411834
21
1491.9010794128283
31
0
0
LINE
5
415
100
AcDbEntity
8
0
100
AcDbLine
10
1380.3703379411832
20
1491.9010794128283
30
0
11
1380.3703379411832
21
1591.7996012340732
31
0
0
LINE
5
416
100
AcDbEntity
8
0
100
AcDbLine
10
1380.3703379411832
20
1591.7996012340732
30
0
11
1379.1003379411832
21
1591.7996012340732
31
0
0
LINE
5
417
100
AcDbEntity
8
0
100
AcDbLine
10
1379.1003379411832
20
1591.7996012340732
30
0
11
1379.1003379411832
21
1491.9010794128283
31
0
0
LINE
5
418
100
AcDbEntity
8
0
100
AcDbLine
10
1393.070337941183
20
1491.9010794128283
30
0
11
1393.070337941183
21
1591.7996012340732
31
0
0
LINE
5
419
100
AcDbEntity
8
0
100
AcDbLine
10
1393.070337941183
20
1591.7996012340732
30
0
11
1391.800337941183
21
1591.7996012340732
31
0
0
LINE
5
420
100
AcDbEntity
8
0
100
AcDbLine
10
1391.800337941183
20
1591.7996012340732
30
0
11
1391.800337941183
21
1491.9010794128283
31
0
0
LINE
5
421
100
AcDbEntity
8
0
100
AcDbLine
10
1405.770337941183
20
1491.9010794128283
30
0
11
1405.770337941183
21
1591.7996012340732
31
0
0
LINE
5
422
100
AcDbEntity
8
0
100
AcDbLine
10
1405.770337941183
20
1591.7996012340732
30
0
11
1404.5003379411833
21
1591.7996012340732
31
0
0
LINE
5
423
100
AcDbEntity
8
0
100
AcDbLine
10
1404.5003379411833
20
1591.7996012340732
30
0
11
1404.5003379411833
21
1491.9010794128283
31
0
0
LINE
5
424
100
AcDbEntity
8
0
100
AcDbLine
10
1418.4703379411831
20
1491.9010794128283
30
0
11
1418.4703379411831
21
1591.7996012340732
31
0
0
LINE
5
425
100
AcDbEntity
8
0
100
AcDbLine
10
1418.4703379411831
20
1591.7996012340732
30
0
11
1417.2003379411831
21
1591.7996012340732
31
0
0
LINE
5
426
100
AcDbEntity
8
0
100
AcDbLine
10
1417.2003379411831
20
1591.7996012340732
30
0
11
1417.2003379411831
21
1491.9010794128283
31
0
0
LINE
5
427
100
AcDbEntity
8
0
100
AcDbLine
10
1431.1703379411833
20
1491.9010794128283
30
0
11
1431.1703379411833
21
1591.7996012340732
31
0
0
LINE
5
428
100
AcDbEntity
8
0
100
AcDbLine
10
1431.1703379411833
20
1591.7996012340732
30
0
11
1429.9003379411831
21
1591.7996012340732
31
0
0
LINE
5
429
100
AcDbEntity
8
0
100
AcDbLine
10
1429.9003379411831
20
1591.7996012340732
30
0
11
1429.9003379411831
21
1491.9010794128283
31
0
0
LINE
5
430
100
AcDbEntity
8
0
100
AcDbLine
10
1443.8703379411832
20
1491.9010794128283
30
0
11
1443.8703379411832
21
1591.7996012340732
31
0
0
LINE
5
431
100
AcDbEntity
8
0
100
AcDbLine
10
1443.8703379411832
20
1591.7996012340732
30
0
11
1442.6003379411832
21
1591.7996012340732
31
0
0
LINE
5
432
100
AcDbEntity
8
0
100
AcDbLine
10
1442.6003379411832
20
1591.7996012340732
30
0
11
1442.6003379411832
21
1491.9010794128283
31
0
0
LINE
5
433
100
AcDbEntity
8
0
100
AcDbLine
10
1456.5703379411832
20
1491.9010794128283
30
0
11
1456.5703379411832
21
1591.7996012340732
31
0
0
LINE
5
434
100
AcDbEntity
8
0
100
AcDbLine
10
1456.5703379411832
20
1591.7996012340732
30
0
11
1455.300337941183
21
1591.7996012340732
31
0
0
LINE
5
435
100
AcDbEntity
8
0
100
AcDbLine
10
1455.300337941183
20
1591.7996012340732
30
0
11
1455.300337941183
21
1491.9010794128283
31
0
0
LINE
5
436
100
AcDbEntity
8
0
100
AcDbLine
10
1469.2703379411832
20
1491.9010794128283
30
0
11
1469.2703379411832
21
1591.7996012340732
31
0
0
LINE
5
437
100
AcDbEntity
8
0
100
AcDbLine
10
1469.2703379411832
20
1591.7996012340732
30
0
11
1468.0003379411835
21
1591.7996012340732
31
0
0
LINE
5
438
100
AcDbEntity
8
0
100
AcDbLine
10
1468.0003379411835
20
1591.7996012340732
30
0
11
1468.0003379411835
21
1491.9010794128283
31
0
0
LINE
5
439
100
AcDbEntity
8
0
100
AcDbLine
10
1481.9703379411835
20
1491.9010794128283
30
0
11
1481.9703379411835
21
1591.7996012340732
31
0
0
LINE
5
440
100
AcDbEntity
8
0
100
AcDbLine
10
1481.9703379411835
20
1591.7996012340732
30
0
11
1480.7003379411833
21
1591.7996012340732
31
0
0
LINE
5
441
100
AcDbEntity
8
0
100
AcDbLine
10
1480.7003379411833
20
1591.7996012340732
30
0
11
1480.7003379411833
21
1491.9010794128283
31
0
0
LINE
5
442
100
AcDbEntity
8
0
100
AcDbLine
10
1227.9703379411828
20
1720.5010794128279
30
0
11
1227.9703379411828
21
1620.602557591583
31
0
0
LINE
5
443
100
AcDbEntity
8
0
100
AcDbLine
10
1226.7003379411826
20
1620.602557591583
30
0
11
1226.7003379411826
21
1720.5010794128279
31
0
0
LINE
5
444
100
AcDbEntity
8
0
100
AcDbLine
10
1231.1998359470167
20
1542.7010794128278
30
0
11
1231.1998359470167
21
1670.5518185022056
31
0
0
LINE
5
445
100
AcDbEntity
8
0
100
AcDbLine
10
1227.9703379411828
20
1620.602557591583
30
0
11
1226.7003379411826
21
1620.602557591583
31
0
0
LINE
5
446
100
AcDbEntity
8
0
100
AcDbLine
10
1232.4698359470167
20
1670.5518185022056
30
0
11
1232.4698359470167
21
1542.7010794128278
31
0
0
LINE
5
447
100
AcDbEntity
8
0
100
AcDbLine
10
1215.2703379411828
20
1720.5010794128279
30
0
11
1215.2703379411828
21
1620.602557591583
31
0
0
LINE
5
448
100
AcDbEntity
8
0
100
AcDbLine
10
1214.0003379411828
20
1620.602557591583
30
0
11
1214.0003379411828
21
1720.5010794128279
31
0
0
LINE
5
449
100
AcDbEntity
8
0
100
AcDbLine
10
1218.4998359470169
20
1542.7010794128278
30
0
11
1218.4998359470169
21
1670.5518185022056
31
0
0
LINE
5
450
100
AcDbEntity
8
0
100
AcDbLine
10
1215.2703379411828
20
1620.602557591583
30
0
11
1214.0003379411828
21
1620.602557591583
31
0
0
LINE
5
451
100
AcDbEntity
8
0
100
AcDbLine
10
1219.7698359470169
20
1670.5518185022056
30
0
11
1219.7698359470169
21
1542.7010794128278
31
0
0
LINE
5
452
100
AcDbEntity
8
0
100
AcDbLine
10
1202.5703379411825
20
1720.5010794128279
30
0
11
1202.5703379411825
21
1620.602557591583
31
0
0
LINE
5
453
100
AcDbEntity
8
0
100
AcDbLine
10
1201.3003379411825
20
1620.602557591583
30
0
11
1201.3003379411825
21
1720.5010794128279
31
0
0
LINE
5
454
100
AcDbEntity
8
0
100
AcDbLine
10
1205.7998359470166
20
1542.7010794128278
30
0
11
1205.7998359470166
21
1670.5518185022056
31
0
0
LINE
5
455
100
AcDbEntity
8
0
100
AcDbLine
10
1202.5703379411825
20
1620.602557591583
30
0
11
1201.3003379411825
21
1620.602557591583
31
0
0
LINE
5
456
100
AcDbEntity
8
0
100
AcDbLine
10
1207.0698359470168
20
1670.5518185022056
30
0
11
1207.0698359470168
21
1542.7010794128278
31
0
0
LINE
5
457
100
AcDbEntity
8
0
100
AcDbLine
10
1189.8703379411825
20
1720.5010794128279
30
0
11
1189.8703379411825
21
1620.602557591583
31
0
0
LINE
5
458
100
AcDbEntity
8
0
100
AcDbLine
10
1188.6003379411825
20
1620.602557591583
30
0
11
1188.6003379411825
21
1720.5010794128279
31
0
0
LINE
5
459
100
AcDbEntity
8
0
100
AcDbLine
10
1193.0998359470166
20
1542.7010794128278
30
0
11
1193.0998359470166
21
1670.5518185022056
31
0
0
LINE
5
460
100
AcDbEntity
8
0
100
AcDbLine
10
1189.8703379411825
20
1620.602557591583
30
0
11
1188.6003379411825
21
1620.602557591583
31
0
0
LINE
5
461
100
AcDbEntity
8
0
100
AcDbLine
10
1194.3698359470168
20
1670.5518185022056
30
0
11
1194.3698359470168
21
1542.7010794128278
31
0
0
LINE
5
462
100
AcDbEntity
8
0
100
AcDbLine
10
1177.1703379411827
20
1720.5010794128279
30
0
11
1177.1703379411827
21
1620.602557591583
31
0
0
LINE
5
463
100
AcDbEntity
8
0
100
AcDbLine
10
1175.9003379411824
20
1620.602557591583
30
0
11
1175.9003379411824
21
1720.5010794128279
31
0
0
LINE
5
464
100
AcDbEntity
8
0
100
AcDbLine
10
1180.3998359470168
20
1542.7010794128278
30
0
11
1180.3998359470168
21
1670.5518185022056
31
0
0
LINE
5
465
100
AcDbEntity
8
0
100
AcDbLine
10
1177.1703379411827
20
1620.602557591583
30
0
11
1175.9003379411824
21
1620.602557591583
31
0
0
LINE
5
466
100
AcDbEntity
8
0
100
AcDbLine
10
1181.6698359470165
20
1670.5518185022056
30
0
11
1181.6698359470165
21
1542.7010794128278
31
0
0
LINE
5
467
100
AcDbEntity
8
0
100
AcDbLine
10
1164.4703379411826
20
1720.5010794128279
30
0
11
1164.4703379411826
21
1620.602557591583
31
0
0
LINE
5
468
100
AcDbEntity
8
0
100
AcDbLine
10
1163.2003379411824
20
1620.602557591583
30
0
11
1163.2003379411824
21
1720.5010794128279
31
0
0
LINE
5
469
100
AcDbEntity
8
0
100
AcDbLine
10
1167.6998359470167
20
1542.7010794128278
30
0
11
1167.6998359470167
21
1670.5518185022056
31
0
0
LINE
5
470
100
AcDbEntity
8
0
100
AcDbLine
10
1164.4703379411826
20
1620.602557591583
30
0
11
1163.2003379411824
21
1620.602557591583
31
0
0
LINE
5
471
100
AcDbEntity
8
0
100
AcDbLine
10
1168.9698359470167
20
1670.5518185022056
30
0
11
1168.9698359470167
21
1542.7010794128278
31
0
0
LINE
5
472
100
AcDbEntity
8
0
100
AcDbLine
10
1154.9998359470167
20
1542.7010794128278
30
0
11
1154.9998359470167
21
1670.5518185022056
31
0
0
LINE
5
473
100
AcDbEntity
8
0
100
AcDbLine
10
1156.2698359470166
20
1670.5518185022056
30
0
11
1156.2698359470166
21
1542.7010794128278
31
0
0
LINE
5
474
100
AcDbEntity
8
0
100
AcDbLine
10
1316.8703379411829
20
1720.5010794128279
30
0
11
1316.8703379411829
21
1620.602557591583
31
0
0
LINE
5
475
100
AcDbEntity
8
0
100
AcDbLine
10
1315.6003379411827
20
1620.602557591583
30
0
11
1315.6003379411827
21
1720.5010794128279
31
0
0
LINE
5
476
100
AcDbEntity
8
0
100
AcDbLine
10
1320.099835947017
20
1542.7010794128278
30
0
11
1320.099835947017
21
1670.5518185022056
31
0
0
LINE
5
477
100
AcDbEntity
8
0
100
AcDbLine
10
1316.8703379411829
20
1620.602557591583
30
0
11
1315.6003379411827
21
1620.602557591583
31
0
0
LINE
5
478
100
AcDbEntity
8
0
100
AcDbLine
10
1321.3698359470172
20
1670.5518185022056
30
0
11
1321.3698359470172
21
1542.7010794128278
31
0
0
LINE
5
479
100
AcDbEntity
8
0
100
AcDbLine
10
1304.1703379411829
20
1720.5010794128279
30
0
11
1304.1703379411829
21
1620.602557591583
31
0
0
LINE
5
480
100
AcDbEntity
8
0
100
AcDbLine
10
1302.9003379411829
20
1620.602557591583
30
0
11
1302.9003379411829
21
1720.5010794128279
31
0
0
LINE
5
481
100
AcDbEntity
8
0
100
AcDbLine
10
1307.399835947017
20
1542.7010794128278
30
0
11
1307.399835947017
21
1670.5518185022056
31
0
0
LINE
5
482
100
AcDbEntity
8
0
100
AcDbLine
10
1304.1703379411829
20
1620.602557591583
30
0
11
1302.9003379411829
21
1620.602557591583
31
0
0
LINE
5
483
100
AcDbEntity
8
0
100
AcDbLine
10
1308.669835947017
20
1670.5518185022056
30
0
11
1308.669835947017
21
1542.7010794128278
31
0
0
LINE
5
484
100
AcDbEntity
8
0
100
AcDbLine
10
1291.4703379411826
20
1720.5010794128279
30
0
11
1291.4703379411826
21
1620.602557591583
31
0
0
LINE
5
485
100
AcDbEntity
8
0
100
AcDbLine
10
1290.2003379411826
20
1620.602557591583
30
0
11
1290.2003379411826
21
1720.5010794128279
31
0
0
LINE
5
486
100
AcDbEntity
8
0
100
AcDbLine
10
1294.6998359470169
20
1542.7010794128278
30
0
11
1294.6998359470169
21
1670.5518185022056
31
0
0
LINE
5
487
100
AcDbEntity
8
0
100
AcDbLine
10
1291.4703379411826
20
1620.602557591583
30
0
11
1290.2003379411826
21
1620.602557591583
31
0
0
LINE
5
488
100
AcDbEntity
8
0
100
AcDbLine
10
1295.9698359470169
20
1670.5518185022056
30
0
11
1295.9698359470169
21
1542.7010794128278
31
0
0
LINE
5
489
100
AcDbEntity
8
0
100
AcDbLine
10
1278.7703379411828
20
1720.5010794128279
30
0
11
1278.7703379411828
21
1620.602557591583
31
0
0
LINE
5
490
100
AcDbEntity
8
0
100
AcDbLine
10
1277.5003379411828
20
1620.602557591583
30
0
11
1277.5003379411828
21
1720.5010794128279
31
0
0
LINE
5
491
100
AcDbEntity
8
0
100
AcDbLine
10
1281.9998359470169
20
1542.7010794128278
30
0
11
1281.9998359470169
21
1670.5518185022056
31
0
0
LINE
5
492
100
AcDbEntity
8
0
100
AcDbLine
10
1278.7703379411828
20
1620.602557591583
30
0
11
1277.5003379411828
21
1620.602557591583
31
0
0
LINE
5
493
100
AcDbEntity
8
0
100
AcDbLine
10
1283.2698359470169
20
1670.5518185022056
30
0
11
1283.2698359470169
21
1542.7010794128278
31
0
0
LINE
5
494
100
AcDbEntity
8
0
100
AcDbLine
10
1266.0703379411827
20
1720.5010794128279
30
0
11
1266.0703379411827
21
1620.602557591583
31
0
0
LINE
5
495
100
AcDbEntity
8
0
100
AcDbLine
10
1264.8003379411828
20
1620.602557591583
30
0
11
1264.8003379411828
21
1720.5010794128279
31
0
0
LINE
5
496
100
AcDbEntity
8
0
100
AcDbLine
10
1269.2998359470171
20
1542.7010794128278
30
0
11
1269.2998359470171
21
1670.5518185022056
31
0
0
LINE
5
497
100
AcDbEntity
8
0
100
AcDbLine
10
1266.0703379411827
20
1620.602557591583
30
0
11
1264.8003379411828
21
1620.602557591583
31
0
0
LINE
5
498
100
AcDbEntity
8
0
100
AcDbLine
10
1270.5698359470171
20
1670.5518185022056
30
0
11
1270.5698359470171
21
1542.7010794128278
31
0
0
LINE
5
499
100
AcDbEntity
8
0
100
AcDbLine
10
1253.3703379411827
20
1720.5010794128279
30
0
11
1253.3703379411827
21
1620.602557591583
31
0
0
LINE
5
500
100
AcDbEntity
8
0
100
AcDbLine
10
1252.1003379411827
20
1620.602557591583
30
0
11
1252.1003379411827
21
1720.5010794128279
31
0
0
LINE
5
501
100
AcDbEntity
8
0
100
AcDbLine
10
1256.5998359470168
20
1542.7010794128278
30
0
11
1256.5998359470168
21
1670.5518185022056
31
0
0
LINE
5
502
100
AcDbEntity
8
0
100
AcDbLine
10
1253.3703379411827
20
1620.602557591583
30
0
11
1252.1003379411827
21
1620.602557591583
31
0
0
LINE
5
503
100
AcDbEntity
8
0
100
AcDbLine
10
1257.869835947017
20
1670.5518185022056
30
0
11
1257.869835947017
21
1542.7010794128278
31
0
0
LINE
5
504
100
AcDbEntity
8
0
100
AcDbLine
10
1240.6703379411827
20
1720.5010794128279
30
0
11
1240.6703379411827
21
1620.602557591583
31
0
0
LINE
5
505
100
AcDbEntity
8
0
100
AcDbLine
10
1239.4003379411827
20
1620.602557591583
30
0
11
1239.4003379411827
21
1720.5010794128279
31
0
0
LINE
5
506
100
AcDbEntity
8
0
100
AcDbLine
10
1243.8998359470168
20
1542.7010794128278
30
0
11
1243.8998359470168
21
1670.5518185022056
31
0
0
LINE
5
507
100
AcDbEntity
8
0
100
AcDbLine
10
1240.6703379411827
20
1620.602557591583
30
0
11
1239.4003379411827
21
1620.602557591583
31
0
0
LINE
5
508
100
AcDbEntity
8
0
100
AcDbLine
10
1245.169835947017
20
1670.5518185022056
30
0
11
1245.169835947017
21
1542.7010794128278
31
0
0
LINE
5
509
100
AcDbEntity
8
0
100
AcDbLine
10
1405.770337941183
20
1720.5010794128279
30
0
11
1405.770337941183
21
1620.602557591583
31
0
0
LINE
5
510
100
AcDbEntity
8
0
100
AcDbLine
10
1404.5003379411833
20
1620.602557591583
30
0
11
1404.5003379411833
21
1720.5010794128279
31
0
0
LINE
5
511
100
AcDbEntity
8
0
100
AcDbLine
10
1408.9998359470173
20
1542.7010794128278
30
0
11
1408.9998359470173
21
1670.5518185022056
31
0
0
LINE
5
512
100
AcDbEntity
8
0
100
AcDbLine
10
1405.770337941183
20
1620.602557591583
30
0
11
1404.5003379411833
21
1620.602557591583
31
0
0
LINE
5
513
100
AcDbEntity
8
0
100
AcDbLine
10
1410.2698359470173
20
1670.5518185022056
30
0
11
1410.2698359470173
21
1542.7010794128278
31
0
0
LINE
5
514
100
AcDbEntity
8
0
100
AcDbLine
10
1393.070337941183
20
1720.5010794128279
30
0
11
1393.070337941183
21
1620.602557591583
31
0
0
LINE
5
515
100
AcDbEntity
8
0
100
AcDbLine
10
1391.800337941183
20
1620.602557591583
30
0
11
1391.800337941183
21
1720.5010794128279
31
0
0
LINE
5
516
100
AcDbEntity
8
0
100
AcDbLine
10
1396.2998359470171
20
1542.7010794128278
30
0
11
1396.2998359470171
21
1670.5518185022056
31
0
0
LINE
5
517
100
AcDbEntity
8
0
100
AcDbLine
10
1393.070337941183
20
1620.602557591583
30
0
11
1391.800337941183
21
1620.602557591583
31
0
0
LINE
5
518
100
AcDbEntity
8
0
100
AcDbLine
10
1397.5698359470173
20
1670.5518185022056
30
0
11
1397.5698359470173
21
1542.7010794128278
31
0
0
LINE
5
519
100
AcDbEntity
8
0
100
AcDbLine
10
1380.3703379411832
20
1720.5010794128279
30
0
11
1380.3703379411832
21
1620.602557591583
31
0
0
LINE
5
520
100
AcDbEntity
8
0
100
AcDbLine
10
1379.1003379411832
20
1620.602557591583
30
0
11
1379.1003379411832
21
1720.5010794128279
31
0
0
LINE
5
521
100
AcDbEntity
8
0
100
AcDbLine
10
1383.599835947017
20
1542.7010794128278
30
0
11
1383.599835947017
21
1670.5518185022056
31
0
0
LINE
5
522
100
AcDbEntity
8
0
100
AcDbLine
10
1380.3703379411832
20
1620.602557591583
30
0
11
1379.1003379411832
21
1620.602557591583
31
0
0
LINE
5
523
100
AcDbEntity
8
0
100
AcDbLine
10
1384.8698359470172
20
1670.5518185022056
30
0
11
1384.8698359470172
21
1542.7010794128278
31
0
0
LINE
5
524
100
AcDbEntity
8
0
100
AcDbLine
10
1367.6703379411831
20
1720.5010794128279
30
0
11
1367.6703379411831
21
1620.602557591583
31
0
0
LINE
5
525
100
AcDbEntity
8
0
100
AcDbLine
10
1366.4003379411834
20
1620.602557591583
30
0
11
1366.4003379411834
21
1720.5010794128279
31
0
0
LINE
5
526
100
AcDbEntity
8
0
100
AcDbLine
10
1370.8998359470172
20
1542.7010794128278
30
0
11
1370.8998359470172
21
1670.5518185022056
31
0
0
LINE
5
527
100
AcDbEntity
8
0
100
AcDbLine
10
1367.6703379411831
20
1620.602557591583
30
0
11
1366.4003379411834
21
1620.602557591583
31
0
0
LINE
5
528
100
AcDbEntity
8
0
100
AcDbLine
10
1372.1698359470174
20
1670.5518185022056
30
0
11
1372.1698359470174
21
1542.7010794128278
31
0
0
LINE
5
529
100
AcDbEntity
8
0
100
AcDbLine
10
1354.9703379411831
20
1720.5010794128279
30
0
11
1354.9703379411831
21
1620.602557591583
31
0
0
LINE
5
530
100
AcDbEntity
8
0
100
AcDbLine
10
1353.7003379411829
20
1620.602557591583
30
0
11
1353.7003379411829
21
1720.5010794128279
31
0
0
LINE
5
531
100
AcDbEntity
8
0
100
AcDbLine
10
1358.1998359470172
20
1542.7010794128278
30
0
11
1358.1998359470172
21
1670.5518185022056
31
0
0
LINE
5
532
100
AcDbEntity
8
0
100
AcDbLine
10
1354.9703379411831
20
1620.602557591583
30
0
11
1353.7003379411829
21
1620.602557591583
31
0
0
LINE
5
533
100
AcDbEntity
8
0
100
AcDbLine
10
1359.4698359470171
20
1670.5518185022056
30
0
11
1359.4698359470171
21
1542.7010794128278
31
0
0
LINE
5
534
100
AcDbEntity
8
0
100
AcDbLine
10
1342.2703379411828
20
1720.5010794128279
30
0
11
1342.2703379411828
21
1620.602557591583
31
0
0
LINE
5
535
100
AcDbEntity
8
0
100
AcDbLine
10
1341.000337941183
20
1620.602557591583
30
0
11
1341.000337941183
21
1720.5010794128279
31
0
0
LINE
5
536
100
AcDbEntity
8
0
100
AcDbLine
10
1345.4998359470169
20
1542.7010794128278
30
0
11
1345.4998359470169
21
1670.5518185022056
31
0
0
LINE
5
537
100
AcDbEntity
8
0
100
AcDbLine
10
1342.2703379411828
20
1620.602557591583
30
0
11
1341.000337941183
21
1620.602557591583
31
0
0
LINE
5
538
100
AcDbEntity
8
0
100
AcDbLine
10
1346.7698359470171
20
1670.5518185022056
30
0
11
1346.7698359470171
21
1542.7010794128278
31
0
0
LINE
5
539
100
AcDbEntity
8
0
100
AcDbLine
10
1329.570337941183
20
1720.5010794128279
30
0
11
1329.570337941183
21
1620.602557591583
31
0
0
LINE
5
540
100
AcDbEntity
8
0
100
AcDbLine
10
1328.300337941183
20
1620.602557591583
30
0
11
1328.300337941183
21
1720.5010794128279
31
0
0
LINE
5
541
100
AcDbEntity
8
0
100
AcDbLine
10
1332.7998359470171
20
1542.7010794128278
30
0
11
1332.7998359470171
21
1670.5518185022056
31
0
0
LINE
5
542
100
AcDbEntity
8
0
100
AcDbLine
10
1329.570337941183
20
1620.602557591583
30
0
11
1328.300337941183
21
1620.602557591583
31
0
0
LINE
5
543
100
AcDbEntity
8
0
100
AcDbLine
10
1334.0698359470171
20
1670.5518185022056
30
0
11
1334.0698359470171
21
1542.7010794128278
31
0
0
LINE
5
544
100
AcDbEntity
8
0
100
AcDbLine
10
1481.9703379411835
20
1720.5010794128279
30
0
11
1481.9703379411835
21
1620.602557591583
31
0
0
LINE
5
545
100
AcDbEntity
8
0
100
AcDbLine
10
1480.7003379411833
20
1620.602557591583
30
0
11
1480.7003379411833
21
1720.5010794128279
31
0
0
LINE
5
546
100
AcDbEntity
8
0
100
AcDbLine
10
1485.1998359470172
20
1542.7010794128278
30
0
11
1485.1998359470172
21
1670.5518185022056
31
0
0
LINE
5
547
100
AcDbEntity
8
0
100
AcDbLine
10
1481.9703379411835
20
1620.602557591583
30
0
11
1480.7003379411833
21
1620.602557591583
31
0
0
LINE
5
548
100
AcDbEntity
8
0
100
AcDbLine
10
1486.4698359470174
20
1670.5518185022056
30
0
11
1486.4698359470174
21
1542.7010794128278
31
0
0
LINE
5
549
100
AcDbEntity
8
0
100
AcDbLine
10
1469.2703379411832
20
1720.5010794128279
30
0
11
1469.2703379411832
21
1620.602557591583
31
0
0
LINE
5
550
100
AcDbEntity
8
0
100
AcDbLine
10
1468.0003379411835
20
1620.602557591583
30
0
11
1468.0003379411835
21
1720.5010794128279
31
0
0
LINE
5
551
100
AcDbEntity
8
0
100
AcDbLine
10
1472.4998359470173
20
1542.7010794128278
30
0
11
1472.4998359470173
21
1670.5518185022056
31
0
0
LINE
5
552
100
AcDbEntity
8
0
100
AcDbLine
10
1469.2703379411832
20
1620.602557591583
30
0
11
1468.0003379411835
21
1620.602557591583
31
0
0
LINE
5
553
100
AcDbEntity
8
0
100
AcDbLine
10
1473.7698359470176
20
1670.5518185022056
30
0
11
1473.7698359470176
21
1542.7010794128278
31
0
0
LINE
5
554
100
AcDbEntity
8
0
100
AcDbLine
10
1456.5703379411832
20
1720.5010794128279
30
0
11
1456.5703379411832
21
1620.602557591583
31
0
0
LINE
5
555
100
AcDbEntity
8
0
100
AcDbLine
10
1455.300337941183
20
1620.602557591583
30
0
11
1455.300337941183
21
1720.5010794128279
31
0
0
LINE
5
556
100
AcDbEntity
8
0
100
AcDbLine
10
1459.7998359470173
20
1542.7010794128278
30
0
11
1459.7998359470173
21
1670.5518185022056
31
0
0
LINE
5
557
100
AcDbEntity
8
0
100
AcDbLine
10
1456.5703379411832
20
1620.602557591583
30
0
11
1455.300337941183
21
1620.602557591583
31
0
0
LINE
5
558
100
AcDbEntity
8
0
100
AcDbLine
10
1461.0698359470175
20
1670.5518185022056
30
0
11
1461.0698359470175
21
1542.7010794128278
31
0
0
LINE
5
559
100
AcDbEntity
8
0
100
AcDbLine
10
1443.8703379411832
20
1720.5010794128279
30
0
11
1443.8703379411832
21
1620.602557591583
31
0
0
LINE
5
560
100
AcDbEntity
8
0
100
AcDbLine
10
1442.6003379411832
20
1620.602557591583
30
0
11
1442.6003379411832
21
1720.5010794128279
31
0
0
LINE
5
561
100
AcDbEntity
8
0
100
AcDbLine
10
1447.0998359470173
20
1542.7010794128278
30
0
11
1447.0998359470173
21
1670.5518185022056
31
0
0
LINE
5
562
100
AcDbEntity
8
0
100
AcDbLine
10
1443.8703379411832
20
1620.602557591583
30
0
11
1442.6003379411832
21
1620.602557591583
31
0
0
LINE
5
563
100
AcDbEntity
8
0
100
AcDbLine
10
1448.3698359470172
20
1670.5518185022056
30
0
11
1448.3698359470172
21
1542.7010794128278
31
0
0
LINE
5
564
100
AcDbEntity
8
0
100
AcDbLine
10
1431.1703379411833
20
1720.5010794128279
30
0
11
1431.1703379411833
21
1620.602557591583
31
0
0
LINE
5
565
100
AcDbEntity
8
0
100
AcDbLine
10
1429.9003379411831
20
1620.602557591583
30
0
11
1429.9003379411831
21
1720.5010794128279
31
0
0
LINE
5
566
100
AcDbEntity
8
0
100
AcDbLine
10
1434.3998359470174
20
1542.7010794128278
30
0
11
1434.3998359470174
21
1670.5518185022056
31
0
0
LINE
5
567
100
AcDbEntity
8
0
100
AcDbLine
10
1431.1703379411833
20
1620.602557591583
30
0
11
1429.9003379411831
21
1620.602557591583
31
0
0
LINE
5
568
100
AcDbEntity
8
0
100
AcDbLine
10
1435.6698359470172
20
1670.5518185022056
30
0
11
1435.6698359470172
21
1542.7010794128278
31
0
0
LINE
5
569
100
AcDbEntity
8
0
100
AcDbLine
10
1418.4703379411831
20
1720.5010794128279
30
0
11
1418.4703379411831
21
1620.602557591583
31
0
0
LINE
5
570
100
AcDbEntity
8
0
100
AcDbLine
10
1417.2003379411831
20
1620.602557591583
30
0
11
1417.2003379411831
21
1720.5010794128279
31
0
0
LINE
5
571
100
AcDbEntity
8
0
100
AcDbLine
10
1421.6998359470174
20
1542.7010794128278
30
0
11
1421.6998359470174
21
1670.5518185022056
31
0
0
LINE
5
572
100
AcDbEntity
8
0
100
AcDbLine
10
1418.4703379411831
20
1620.602557591583
30
0
11
1417.2003379411831
21
1620.602557591583
31
0
0
LINE
5
573
100
AcDbEntity
8
0
100
AcDbLine
10
1422.9698359470174
20
1670.5518185022056
30
0
11
1422.9698359470174
21
1542.7010794128278
31
0
0
LINE
5
574
100
AcDbEntity
8
0
100
AcDbLine
10
1544.2003379411835
20
1591.7996012340732
30
0
11
1544.2003379411835
21
1491.9010794128283
31
0
0
LINE
5
575
100
AcDbEntity
8
0
100
AcDbLine
10
1545.4703379411833
20
1491.9010794128283
30
0
11
1545.4703379411833
21
1591.7996012340732
31
0
0
LINE
5
576
100
AcDbEntity
8
0
100
AcDbLine
10
1531.5003379411835
20
1591.7996012340732
30
0
11
1531.5003379411835
21
1491.9010794128283
31
0
0
LINE
5
577
100
AcDbEntity
8
0
100
AcDbLine
10
1532.7703379411835
20
1491.9010794128283
30
0
11
1532.7703379411835
21
1591.7996012340732
31
0
0
LINE
5
578
100
AcDbEntity
8
0
100
AcDbLine
10
1518.8003379411834
20
1591.7996012340732
30
0
11
1518.8003379411834
21
1491.9010794128283
31
0
0
LINE
5
579
100
AcDbEntity
8
0
100
AcDbLine
10
1520.0703379411834
20
1491.9010794128283
30
0
11
1520.0703379411834
21
1591.7996012340732
31
0
0
LINE
5
580
100
AcDbEntity
8
0
100
AcDbLine
10
1506.1003379411836
20
1591.7996012340732
30
0
11
1506.1003379411836
21
1491.9010794128283
31
0
0
LINE
5
581
100
AcDbEntity
8
0
100
AcDbLine
10
1507.3703379411834
20
1491.9010794128283
30
0
11
1507.3703379411834
21
1591.7996012340732
31
0
0
LINE
5
582
100
AcDbEntity
8
0
100
AcDbLine
10
1493.4003379411831
20
1591.7996012340732
30
0
11
1493.4003379411831
21
1491.9010794128283
31
0
0
LINE
5
583
100
AcDbEntity
8
0
100
AcDbLine
10
1494.6703379411833
20
1491.9010794128283
30
0
11
1494.6703379411833
21
1591.7996012340732
31
0
0
LINE
5
584
100
AcDbEntity
8
0
100
AcDbLine
10
1499.1698359470174
20
1670.5518185022056
30
0
11
1499.1698359470174
21
1542.7010794128278
31
0
0
LINE
5
585
100
AcDbEntity
8
0
100
AcDbLine
10
1494.6703379411833
20
1620.602557591583
30
0
11
1493.4003379411831
21
1620.602557591583
31
0
0
LINE
5
586
100
AcDbEntity
8
0
100
AcDbLine
10
1494.6703379411833
20
1591.7996012340732
30
0
11
1493.4003379411831
21
1591.7996012340732
31
0
0
LINE
5
587
100
AcDbEntity
8
0
100
AcDbLine
10
1497.8998359470174
20
1542.7010794128278
30
0
11
1497.8998359470174
21
1670.5518185022056
31
0
0
LINE
5
588
100
AcDbEntity
8
0
100
AcDbLine
10
1493.4003379411831
20
1620.602557591583
30
0
11
1493.4003379411831
21
1720.5010794128279
31
0
0
LINE
5
589
100
AcDbEntity
8
0
100
AcDbLine
10
1494.6703379411833
20
1720.5010794128279
30
0
11
1494.6703379411833
21
1620.602557591583
31
0
0
LINE
5
590
100
AcDbEntity
8
0
100
AcDbLine
10
1511.8698359470177
20
1670.5518185022056
30
0
11
1511.8698359470177
21
1542.7010794128278
31
0
0
LINE
5
591
100
AcDbEntity
8
0
100
AcDbLine
10
1507.3703379411834
20
1620.602557591583
30
0
11
1506.1003379411836
21
1620.602557591583
31
0
0
LINE
5
592
100
AcDbEntity
8
0
100
AcDbLine
10
1507.3703379411834
20
1591.7996012340732
30
0
11
1506.1003379411836
21
1591.7996012340732
31
0
0
LINE
5
593
100
AcDbEntity
8
0
100
AcDbLine
10
1510.5998359470175
20
1542.7010794128278
30
0
11
1510.5998359470175
21
1670.5518185022056
31
0
0
LINE
5
594
100
AcDbEntity
8
0
100
AcDbLine
10
1506.1003379411836
20
1620.602557591583
30
0
11
1506.1003379411836
21
1720.5010794128279
31
0
0
LINE
5
595
100
AcDbEntity
8
0
100
AcDbLine
10
1507.3703379411834
20
1720.5010794128279
30
0
11
1507.3703379411834
21
1620.602557591583
31
0
0
LINE
5
596
100
AcDbEntity
8
0
100
AcDbLine
10
1524.5698359470177
20
1670.5518185022056
30
0
11
1524.5698359470177
21
1542.7010794128278
31
0
0
LINE
5
597
100
AcDbEntity
8
0
100
AcDbLine
10
1520.0703379411834
20
1620.602557591583
30
0
11
1518.8003379411834
21
1620.602557591583
31
0
0
LINE
5
598
100
AcDbEntity
8
0
100
AcDbLine
10
1520.0703379411834
20
1591.7996012340732
30
0
11
1518.8003379411834
21
1591.7996012340732
31
0
0
LINE
5
599
100
AcDbEntity
8
0
100
AcDbLine
10
1523.2998359470175
20
1542.7010794128278
30
0
11
1523.2998359470175
21
1670.5518185022056
31
0
0
LINE
5
600
100
AcDbEntity
8
0
100
AcDbLine
10
1518.8003379411834
20
1620.602557591583
30
0
11
1518.8003379411834
21
1720.5010794128279
31
0
0
LINE
5
601
100
AcDbEntity
8
0
100
AcDbLine
10
1520.0703379411834
20
1720.5010794128279
30
0
11
1520.0703379411834
21
1620.602557591583
31
0
0
LINE
5
602
100
AcDbEntity
8
0
100
AcDbLine
10
1537.2698359470176
20
1670.5518185022056
30
0
11
1537.2698359470176
21
1542.7010794128278
31
0
0
LINE
5
603
100
AcDbEntity
8
0
100
AcDbLine
10
1532.7703379411835
20
1620.602557591583
30
0
11
1531.5003379411835
21
1620.602557591583
31
0
0
LINE
5
604
100
AcDbEntity
8
0
100
AcDbLine
10
1532.7703379411835
20
1591.7996012340732
30
0
11
1531.5003379411835
21
1591.7996012340732
31
0
0
LINE
5
605
100
AcDbEntity
8
0
100
AcDbLine
10
1535.9998359470178
20
1542.7010794128278
30
0
11
1535.9998359470178
21
1670.5518185022056
31
0
0
LINE
5
606
100
AcDbEntity
8
0
100
AcDbLine
10
1531.5003379411835
20
1620.602557591583
30
0
11
1531.5003379411835
21
1720.5010794128279
31
0
0
LINE
5
607
100
AcDbEntity
8
0
100
AcDbLine
10
1532.7703379411835
20
1720.5010794128279
30
0
11
1532.7703379411835
21
1620.602557591583
31
0
0
LINE
5
608
100
AcDbEntity
8
0
100
AcDbLine
10
1549.9698359470176
20
1670.5518185022056
30
0
11
1549.9698359470176
21
1542.7010794128278
31
0
0
LINE
5
609
100
AcDbEntity
8
0
100
AcDbLine
10
1545.4703379411833
20
1620.602557591583
30
0
11
1544.2003379411835
21
1620.602557591583
31
0
0
LINE
5
610
100
AcDbEntity
8
0
100
AcDbLine
10
1545.4703379411833
20
1591.7996012340732
30
0
11
1544.2003379411835
21
1591.7996012340732
31
0
0
LINE
5
611
100
AcDbEntity
8
0
100
AcDbLine
10
1548.6998359470176
20
1542.7010794128278
30
0
11
1548.6998359470176
21
1670.5518185022056
31
0
0
LINE
5
612
100
AcDbEntity
8
0
100
AcDbLine
10
1544.2003379411835
20
1620.602557591583
30
0
11
1544.2003379411835
21
1720.5010794128279
31
0
0
LINE
5
613
100
AcDbEntity
8
0
100
AcDbLine
10
1545.4703379411833
20
1720.5010794128279
30
0
11
1545.4703379411833
21
1620.602557591583
31
0
0
LINE
5
614
100
AcDbEntity
8
0
100
AcDbLine
10
923.17033794118197
20
1620.602557591583
30
0
11
921.90033794118199
21
1620.602557591583
31
0
0
LINE
5
615
100
AcDbEntity
8
0
100
AcDbLine
10
927.66983594701605
20
1670.5518185022056
30
0
11
927.66983594701605
21
1542.7010794128278
31
0
0
LINE
5
616
100
AcDbEntity
8
0
100
AcDbLine
10
910.47033794118192
20
1720.5010794128279
30
0
11
910.47033794118192
21
1620.602557591583
31
0
0
LINE
5
617
100
AcDbEntity
8
0
100
AcDbLine
10
909.20033794118183
20
1620.602557591583
30
0
11
909.20033794118183
21
1720.5010794128279
31
0
0
LINE
5
618
100
AcDbEntity
8
0
100
AcDbLine
10
923.17033794118197
20
1720.5010794128279
30
0
11
923.17033794118197
21
1620.602557591583
31
0
0
LINE
5
619
100
AcDbEntity
8
0
100
AcDbLine
10
921.90033794118199
20
1620.602557591583
30
0
11
921.90033794118199
21
1720.5010794128279
31
0
0
LINE
5
620
100
AcDbEntity
8
0
100
AcDbLine
10
926.39983594701607
20
1542.7010794128278
30
0
11
926.39983594701607
21
1670.5518185022056
31
0
0
LINE
5
621
100
AcDbEntity
8
0
100
AcDbLine
10
1139.0703379411825
20
1620.602557591583
30
0
11
1137.8003379411825
21
1620.602557591583
31
0
0
LINE
5
622
100
AcDbEntity
8
0
100
AcDbLine
10
1143.5698359470166
20
1670.5518185022056
30
0
11
1143.5698359470166
21
1542.7010794128278
31
0
0
LINE
5
623
100
AcDbEntity
8
0
100
AcDbLine
10
1126.3703379411825
20
1720.5010794128279
30
0
11
1126.3703379411825
21
1620.602557591583
31
0
0
LINE
5
624
100
AcDbEntity
8
0
100
AcDbLine
10
1125.1003379411825
20
1620.602557591583
30
0
11
1125.1003379411825
21
1720.5010794128279
31
0
0
LINE
5
625
100
AcDbEntity
8
0
100
AcDbLine
10
1129.5998359470166
20
1542.7010794128278
30
0
11
1129.5998359470166
21
1670.5518185022056
31
0
0
LINE
5
626
100
AcDbEntity
8
0
100
AcDbLine
10
1126.3703379411825
20
1620.602557591583
30
0
11
1125.1003379411825
21
1620.602557591583
31
0
0
LINE
5
627
100
AcDbEntity
8
0
100
AcDbLine
10
1130.8698359470166
20
1670.5518185022056
30
0
11
1130.8698359470166
21
1542.7010794128278
31
0
0
LINE
5
628
100
AcDbEntity
8
0
100
AcDbLine
10
1113.6703379411824
20
1720.5010794128279
30
0
11
1113.6703379411824
21
1620.602557591583
31
0
0
LINE
5
629
100
AcDbEntity
8
0
100
AcDbLine
10
1112.4003379411824
20
1620.602557591583
30
0
11
1112.4003379411824
21
1720.5010794128279
31
0
0
LINE
5
630
100
AcDbEntity
8
0
100
AcDbLine
10
1116.8998359470165
20
1542.7010794128278
30
0
11
1116.8998359470165
21
1670.5518185022056
31
0
0
LINE
5
631
100
AcDbEntity
8
0
100
AcDbLine
10
1113.6703379411824
20
1620.602557591583
30
0
11
1112.4003379411824
21
1620.602557591583
31
0
0
LINE
5
632
100
AcDbEntity
8
0
100
AcDbLine
10
1118.1698359470165
20
1670.5518185022056
30
0
11
1118.1698359470165
21
1542.7010794128278
31
0
0
LINE
5
633
100
AcDbEntity
8
0
100
AcDbLine
10
1100.9703379411824
20
1720.5010794128279
30
0
11
1100.9703379411824
21
1620.602557591583
31
0
0
LINE
5
634
100
AcDbEntity
8
0
100
AcDbLine
10
1099.7003379411824
20
1620.602557591583
30
0
11
1099.7003379411824
21
1720.5010794128279
31
0
0
LINE
5
635
100
AcDbEntity
8
0
100
AcDbLine
10
1104.1998359470165
20
1542.7010794128278
30
0
11
1104.1998359470165
21
1670.5518185022056
31
0
0
LINE
5
636
100
AcDbEntity
8
0
100
AcDbLine
10
1100.9703379411824
20
1620.602557591583
30
0
11
1099.7003379411824
21
1620.602557591583
31
0
0
LINE
5
637
100
AcDbEntity
8
0
100
AcDbLine
10
1105.4698359470167
20
1670.5518185022056
30
0
11
1105.4698359470167
21
1542.7010794128278
31
0
0
LINE
5
638
100
AcDbEntity
8
0
100
AcDbLine
10
913.69983594701603
20
1542.7010794128278
30
0
11
913.69983594701603
21
1670.5518185022056
31
0
0
LINE
5
639
100
AcDbEntity
8
0
100
AcDbLine
10
910.47033794118192
20
1620.602557591583
30
0
11
909.20033794118183
21
1620.602557591583
31
0
0
LINE
5
640
100
AcDbEntity
8
0
100
AcDbLine
10
914.96983594701601
20
1670.5518185022056
30
0
11
914.96983594701601
21
1542.7010794128278
31
0
0
LINE
5
641
100
AcDbEntity
8
0
100
AcDbLine
10
1024.7703379411823
20
1720.5010794128279
30
0
11
1024.7703379411823
21
1620.602557591583
31
0
0
LINE
5
642
100
AcDbEntity
8
0
100
AcDbLine
10
1023.5003379411821
20
1620.602557591583
30
0
11
1023.5003379411821
21
1720.5010794128279
31
0
0
LINE
5
643
100
AcDbEntity
8
0
100
AcDbLine
10
1027.9998359470162
20
1542.7010794128278
30
0
11
1027.9998359470162
21
1670.5518185022056
31
0
0
LINE
5
644
100
AcDbEntity
8
0
100
AcDbLine
10
1024.7703379411823
20
1620.602557591583
30
0
11
1023.5003379411821
21
1620.602557591583
31
0
0
LINE
5
645
100
AcDbEntity
8
0
100
AcDbLine
10
1029.2698359470162
20
1670.5518185022056
30
0
11
1029.2698359470162
21
1542.7010794128278
31
0
0
LINE
5
646
100
AcDbEntity
8
0
100
AcDbLine
10
1012.0703379411822
20
1720.5010794128279
30
0
11
1012.0703379411822
21
1620.602557591583
31
0
0
LINE
5
647
100
AcDbEntity
8
0
100
AcDbLine
10
1010.8003379411821
20
1620.602557591583
30
0
11
1010.8003379411821
21
1720.5010794128279
31
0
0
LINE
5
648
100
AcDbEntity
8
0
100
AcDbLine
10
1015.2998359470164
20
1542.7010794128278
30
0
11
1015.2998359470164
21
1670.5518185022056
31
0
0
LINE
5
649
100
AcDbEntity
8
0
100
AcDbLine
10
1012.0703379411822
20
1620.602557591583
30
0
11
1010.8003379411821
21
1620.602557591583
31
0
0
LINE
5
650
100
AcDbEntity
8
0
100
AcDbLine
10
1088.2703379411823
20
1620.602557591583
30
0
11
1087.0003379411824
21
1620.602557591583
31
0
0
LINE
5
651
100
AcDbEntity
8
0
100
AcDbLine
10
1092.7698359470164
20
1670.5518185022056
30
0
11
1092.7698359470164
21
1542.7010794128278
31
0
0
LINE
5
652
100
AcDbEntity
8
0
100
AcDbLine
10
1075.5703379411825
20
1720.5010794128279
30
0
11
1075.5703379411825
21
1620.602557591583
31
0
0
LINE
5
653
100
AcDbEntity
8
0
100
AcDbLine
10
1074.3003379411823
20
1620.602557591583
30
0
11
1074.3003379411823
21
1720.5010794128279
31
0
0
LINE
5
654
100
AcDbEntity
8
0
100
AcDbLine
10
1078.7998359470164
20
1542.7010794128278
30
0
11
1078.7998359470164
21
1670.5518185022056
31
0
0
LINE
5
655
100
AcDbEntity
8
0
100
AcDbLine
10
1088.2703379411823
20
1491.9010794128283
30
0
11
1088.2703379411823
21
1591.7996012340732
31
0
0
LINE
5
656
100
AcDbEntity
8
0
100
AcDbLine
10
1088.2703379411823
20
1591.7996012340732
30
0
11
1087.0003379411824
21
1591.7996012340732
31
0
0
LINE
5
657
100
AcDbEntity
8
0
100
AcDbLine
10
1087.0003379411824
20
1591.7996012340732
30
0
11
1087.0003379411824
21
1491.9010794128283
31
0
0
LINE
5
658
100
AcDbEntity
8
0
100
AcDbLine
10
1100.9703379411824
20
1491.9010794128283
30
0
11
1100.9703379411824
21
1591.7996012340732
31
0
0
LINE
5
659
100
AcDbEntity
8
0
100
AcDbLine
10
1100.9703379411824
20
1591.7996012340732
30
0
11
1099.7003379411824
21
1591.7996012340732
31
0
0
LINE
5
660
100
AcDbEntity
8
0
100
AcDbLine
10
1099.7003379411824
20
1591.7996012340732
30
0
11
1099.7003379411824
21
1491.9010794128283
31
0
0
LINE
5
661
100
AcDbEntity
8
0
100
AcDbLine
10
1113.6703379411824
20
1491.9010794128283
30
0
11
1113.6703379411824
21
1591.7996012340732
31
0
0
LINE
5
662
100
AcDbEntity
8
0
100
AcDbLine
10
1113.6703379411824
20
1591.7996012340732
30
0
11
1112.4003379411824
21
1591.7996012340732
31
0
0
LINE
5
663
100
AcDbEntity
8
0
100
AcDbLine
10
1112.4003379411824
20
1591.7996012340732
30
0
11
1112.4003379411824
21
1491.9010794128283
31
0
0
LINE
5
664
100
AcDbEntity
8
0
100
AcDbLine
10
1126.3703379411825
20
1491.9010794128283
30
0
11
1126.3703379411825
21
1591.7996012340732
31
0
0
LINE
5
665
100
AcDbEntity
8
0
100
AcDbLine
10
1126.3703379411825
20
1591.7996012340732
30
0
11
1125.1003379411825
21
1591.7996012340732
31
0
0
LINE
5
666
100
AcDbEntity
8
0
100
AcDbLine
10
1125.1003379411825
20
1591.7996012340732
30
0
11
1125.1003379411825
21
1491.9010794128283
31
0
0
LINE
5
667
100
AcDbEntity
8
0
100
AcDbLine
10
1139.0703379411825
20
1491.9010794128283
30
0
11
1139.0703379411825
21
1591.7996012340732
31
0
0
LINE
5
668
100
AcDbEntity
8
0
100
AcDbLine
10
1139.0703379411825
20
1591.7996012340732
30
0
11
1137.8003379411825
21
1591.7996012340732
31
0
0
LINE
5
669
100
AcDbEntity
8
0
100
AcDbLine
10
1137.8003379411825
20
1591.7996012340732
30
0
11
1137.8003379411825
21
1491.9010794128283
31
0
0
LINE
5
670
100
AcDbEntity
8
0
100
AcDbLine
10
1151.7703379411823
20
1491.9010794128283
30
0
11
1151.7703379411823
21
1591.7996012340732
31
0
0
LINE
5
671
100
AcDbEntity
8
0
100
AcDbLine
10
1151.7703379411823
20
1591.7996012340732
30
0
11
1150.5003379411826
21
1591.7996012340732
31
0
0
LINE
5
672
100
AcDbEntity
8
0
100
AcDbLine
10
1150.5003379411826
20
1591.7996012340732
30
0
11
1150.5003379411826
21
1491.9010794128283
31
0
0
LINE
5
673
100
AcDbEntity
8
0
100
AcDbLine
10
961.27033794118211
20
1720.5010794128279
30
0
11
961.27033794118211
21
1620.602557591583
31
0
0
LINE
5
674
100
AcDbEntity
8
0
100
AcDbLine
10
960.0003379411819
20
1620.602557591583
30
0
11
960.0003379411819
21
1720.5010794128279
31
0
0
LINE
5
675
100
AcDbEntity
8
0
100
AcDbLine
10
964.49983594701621
20
1542.7010794128278
30
0
11
964.49983594701621
21
1670.5518185022056
31
0
0
LINE
5
676
100
AcDbEntity
8
0
100
AcDbLine
10
961.27033794118211
20
1620.602557591583
30
0
11
960.0003379411819
21
1620.602557591583
31
0
0
LINE
5
677
100
AcDbEntity
8
0
100
AcDbLine
10
965.76983594701619
20
1670.5518185022056
30
0
11
965.76983594701619
21
1542.7010794128278
31
0
0
LINE
5
678
100
AcDbEntity
8
0
100
AcDbLine
10
948.57033794118195
20
1720.5010794128279
30
0
11
948.57033794118195
21
1620.602557591583
31
0
0
LINE
5
679
100
AcDbEntity
8
0
100
AcDbLine
10
947.30033794118197
20
1620.602557591583
30
0
11
947.30033794118197
21
1720.5010794128279
31
0
0
LINE
5
680
100
AcDbEntity
8
0
100
AcDbLine
10
951.79983594701616
20
1542.7010794128278
30
0
11
951.79983594701616
21
1670.5518185022056
31
0
0
LINE
5
681
100
AcDbEntity
8
0
100
AcDbLine
10
1137.8003379411825
20
1620.602557591583
30
0
11
1137.8003379411825
21
1720.5010794128279
31
0
0
LINE
5
682
100
AcDbEntity
8
0
100
AcDbLine
10
1142.2998359470166
20
1542.7010794128278
30
0
11
1142.2998359470166
21
1670.5518185022056
31
0
0
LINE
5
683
100
AcDbEntity
8
0
100
AcDbLine
10
553.60033794118101
20
1591.7996012340732
30
0
11
553.60033794118101
21
1491.9010794128283
31
0
0
LINE
5
684
100
AcDbEntity
8
0
100
AcDbLine
10
554.87033794118111
20
1591.7996012340732
30
0
11
553.60033794118101
21
1591.7996012340732
31
0
0
LINE
5
685
100
AcDbEntity
8
0
100
AcDbLine
10
554.87033794118111
20
1491.9010794128283
30
0
11
554.87033794118111
21
1591.7996012340732
31
0
0
LWPOLYLINE
5
686
100
AcDbEntity
8
0
100
AcDbPolyline
90
4
70
1
43
0.0
10
545.39983594701516
20
1542.7010794128278
10
546.66983594701514
20
1542.7010794128278
10
546.66983594701514
20
1670.5518185022056
10
545.39983594701516
20
1670.5518185022056
0
LINE
5
687
100
AcDbEntity
8
0
100
AcDbLine
10
540.90033794118096
20
1591.7996012340732
30
0
11
540.90033794118096
21
1491.9010794128283
31
0
0
LINE
5
688
100
AcDbEntity
8
0
100
AcDbLine
10
542.17033794118106
20
1491.9010794128283
30
0
11
542.17033794118106
21
1591.7996012340732
31
0
0
LINE
5
689
100
AcDbEntity
8
0
100
AcDbLine
10
617.10033794118112
20
1591.7996012340732
30
0
11
617.10033794118112
21
1491.9010794128283
31
0
0
LINE
5
690
100
AcDbEntity
8
0
100
AcDbLine
10
618.37033794118122
20
1591.7996012340732
30
0
11
617.10033794118112
21
1591.7996012340732
31
0
0
LINE
5
691
100
AcDbEntity
8
0
100
AcDbLine
10
618.37033794118122
20
1491.9010794128283
30
0
11
618.37033794118122
21
1591.7996012340732
31
0
0
LINE
5
692
100
AcDbEntity
8
0
100
AcDbLine
10
604.40033794118119
20
1591.7996012340732
30
0
11
604.40033794118119
21
1491.9010794128283
31
0
0
LINE
5
693
100
AcDbEntity
8
0
100
AcDbLine
10
605.67033794118117
20
1591.7996012340732
30
0
11
604.40033794118119
21
1591.7996012340732
31
0
0
LINE
5
694
100
AcDbEntity
8
0
100
AcDbLine
10
605.67033794118117
20
1491.9010794128283
30
0
11
605.67033794118117
21
1591.7996012340732
31
0
0
LINE
5
695
100
AcDbEntity
8
0
100
AcDbLine
10
591.70033794118115
20
1591.7996012340732
30
0
11
591.70033794118115
21
1491.9010794128283
31
0
0
LINE
5
696
100
AcDbEntity
8
0
100
AcDbLine
10
592.97033794118113
20
1591.7996012340732
30
0
11
591.70033794118115
21
1591.7996012340732
31
0
0
LINE
5
697
100
AcDbEntity
8
0
100
AcDbLine
10
592.97033794118113
20
1491.9010794128283
30
0
11
592.97033794118113
21
1591.7996012340732
31
0
0
LINE
5
698
100
AcDbEntity
8
0
100
AcDbLine
10
579.0003379411811
20
1591.7996012340732
30
0
11
579.0003379411811
21
1491.9010794128283
31
0
0
LINE
5
699
100
AcDbEntity
8
0
100
AcDbLine
10
580.27033794118108
20
1591.7996012340732
30
0
11
579.0003379411811
21
1591.7996012340732
31
0
0
LINE
5
700
100
AcDbEntity
8
0
100
AcDbLine
10
580.27033794118108
20
1491.9010794128283
30
0
11
580.27033794118108
21
1591.7996012340732
31
0
0
LINE
5
701
100
AcDbEntity
8
0
100
AcDbLine
10
566.30033794118106
20
1591.7996012340732
30
0
11
566.30033794118106
21
1491.9010794128283
31
0
0
LINE
5
702
100
AcDbEntity
8
0
100
AcDbLine
10
567.57033794118104
20
1591.7996012340732
30
0
11
566.30033794118106
21
1591.7996012340732
31
0
0
LINE
5
703
100
AcDbEntity
8
0
100
AcDbLine
10
567.57033794118104
20
1491.9010794128283
30
0
11
567.57033794118104
21
1591.7996012340732
31
0
0
LINE
5
704
100
AcDbEntity
8
0
100
AcDbLine
10
559.36983594701519
20
1670.5518185022056
30
0
11
559.36983594701519
21
1542.7010794128278
31
0
0
LINE
5
705
100
AcDbEntity
8
0
100
AcDbLine
10
558.09983594701509
20
1542.7010794128278
30
0
11
558.09983594701509
21
1670.5518185022056
31
0
0
LWPOLYLINE
5
706
100
AcDbEntity
8
0
100
AcDbPolyline
90
4
70
1
43
0.0
10
542.17033794118106
20
1720.5010794128279
10
540.90033794118096
20
1720.5010794128279
10
540.90033794118096
20
1620.602557591583
10
542.17033794118106
20
1620.602557591583
0
LINE
5
707
100
AcDbEntity
8
0
100
AcDbLine
10
542.17033794118106
20
1591.7996012340732
30
0
11
540.90033794118096
21
1591.7996012340732
31
0
0
LINE
5
708
100
AcDbEntity
8
0
100
AcDbLine
10
618.37033794118122
20
1720.5010794128279
30
0
11
618.37033794118122
21
1620.602557591583
31
0
0
LINE
5
709
100
AcDbEntity
8
0
100
AcDbLine
10
617.10033794118112
20
1620.602557591583
30
0
11
617.10033794118112
21
1720.5010794128279
31
0
0
LINE
5
710
100
AcDbEntity
8
0
100
AcDbLine
10
618.37033794118122
20
1620.602557591583
30
0
11
617.10033794118112
21
1620.602557591583
31
0
0
LINE
5
711
100
AcDbEntity
8
0
100
AcDbLine
10
605.67033794118117
20
1720.5010794128279
30
0
11
605.67033794118117
21
1620.602557591583
31
0
0
LINE
5
712
100
AcDbEntity
8
0
100
AcDbLine
10
604.40033794118119
20
1620.602557591583
30
0
11
604.40033794118119
21
1720.5010794128279
31
0
0
LINE
5
713
100
AcDbEntity
8
0
100
AcDbLine
10
605.67033794118117
20
1620.602557591583
30
0
11
604.40033794118119
21
1620.602557591583
31
0
0
LINE
5
714
100
AcDbEntity
8
0
100
AcDbLine
10
592.97033794118113
20
1720.5010794128279
30
0
11
592.97033794118113
21
1620.602557591583
31
0
0
LINE
5
715
100
AcDbEntity
8
0
100
AcDbLine
10
591.70033794118115
20
1620.602557591583
30
0
11
591.70033794118115
21
1720.5010794128279
31
0
0
LINE
5
716
100
AcDbEntity
8
0
100
AcDbLine
10
592.97033794118113
20
1620.602557591583
30
0
11
591.70033794118115
21
1620.602557591583
31
0
0
LINE
5
717
100
AcDbEntity
8
0
100
AcDbLine
10
580.27033794118108
20
1720.5010794128279
30
0
11
580.27033794118108
21
1620.602557591583
31
0
0
LINE
5
718
100
AcDbEntity
8
0
100
AcDbLine
10
579.0003379411811
20
1620.602557591583
30
0
11
579.0003379411811
21
1720.5010794128279
31
0
0
LINE
5
719
100
AcDbEntity
8
0
100
AcDbLine
10
580.27033794118108
20
1620.602557591583
30
0
11
579.0003379411811
21
1620.602557591583
31
0
0
LINE
5
720
100
AcDbEntity
8
0
100
AcDbLine
10
567.57033794118104
20
1720.5010794128279
30
0
11
567.57033794118104
21
1620.602557591583
31
0
0
LINE
5
721
100
AcDbEntity
8
0
100
AcDbLine
10
566.30033794118106
20
1620.602557591583
30
0
11
566.30033794118106
21
1720.5010794128279
31
0
0
LINE
5
722
100
AcDbEntity
8
0
100
AcDbLine
10
567.57033794118104
20
1620.602557591583
30
0
11
566.30033794118106
21
1620.602557591583
31
0
0
LINE
5
723
100
AcDbEntity
8
0
100
AcDbLine
10
554.87033794118111
20
1720.5010794128279
30
0
11
554.87033794118111
21
1620.602557591583
31
0
0
LINE
5
724
100
AcDbEntity
8
0
100
AcDbLine
10
553.60033794118101
20
1620.602557591583
30
0
11
553.60033794118101
21
1720.5010794128279
31
0
0
LINE
5
725
100
AcDbEntity
8
0
100
AcDbLine
10
554.87033794118111
20
1620.602557591583
30
0
11
553.60033794118101
21
1620.602557591583
31
0
0
LINE
5
726
100
AcDbEntity
8
0
100
AcDbLine
10
525.76985774978721
20
1606.2010794128282
30
0
11
537.56833863480381
21
1606.2010794128282
31
0
0
LINE
5
727
100
AcDbEntity
8
0
100
AcDbLine
10
584.76983594701528
20
1670.5518185022056
30
0
11
584.76983594701528
21
1542.7010794128278
31
0
0
LINE
5
728
100
AcDbEntity
8
0
100
AcDbLine
10
583.49983594701519
20
1542.7010794128278
30
0
11
583.49983594701519
21
1670.5518185022056
31
0
0
LINE
5
729
100
AcDbEntity
8
0
100
AcDbLine
10
572.06983594701524
20
1670.5518185022056
30
0
11
572.06983594701524
21
1542.7010794128278
31
0
0
LINE
5
730
100
AcDbEntity
8
0
100
AcDbLine
10
570.79983594701514
20
1542.7010794128278
30
0
11
570.79983594701514
21
1670.5518185022056
31
0
0
LINE
5
731
100
AcDbEntity
8
0
100
AcDbLine
10
597.46983594701521
20
1670.5518185022056
30
0
11
597.46983594701521
21
1542.7010794128278
31
0
0
LINE
5
732
100
AcDbEntity
8
0
100
AcDbLine
10
596.19983594701523
20
1542.7010794128278
30
0
11
596.19983594701523
21
1670.5518185022056
31
0
0
LINE
5
733
100
AcDbEntity
8
0
100
AcDbLine
10
610.16983594701526
20
1670.5518185022056
30
0
11
610.16983594701526
21
1542.7010794128278
31
0
0
LINE
5
734
100
AcDbEntity
8
0
100
AcDbLine
10
608.89983594701528
20
1542.7010794128278
30
0
11
608.89983594701528
21
1670.5518185022056
31
0
0
LINE
5
735
100
AcDbEntity
8
0
100
AcDbLine
10
622.8698359470153
20
1670.5518185022056
30
0
11
622.8698359470153
21
1542.7010794128278
31
0
0
LINE
5
736
100
AcDbEntity
8
0
100
AcDbLine
10
621.59983594701532
20
1542.7010794128278
30
0
11
621.59983594701532
21
1670.5518185022056
31
0
0
LINE
5
737
100
AcDbEntity
8
0
100
AcDbLine
10
1075.5703379411825
20
1491.9010794128283
30
0
11
1075.5703379411825
21
1591.7996012340732
31
0
0
LINE
5
738
100
AcDbEntity
8
0
100
AcDbLine
10
1061.6003379411823
20
1591.7996012340732
30
0
11
1061.6003379411823
21
1491.9010794128283
31
0
0
ENDSEC
0
SECTION
2
OBJECTS
0
DICTIONARY
5
C
100
AcDbDictionary
3
ACAD_GROUP
350
D
3
ACAD_MLINESTYLE
350
17
0
DICTIONARY
5
D
100
AcDbDictionary
0
DICTIONARY
5
1A
330
C
100
AcDbDictionary
0
DICTIONARY
5
17
100
AcDbDictionary
0
ENDSEC
0
EOF
