0
SECTION
2
HEADER
9
$INSUNITS
70
4
9
$ACADVER
1
AC1014
9
$HANDSEED
5
FFFF
0
ENDSEC
0
SECTION
2
TABLES
0
TABLE
2
VPORT
5
8
100
AcDbSymbolTable
0
ENDTAB
0
TABLE
2
LTYPE
5
5
100
AcDbSymbolTable
0
LTYPE
5
14
100
AcDbSymbolTableRecord
100
AcDbLinetypeTableRecord
2
BYBLOCK
70
0
0
LTYPE
5
15
100
AcDbSymbolTableRecord
100
AcDbLinetypeTableRecord
2
BYLAYER
70
0
0
ENDTAB
0
TABLE
2
LAYER
5
2
100
AcDbSymbolTable
70
2
0
LAYER
5
50
100
AcDbSymbolTableRecord
100
AcDbLayerTableRecord
2
0
70
0
6
CONTINUOUS
0
ENDTAB
0
TABLE
2
STYLE
5
3
100
AcDbSymbolTable
70
1
0
STYLE
5
11
100
AcDbSymbolTableRecord
100
AcDbTextStyleTableRecord
2
STANDARD
70
0
0
ENDTAB
0
TABLE
2
VIEW
5
6
100
AcDbSymbolTable
70
0
0
ENDTAB
0
TABLE
2
UCS
5
7
100
AcDbSymbolTable
70
0
0
ENDTAB
0
TABLE
2
APPID
5
9
100
AcDbSymbolTable
70
2
0
APPID
5
12
100
AcDbSymbolTableRecord
100
AcDbRegAppTableRecord
2
ACAD
70
0
0
ENDTAB
0
TABLE
2
DIMSTYLE
5
A
100
AcDbSymbolTable
70
1
0
ENDTAB
0
TABLE
2
BLOCK_RECORD
5
1
100
AcDbSymbolTable
70
1
0
BLOCK_RECORD
5
1F
100
AcDbSymbolTableRecord
100
AcDbBlockTableRecord
2
*MODEL_SPACE
0
BLOCK_RECORD
5
1B
100
AcDbSymbolTableRecord
100
AcDbBlockTableRecord
2
*PAPER_SPACE
0
ENDTAB
0
ENDSEC
0
SECTION
2
BLOCKS
0
BLOCK
5
20
100
AcDbEntity
100
AcDbBlockBegin
2
*MODEL_SPACE
0
ENDBLK
5
21
100
AcDbEntity
100
AcDbBlockEnd
0
BLOCK
5
1C
100
AcDbEntity
100
AcDbBlockBegin
2
*PAPER_SPACE
0
ENDBLK
5
1D
100
AcDbEntity
100
AcDbBlockEnd
0
ENDSEC
0
SECTION
2
ENTITIES
0
CIRCLE
5
100
100
AcDbEntity
8
0
100
AcDbCircle
10
503.37887223517674
20
-521.18150043432956
30
0
40
35.999999999999986
0
ELLIPSE
5
101
100
AcDbEntity
8
0
100
AcDbEllipse
10
365.24311821054079
20
-673.32116578070884
30
0
11
0.001944066536503791
21
296.37473062137542
31
0.0
40
0.52763245680160042
41
-0.41091577326699924
42
-0.41091577326699924
0
CIRCLE
5
102
100
AcDbEntity
8
0
100
AcDbCircle
10
227.10877604721946
20
-521.18150043432956
30
0
40
35.999999999999964
0
CIRCLE
5
103
100
AcDbEntity
8
0
100
AcDbCircle
10
524.79036598023322
20
-622.36872181304398
30
0
40
36.000000000000028
0
LINE
5
104
100
AcDbEntity
8
0
100
AcDbLine
10
516.69601072972137
20
-673.32218721497134
30
0
11
558.36815131910294
21
-673.32222822088386
31
0
0
CIRCLE
5
105
100
AcDbEntity
8
0
100
AcDbCircle
10
274.89021825453312
20
-428.42578668130193
30
0
40
35.999999999999964
0
LINE
5
106
100
AcDbEntity
8
0
100
AcDbLine
10
558.36815131910294
20
-673.32222822088386
30
0
11
575.24504546219066
21
-673.32223362893956
31
0
0
LINE
5
107
100
AcDbEntity
8
0
100
AcDbLine
10
575.24504546219066
20
-673.32223362893956
30
0
11
575.2450268877069
21
-667.69669571318332
31
0
0
CIRCLE
5
108
100
AcDbEntity
8
0
100
AcDbCircle
10
205.87171281988338
20
-622.36912516377686
30
0
40
36
0
ELLIPSE
5
109
100
AcDbEntity
8
0
100
AcDbEllipse
10
365.24311821054079
20
-673.32116578070884
30
0
11
-0.00011489143677993185
21
248.37473060919152
31
0.0
40
0.43634441791373374
41
1.5707921645791609
42
1.5707963267948957
0
LINE
5
110
100
AcDbEntity
8
0
100
AcDbLine
10
155.24119095918502
20
-673.32043438605308
30
0
11
208.86619095901926
21
-673.32030825489358
31
0
0
CIRCLE
5
111
100
AcDbEntity
8
0
100
AcDbCircle
10
455.59830811890373
20
-428.42578668130204
30
0
40
36.000000000000007
0
CIRCLE
5
112
100
AcDbEntity
8
0
100
AcDbCircle
10
365.24300331910388
20
-373.94643517151792
30
0
40
35.999999999999986
0
ELLIPSE
5
113
100
AcDbEntity
8
0
100
AcDbEllipse
10
365.24311821054079
20
-673.32116578070884
30
0
11
-0.00011489143687981597
21
248.37473060919109
31
0.0
40
0.44498976654525091
41
4.8755701479874265
42
6.2831850053470122
0
ELLIPSE
5
114
100
AcDbEntity
8
0
100
AcDbEllipse
10
365.24311821054079
20
-673.32116578070884
30
0
11
-0.00011489143687981597
21
248.37473060919109
31
0.0
40
0.44498976654525091
41
6.2831850053470113
42
7.6569236748893648
0
ARC
5
115
100
AcDbEntity
8
0
100
AcDbCircle
10
524.79036598023322
20
-622.36872181304398
30
0
40
51.592385323678293
100
AcDbArc
50
191.85844511134812
51
260.96596536643511
0
ARC
5
116
100
AcDbEntity
8
0
100
AcDbCircle
10
205.87171281988338
20
-622.36912516377686
30
0
40
51.039102242400951
100
AcDbArc
50
273.36349063259655
51
352.88636900235758
0
ELLIPSE
5
117
100
AcDbEntity
8
0
100
AcDbEllipse
10
365.24311821054079
20
-673.32116578070884
30
0
11
-0.00011489143709297878
21
350.00073060919078
31
0.0
40
0.60000425395360546
41
4.7123857324383795
42
7.8539816339744828
0
LINE
5
118
100
AcDbEntity
8
0
100
AcDbLine
10
256.5179427703689
20
-628.68968290436726
30
0
11
256.85787631672389
21
-624.69314960076281
31
0
0
LINE
5
119
100
AcDbEntity
8
0
100
AcDbLine
10
172.11785531910459
20
-698.32043517151817
30
0
11
558.36815131910282
21
-698.32043517151817
31
0
0
LINE
5
120
100
AcDbEntity
8
0
100
AcDbLine
10
575.24504546219066
20
-1048.3222336289396
30
0
11
575.2450268877069
21
-1042.6966957131833
31
0
0
ELLIPSE
5
121
100
AcDbEntity
8
0
100
AcDbEllipse
10
365.24311821054079
20
-1048.3211657807087
30
0
11
-0.00011489143687981597
21
248.37473060919109
31
0.0
40
0.44498976654525085
41
4.8755701479874265
42
6.2831850053470122
0
ELLIPSE
5
122
100
AcDbEntity
8
0
100
AcDbEllipse
10
365.24311821054079
20
-1048.3211657807087
30
0
11
0.0019440665365037918
21
296.37473062137542
31
0.0
40
0.52763245680160042
41
-0.28011850171325681
42
-0.28011850171325681
0
LINE
5
123
100
AcDbEntity
8
0
100
AcDbLine
10
155.24284606910476
20
-715.66519480693478
30
0
11
155.24284606910476
21
-698.32043517151817
31
0
0
LINE
5
124
100
AcDbEntity
8
0
100
AcDbLine
10
155.24119095918502
20
-1048.3204343860532
30
0
11
208.86619095901926
21
-1048.3203082548935
31
0
0
LINE
5
125
100
AcDbEntity
8
0
100
AcDbLine
10
155.24284606910476
20
-715.66519480693478
30
0
11
155.24119095918502
21
-1048.3204343860532
31
0
0
LINE
5
126
100
AcDbEntity
8
0
100
AcDbLine
10
516.69601072972137
20
-1048.3221872149713
30
0
11
558.36815131910294
21
-1048.3222282208837
31
0
0
ELLIPSE
5
127
100
AcDbEntity
8
0
100
AcDbEllipse
10
365.24311821054079
20
-1048.3211657807087
30
0
11
-0.00011489143687981597
21
248.37473060919109
31
0.0
40
0.44498976654525085
41
6.2831850053470122
42
7.6569236748893656
0
ELLIPSE
5
128
100
AcDbEntity
8
0
100
AcDbEllipse
10
365.24311821054079
20
-1048.3211657807087
30
0
11
-0.00011489143677993185
21
248.37473060919152
31
0.0
40
0.43634441791373368
41
1.5707921645791609
42
1.5707963267948957
0
ARC
5
129
100
AcDbEntity
8
0
100
AcDbCircle
10
524.79036598023322
20
-997.36872181304398
30
0
40
51.592385323678286
100
AcDbArc
50
191.85844511134812
51
260.96596536643511
0
LINE
5
130
100
AcDbEntity
8
0
100
AcDbLine
10
256.5179427703689
20
-1003.6896829043673
30
0
11
256.85787631672389
21
-999.69314960076281
31
0
0
LINE
5
131
100
AcDbEntity
8
0
100
AcDbLine
10
575.2450268877069
20
-1042.6966957131833
30
0
11
575.24316056910288
21
-698.32043517151806
31
0
0
LINE
5
132
100
AcDbEntity
8
0
100
AcDbLine
10
558.36815131910282
20
-698.32043517151817
30
0
11
575.24316056910288
21
-698.32043517151806
31
0
0
LINE
5
133
100
AcDbEntity
8
0
100
AcDbLine
10
558.36815131910294
20
-1048.3222282208837
30
0
11
575.24504546219066
21
-1048.3222336289396
31
0
0
LINE
5
134
100
AcDbEntity
8
0
100
AcDbLine
10
155.24284606910476
20
-698.32043517151817
30
0
11
172.11785531910459
21
-698.32043517151817
31
0
0
ARC
5
135
100
AcDbEntity
8
0
100
AcDbCircle
10
205.87171281988338
20
-997.36912516377686
30
0
40
51.039102242400951
100
AcDbArc
50
273.36349063259655
51
352.88636900235758
0
ENDSEC
0
SECTION
2
OBJECTS
0
DICTIONARY
5
C
100
AcDbDictionary
3
ACAD_GROUP
350
D
3
ACAD_MLINESTYLE
350
17
0
DICTIONARY
5
D
100
AcDbDictionary
0
DICTIONARY
5
1A
330
C
100
AcDbDictionary
0
DICTIONARY
5
17
100
AcDbDictionary
0
ENDSEC
0
EOF
