  0
SECTION
  2

  0
SECTION
  2
TABLES
  0
TABLE
  2
VPORT
 70
     1
  0
VPORT
  2
*ACTIVE
 70
     0
 10
0.0
 20
0.0
 11
1.0
 21
1.0
 12
16629.995106794689
 22
-7542.631801654843
 13
0.0
 23
0.0
 14
10.0
 24
10.0
 15
10.0
 25
10.0
 16
0.0
 26
0.0
 36
1.0
 17
0.0
 27
0.0
 37
0.0
 40
309.97223056961411
 41
2.5185676392572942
 42
50.0
 43
0.0
 44
0.0
 50
0.0
 51
0.0
 71
     0
 72
   100
 73
     1
 74
     3
 75
     0
 76
     0
 77
     0
 78
     0
  0
ENDTAB
  0
TABLE
  2
LTYPE
 70
     3
  0
LTYPE
  2
CONTINUOUS
 70
     0
  3
Solid line
 72
    65
 73
     0
 40
0.0
  0
LTYPE
  2
HIDDEN
 70
     0
  3
Hidden __ __ __ __ __ __ __ __ __ __ __ __ __ __
 72
    65
 73
     2
 40
1.905
 49
1.27
 49
-0.635
  0
ENDTAB
  0
TABLE
  2
LAYER
 70
    33
  0
LAYER
  2
0
 70
     0
 62
     7
  6
CONTINUOUS
  0
LAYER
  2
DEFPOINTS
 70
     0
 62
     7
  6
CONTINUOUS
  0
LAYER
  2
PROFILO
 70
     0
 62
     5
  6
CONTINUOUS
  0
LAYER
  2
V-P0
 70
     0
 62
     8
  6
CONTINUOUS
  0
LAYER
  2
PANNELLO
 70
     0
 62
     6
  6
CONTINUOUS
  0
LAYER
  2
C_P7_LATO_OPPOSTO
 70
     0
 62
   120
  6
CONTINUOUS
  0
LAYER
  2
C_P3_LATO_OPPOSTO
 70
     0
 62
    70
  6
CONTINUOUS
  0
LAYER
  2
C_P7_LATO_OPPOSTO_ESTERNO
 70
     0
 62
    31
  6
HIDDEN
  0
LAYER
  2
V_P0_LATO_OPPOSTO
 70
     0
 62
    83
  6
CONTINUOUS
  0
LAYER
  2
V-P2
 70
     0
 62
   103
  6
CONTINUOUS
  0
LAYER
  2
V_P2_LATO_OPPOSTO
 70
     0
 62
   103
  6
CONTINUOUS
  0
LAYER
  2
C-P1
 70
     0
 62
    11
  6
CONTINUOUS
  0
LAYER
  2
C-P2
 70
     0
 62
    61
  6
CONTINUOUS
  0
LAYER
  2
C-P3
 70
     0
 62
    30
  6
CONTINUOUS
  0
LAYER
  2
C-P4
 70
     0
 62
    42
  6
CONTINUOUS
  0
LAYER
  2
C-P35
 70
     0
 62
    30
  6
CONTINUOUS
  0
LAYER
  2
C-P05
 70
     0
 62
    41
  6
CONTINUOUS
  0
LAYER
  2
C-P25
 70
     0
 62
    81
  6
CONTINUOUS
  0
LAYER
  2
C_P15_LATO_OPPOSTO
 70
     0
 62
    54
  6
CONTINUOUS
  0
LAYER
  2
C-P45
 70
     0
 62
    40
  6
CONTINUOUS
  0
LAYER
  2
FORI_SPINE_PER_CENTRAMENTO
 70
     0
 62
     1
  6
CONTINUOUS
  0
LAYER
  2
C-P15
 70
     0
 62
   254
  6
CONTINUOUS
  0
ENDTAB
  0
TABLE
  2
STYLE
 70
     1
  0
STYLE
  2
STANDARD
 70
     0
 40
0.0
 41
1.0
 50
0.0
 71
     0
 42
2.5
  3
txt
  4

  0
ENDTAB
  0
TABLE
  2
VIEW
 70
     0
  0
ENDTAB
  0
TABLE
  2
UCS
 70
     0
  0
ENDTAB
  0
TABLE
  2
APPID
 70
    13
  0
APPID
  2
ACAD
 70
     0
  0
APPID
  2
ACAUTHENVIRON
 70
     0
  0
APPID
  2
ACAD_EXEMPT_FROM_CAD_STANDARDS
 70
     0
  0
APPID
  2
ACDBDYNAMICBLOCKTRUENAME
 70
     0
  0
APPID
  2
ACDBDYNAMICBLOCKGUID
 70
     0
  0
APPID
  2
ACAD_NAV_VCDISPLAY
 70
     0
  0
APPID
  2
GRADIENTCOLOR1ACI
 70
     0
  0
APPID
  2
GRADIENTCOLOR2ACI
 70
     0
  0
APPID
  2
ACAECLAYERSTANDARD
 70
     0
  0
APPID
  2
ACCMTRANSPARENCY
 70
     0
  0
APPID
  2
ACAD_DSTYLE_DIMRADIAL_EXTENSION
 70
     0
  0
APPID
  2
ACAD_PSEXT
 70
     0
  0
APPID
  2
ACAD_MLEADERVER
 70
     0
  0
ENDTAB
  0
TABLE
  2
DIMSTYLE
 70
     2
  0
DIMSTYLE
  2
ISO-25
 70
     0
  3

  4

  5

  6

  7

 40
1.0
 41
2.5
 42
0.625
 43
3.75
 44
1.25
 45
0.0
 46
0.0
 47
0.0
 48
0.0
140
20.0
141
2.5
142
0.0
143
0.03937007874016
144
1.0
145
0.0
146
1.0
147
0.625
 71
     0
 72
     0
 73
     0
 74
     0
 75
     0
 76
     0
 77
     1
 78
     8
170
     0
171
     3
172
     1
173
     0
174
     0
175
     0
176
     0
177
     0
178
     0
  0
DIMSTYLE
  2
STANDARD
 70
     0
  3

  4

  5

  6

  7

 40
1.0
 41
0.18
 42
0.0625
 43
0.38
 44
0.18
 45
0.0
 46
0.0
 47
0.0
 48
0.0
140
0.18
141
0.09
142
0.0
143
25.399999999999999
144
1.0
145
0.0
146
1.0
147
0.09
 71
     0
 72
     0
 73
     1
 74
     1
 75
     0
 76
     0
 77
     0
 78
     0
170
     0
171
     2
172
     0
173
     0
174
     0
175
     0
176
     0
177
     0
178
     0
  0
ENDTAB
  0
ENDSEC
  0
SECTION
  2
BLOCKS
  0
BLOCK
  8
0
  2
$MODEL_SPACE
 70
     0
 10
0.0
 20
0.0
 30
0.0
  3
$MODEL_SPACE
  1

  0
ENDBLK
  5
21
  8
0
  0
BLOCK
 67
     1
  8
0
  2
$PAPER_SPACE
 70
     0
 10
0.0
 20
0.0
 30
0.0
  3
$PAPER_SPACE
  1

  0
ENDBLK
  5
1D
 67
     1
  8
0
  0
BLOCK
  8
0
 62
     3
  2
*U105
 70
     1
 10
0.0
 20
0.0
 30
0.0
  3
*U105
  1

  0
TEXT
  5
5901F
  8
PROFILO
 62
     0
 10
18823.632051220611
 20
-7507.0385413471231
 30
0.0
 40
20.0
  1
233.29
  0
ENDBLK
  5
59021
  8
0
 62
     3
  0
BLOCK
  8
0
 62
     3
  2
*U106
 70
     1
 10
0.0
 20
0.0
 30
0.0
  3
*U106
  1

  0
TEXT
  5
59023
  8
PROFILO
 62
     0
 10
18741.048717887272
 20
-7325.8959941063877
 30
0.0
 40
20.0
  1
411.79
  0
ENDBLK
  5
59025
  8
0
 62
     3
  0
BLOCK
  8
0
 62
     3
  2
*U107
 70
     1
 10
0.0
 20
0.0
 30
0.0
  3
*U107
  1

  0
TEXT
  5
59027
  8
PROFILO
 62
     0
 10
19033.79923433048
 20
-7452.5987975967582
 30
0.0
 40
20.0
  1
118.23
 50
90.0
  0
ENDBLK
  5
59029
  8
0
 62
     3
  0
BLOCK
  8
0
 62
     3
  2
*U108
 70
     1
 10
0.0
 20
0.0
 30
0.0
  3
*U108
  1

  0
TEXT
  5
5902B
  8
PROFILO
 62
     0
 10
19407.855331415121
 20
-8224.8820547629439
 30
0.0
 40
20.0
  1
580.65
  0
ENDBLK
  5
5902D
  8
0
 62
     3
  0
BLOCK
  8
0
 62
     3
  2
*U109
 70
     1
 10
0.0
 20
0.0
 30
0.0
  3
*U109
  1

  0
TEXT
  5
5902F
  8
PROFILO
 62
     0
 10
19500.279643868449
 20
-8406.8464615761113
 30
0.0
 40
20.0
  1
399.14
  0
ENDBLK
  5
59031
  8
0
 62
     3
  0
BLOCK
  8
0
 62
     3
  2
*U110
 70
     1
 10
0.0
 20
0.0
 30
0.0
  3
*U110
  1

  0
TEXT
  5
59033
  8
PROFILO
 62
     0
 10
19134.621508471871
 20
-8452.9174844875997
 30
0.0
 40
20.0
  1
44
 50
90.0
  0
ENDBLK
  5
59035
  8
0
 62
     3
  0
ENDSEC
  0
SECTION
  2
ENTITIES
  0
POLYLINE
  5
555D5
  8
PANNELLO
 66
     1
 10
0.0
 20
0.0
 30
0.0
 70
     1
  0
VERTEX
  5
59012
  8
PANNELLO
 10
16326.009840113329
 20
-7389.2626827466438
 30
0.0
  0
VERTEX
  5
59013
  8
PANNELLO
 10
16326.009840113329
 20
-7695.2626827466438
 30
0.0
  0
VERTEX
  5
59014
  8
PANNELLO
 10
16934.009840113329
 20
-7695.2626827466438
 30
0.0
  0
VERTEX
  5
59015
  8
PANNELLO
 10
16934.009840113329
 20
-7389.2626827466438
 30
0.0
  0
SEQEND
  5
59016
  8
PANNELLO
  0
POLYLINE
  5
555D6
  8
PANNELLO
 66
     1
 10
0.0
 20
0.0
 30
0.0
 70
     1
  0
VERTEX
  5
59017
  8
PANNELLO
 10
16336.009840113329
 20
-7399.2626827466447
 30
0.0
  0
VERTEX
  5
59018
  8
PANNELLO
 10
16336.009840113329
 20
-7685.2626827466447
 30
0.0
  0
VERTEX
  5
59019
  8
PANNELLO
 10
16924.009840113329
 20
-7685.2626827466447
 30
0.0
  0
VERTEX
  5
5901A
  8
PANNELLO
 10
16924.009840113329
 20
-7399.2626827466447
 30
0.0
  0
SEQEND
  5
5901B
  8
PANNELLO
  0
CIRCLE
  5
55601
  8
PROFILO
 10
16617.009840113329
 20
-7404.2626827466447
 30
0.0
 40
2.6000000000000001
  0
CIRCLE
  5
55602
  8
FORI_SPINE_PER_CENTRAMENTO
 10
16617.009840113329
 20
-7404.2626827466447
 30
0.0
 40
1.0125
  0
CIRCLE
  5
55603
  8
PROFILO
 10
16341.009840113329
 20
-7404.2626827466447
 30
0.0
 40
2.6000000000000001
  0
CIRCLE
  5
55604
  8
FORI_SPINE_PER_CENTRAMENTO
 10
16341.009840113329
 20
-7404.2626827466447
 30
0.0
 40
1.0125
  0
CIRCLE
  5
55605
  8
PROFILO
 10
16617.009840113329
 20
-7680.2626827466447
 30
0.0
 40
2.6000000000000001
  0
CIRCLE
  5
55606
  8
FORI_SPINE_PER_CENTRAMENTO
 10
16617.009840113329
 20
-7680.2626827466447
 30
0.0
 40
1.0125
  0
CIRCLE
  5
55607
  8
PROFILO
 10
16341.009840113329
 20
-7680.2626827466447
 30
0.0
 40
2.6000000000000001
  0
CIRCLE
  5
55608
  8
FORI_SPINE_PER_CENTRAMENTO
 10
16341.009840113329
 20
-7680.2626827466447
 30
0.0
 40
1.0125
  0
POLYLINE
  5
58E61
  8
V_P0_LATO_OPPOSTO
 66
     1
 10
0.0
 20
0.0
 30
0.0
  0
VERTEX
  5
59036
  8
V_P0_LATO_OPPOSTO
 10
16549.97969583096
 20
-7574.4854705060015
 30
0.0
 42
-0.3583027189332279
  0
VERTEX
  5
59037
  8
V_P0_LATO_OPPOSTO
 10
16543.800789828481
 20
-7566.9699639262581
 30
0.0
  0
VERTEX
  5
59038
  8
V_P0_LATO_OPPOSTO
 10
16543.800789828481
 20
-7555.6001827466489
 30
0.0
  0
SEQEND
  5
59039
  8
V_P0_LATO_OPPOSTO
  0
LINE
  5
58E62
  8
V_P0_LATO_OPPOSTO
 10
16562.377406372361
 20
-7555.150199408974
 30
0.0
 11
16554.534300756732
 21
-7557.9601960765112
 31
0.0
  0
LINE
  5
58E63
  8
V_P0_LATO_OPPOSTO
 10
16560.052413820918
 20
-7559.3049349917956
 30
0.0
 11
16552.674306715569
 21
-7561.2839845427652
 31
0.0
  0
LINE
  5
58E64
  8
V_P0_LATO_OPPOSTO
 10
16561.320254892049
 20
-7567.5371027742867
 30
0.0
 11
16553.688579572481
 21
-7567.8697187687612
 31
0.0
  0
POLYLINE
  5
58E65
  8
V_P0_LATO_OPPOSTO
 66
     1
 10
0.0
 20
0.0
 30
0.0
  0
VERTEX
  5
5903A
  8
V_P0_LATO_OPPOSTO
 10
16553.688579572481
 20
-7567.8697187687612
 30
0.0
 42
-0.1312172298165362
  0
VERTEX
  5
5903B
  8
V_P0_LATO_OPPOSTO
 10
16551.99987006564
 20
-7567.4967200457604
 30
0.0
 42
-0.1312172298165362
  0
SEQEND
  5
5903C
  8
V_P0_LATO_OPPOSTO
  0
POLYLINE
  5
58E66
  8
V_P0_LATO_OPPOSTO
 66
     1
 10
0.0
 20
0.0
 30
0.0
  0
VERTEX
  5
5903D
  8
V_P0_LATO_OPPOSTO
 10
16551.910534374379
 20
-7561.5937758200334
 30
0.0
 42
-0.0617114629552823
  0
VERTEX
  5
5903E
  8
V_P0_LATO_OPPOSTO
 10
16552.674306715569
 20
-7561.2839845427652
 30
0.0
 42
-0.0617114629552823
  0
SEQEND
  5
5903F
  8
V_P0_LATO_OPPOSTO
  0
POLYLINE
  5
58E67
  8
V_P0_LATO_OPPOSTO
 66
     1
 10
0.0
 20
0.0
 30
0.0
  0
VERTEX
  5
59040
  8
V_P0_LATO_OPPOSTO
 10
16554.7866981406
 20
-7571.8747591995916
 30
0.0
 42
0.0770271218586749
  0
VERTEX
  5
59041
  8
V_P0_LATO_OPPOSTO
 10
16557.22894401697
 20
-7570.639114584942
 30
0.0
  0
SEQEND
  5
59042
  8
V_P0_LATO_OPPOSTO
  0
LINE
  5
58E68
  8
V_P0_LATO_OPPOSTO
 10
16538.437217973329
 20
-7552.2001827466484
 30
0.0
 11
16535.382150037509
 21
-7555.6001827466489
 31
0.0
  0
LINE
  5
58E69
  8
V_P0_LATO_OPPOSTO
 10
16530.912769453698
 20
-7561.3456283335299
 30
0.0
 11
16529.362591221801
 21
-7562.9165392161549
 31
0.0
  0
LINE
  5
58E6A
  8
V_P0_LATO_OPPOSTO
 10
16534.172570771982
 20
-7568.4687526715634
 30
0.0
 11
16531.97043227643
 21
-7568.6150386865793
 31
0.0
  0
LINE
  5
58E6B
  8
V_P0_LATO_OPPOSTO
 10
16527.49116464024
 20
-7573.3988455643594
 30
0.0
 11
16526.625307371029
 21
-7572.559113000817
 31
0.0
  0
POLYLINE
  5
58E6C
  8
V_P0_LATO_OPPOSTO
 66
     1
 10
0.0
 20
0.0
 30
0.0
  0
VERTEX
  5
59043
  8
V_P0_LATO_OPPOSTO
 10
16530.759155316591
 20
-7572.2087987715277
 30
0.0
 42
0.4881506992911972
  0
VERTEX
  5
59044
  8
V_P0_LATO_OPPOSTO
 10
16537.095646130671
 20
-7566.9916551571687
 30
0.0
 42
0.4881506992911972
  0
SEQEND
  5
59045
  8
V_P0_LATO_OPPOSTO
  0
POLYLINE
  5
58E6D
  8
V_P0_LATO_OPPOSTO
 66
     1
 10
0.0
 20
0.0
 30
0.0
  0
VERTEX
  5
59046
  8
V_P0_LATO_OPPOSTO
 10
16535.57588780524
 20
-7556.8572215062868
 30
0.0
  0
VERTEX
  5
59047
  8
V_P0_LATO_OPPOSTO
 10
16535.382150037509
 20
-7555.6001827466489
 30
0.0
  0
SEQEND
  5
59048
  8
V_P0_LATO_OPPOSTO
  0
LINE
  5
58E6E
  8
V_P0_LATO_OPPOSTO
 10
16517.079752005619
 20
-7552.2001827467657
 30
0.0
 11
16518.296177263339
 21
-7555.6001827467408
 31
0.0
  0
LINE
  5
58E6F
  8
V_P0_LATO_OPPOSTO
 10
16516.51964364621
 20
-7573.4854482762948
 30
0.0
 11
16514.859084984211
 21
-7574.5567646587097
 31
0.0
  0
POLYLINE
  5
58E70
  8
V_P0_LATO_OPPOSTO
 66
     1
 10
0.0
 20
0.0
 30
0.0
  0
VERTEX
  5
59049
  8
V_P0_LATO_OPPOSTO
 10
16507.25560210102
 20
-7567.7921827520968
 30
0.0
 42
0.4018365636313934
  0
VERTEX
  5
5904A
  8
V_P0_LATO_OPPOSTO
 10
16512.86251348081
 20
-7572.3146262644523
 30
0.0
  0
SEQEND
  5
5904B
  8
V_P0_LATO_OPPOSTO
  0
LINE
  5
58E71
  8
V_P0_LATO_OPPOSTO
 10
16512.098228848459
 20
-7568.6177751341256
 30
0.0
 11
16509.332316487031
 21
-7568.4721732309972
 31
0.0
  0
LINE
  5
58E72
  8
V_P0_LATO_OPPOSTO
 10
16499.92587784824
 20
-7572.996227594067
 30
0.0
 11
16494.116877736749
 21
-7573.9452388059199
 31
0.0
  0
LINE
  5
58E73
  8
V_P0_LATO_OPPOSTO
 10
16498.733614481411
 20
-7570.9595216797907
 30
0.0
 11
16492.626548528209
 21
-7571.3993564130733
 31
0.0
  0
LINE
  5
58E74
  8
V_P0_LATO_OPPOSTO
 10
16496.35221438485
 20
-7574.3393221010892
 30
0.0
 11
16489.64979840751
 21
-7575.6241069397011
 31
0.0
  0
LINE
  5
58E75
  8
V_P0_LATO_OPPOSTO
 10
16492.4033645046
 20
-7555.8763329060284
 30
0.0
 11
16484.713736057209
 21
-7552.545370445876
 31
0.0
  0
LINE
  5
58E76
  8
V_P0_LATO_OPPOSTO
 10
16482.177286457048
 20
-7560.487798102241
 30
0.0
 11
16490.374204824479
 21
-7562.2302750311219
 31
0.0
  0
POLYLINE
  5
58E77
  8
V_P0_LATO_OPPOSTO
 66
     1
 10
0.0
 20
0.0
 30
0.0
  0
VERTEX
  5
5904C
  8
V_P0_LATO_OPPOSTO
 10
16496.35221438485
 20
-7574.3393221010892
 30
0.0
 42
0.0852591352342261
  0
VERTEX
  5
5904D
  8
V_P0_LATO_OPPOSTO
 10
16499.92587784824
 20
-7572.996227594067
 30
0.0
  0
VERTEX
  5
5904E
  8
V_P0_LATO_OPPOSTO
 10
16498.733614481411
 20
-7570.9595216797907
 30
0.0
  0
SEQEND
  5
5904F
  8
V_P0_LATO_OPPOSTO
  0
POLYLINE
  5
58E78
  8
V_P0_LATO_OPPOSTO
 66
     1
 10
0.0
 20
0.0
 30
0.0
  0
VERTEX
  5
59050
  8
V_P0_LATO_OPPOSTO
 10
16492.4031802436
 20
-7571.5266770759335
 30
0.0
 42
-0.2677957988102094
  0
VERTEX
  5
59051
  8
V_P0_LATO_OPPOSTO
 10
16490.079460674049
 20
-7567.4992147555022
 30
0.0
  0
VERTEX
  5
59052
  8
V_P0_LATO_OPPOSTO
 10
16490.079460674038
 20
-7562.1676191818106
 30
0.0
  0
SEQEND
  5
59053
  8
V_P0_LATO_OPPOSTO
  0
ARC
  5
58E79
  8
V_P0_LATO_OPPOSTO
 10
16550.865883535531
 20
-7575.065875393374
 30
0.0
 40
7.7343073532775408
 50
192.73702167626789
 51
242.19535281507709
  0
LINE
  5
58E7A
  8
V_P0_LATO_OPPOSTO
 10
16558.409867269911
 20
-7576.7711084099847
 30
0.0
 11
16543.321899801151
 21
-7576.7711084099847
 31
0.0
  0
ARC
  5
58E7B
  8
V_P0_LATO_OPPOSTO
 10
16512.918510246451
 20
-7575.065875393374
 30
0.0
 40
7.7343073532775408
 50
340.73406326834981
 51
347.26297832373211
  0
LINE
  5
58E7C
  8
V_P0_LATO_OPPOSTO
 10
16520.46249398082
 20
-7576.7711084099847
 30
0.0
 11
16505.374526512071
 21
-7576.7711084099847
 31
0.0
  0
POLYLINE
  5
58E7D
  8
V_P0_LATO_OPPOSTO
 66
     1
 10
0.0
 20
0.0
 30
0.0
  0
VERTEX
  5
59054
  8
V_P0_LATO_OPPOSTO
 10
16554.534300756732
 20
-7560.7850733288979
 30
0.0
  0
VERTEX
  5
59055
  8
V_P0_LATO_OPPOSTO
 10
16554.534300756732
 20
-7557.9601960765112
 30
0.0
  0
VERTEX
  5
59056
  8
V_P0_LATO_OPPOSTO
 10
16551.910534374379
 20
-7557.9601960765112
 30
0.0
  0
SEQEND
  5
59057
  8
V_P0_LATO_OPPOSTO
  0
POLYLINE
  5
58E7E
  8
V_P0_LATO_OPPOSTO
 66
     1
 10
0.0
 20
0.0
 30
0.0
  0
VERTEX
  5
59058
  8
V_P0_LATO_OPPOSTO
 10
16529.362591221801
 20
-7562.9165392161549
 30
0.0
 42
0.6899821132417433
  0
VERTEX
  5
59059
  8
V_P0_LATO_OPPOSTO
 10
16531.970432276441
 20
-7568.6150386865684
 30
0.0
 42
0.6899821132417433
  0
SEQEND
  5
5905A
  8
V_P0_LATO_OPPOSTO
  0
POLYLINE
  5
58E7F
  8
V_P0_LATO_OPPOSTO
 66
     1
 10
0.0
 20
0.0
 30
0.0
  0
VERTEX
  5
5905B
  8
V_P0_LATO_OPPOSTO
 10
16535.117254157161
 20
-7560.2810717929979
 30
0.0
 42
0.0536656542291913
  0
VERTEX
  5
5905C
  8
V_P0_LATO_OPPOSTO
 10
16535.57588780524
 20
-7556.8572215062904
 30
0.0
  0
SEQEND
  5
5905D
  8
V_P0_LATO_OPPOSTO
  0
POLYLINE
  5
58E80
  8
V_P0_LATO_OPPOSTO
 66
     1
 10
0.0
 20
0.0
 30
0.0
  0
VERTEX
  5
5905E
  8
V_P0_LATO_OPPOSTO
 10
16526.62530737104
 20
-7572.5591130008179
 30
0.0
 42
-0.202895896529111
  0
VERTEX
  5
5905F
  8
V_P0_LATO_OPPOSTO
 10
16524.32693870474
 20
-7567.128366624006
 30
0.0
  0
VERTEX
  5
59060
  8
V_P0_LATO_OPPOSTO
 10
16524.32693870474
 20
-7555.6001827466489
 30
0.0
  0
VERTEX
  5
59061
  8
V_P0_LATO_OPPOSTO
 10
16524.618203807371
 20
-7552.2001827466484
 30
0.0
  0
SEQEND
  5
59062
  8
V_P0_LATO_OPPOSTO
  0
POLYLINE
  5
58E81
  8
V_P0_LATO_OPPOSTO
 66
     1
 10
0.0
 20
0.0
 30
0.0
  0
VERTEX
  5
59063
  8
V_P0_LATO_OPPOSTO
 10
16490.374204824479
 20
-7562.2302750311219
 30
0.0
 42
0.9049971501003699
  0
VERTEX
  5
59064
  8
V_P0_LATO_OPPOSTO
 10
16492.403364504611
 20
-7555.8763329060284
 30
0.0
 42
0.9049971501003699
  0
SEQEND
  5
59065
  8
V_P0_LATO_OPPOSTO
  0
POLYLINE
  5
58E82
  8
V_P0_LATO_OPPOSTO
 66
     1
 10
0.0
 20
0.0
 30
0.0
  0
VERTEX
  5
59066
  8
V_P0_LATO_OPPOSTO
 10
16512.09822884847
 20
-7568.6177751341256
 30
0.0
 42
0.255574405615363
  0
VERTEX
  5
59067
  8
V_P0_LATO_OPPOSTO
 10
16514.997368397311
 20
-7567.2250339859174
 30
0.0
 42
0.0287147341468134
  0
VERTEX
  5
59068
  8
V_P0_LATO_OPPOSTO
 10
16516.134237291961
 20
-7565.4320937751991
 30
0.0
 42
0.0287147341468134
  0
SEQEND
  5
59069
  8
V_P0_LATO_OPPOSTO
  0
POLYLINE
  5
58E83
  8
V_P0_LATO_OPPOSTO
 66
     1
 10
0.0
 20
0.0
 30
0.0
  0
VERTEX
  5
5906A
  8
V_P0_LATO_OPPOSTO
 10
16518.296177263339
 20
-7555.6001827467408
 30
0.0
  0
VERTEX
  5
5906B
  8
V_P0_LATO_OPPOSTO
 10
16519.895322208089
 20
-7565.9759974437957
 30
0.0
 42
-0.2958972656515891
  0
VERTEX
  5
5906C
  8
V_P0_LATO_OPPOSTO
 10
16516.519643646221
 20
-7573.485448276293
 30
0.0
 42
-0.2958972656515891
  0
SEQEND
  5
5906D
  8
V_P0_LATO_OPPOSTO
  0
CIRCLE
  5
58E84
  8
V_P0_LATO_OPPOSTO
 10
16561.137830484011
 20
-7563.3514836950999
 30
0.0
 40
1.2395758883582879
  0
CIRCLE
  5
58E85
  8
V_P0_LATO_OPPOSTO
 10
16533.894872072851
 20
-7564.2883736010217
 30
0.0
 40
1.2395758883582879
  0
ARC
  5
58E86
  8
V_P0_LATO_OPPOSTO
 10
16557.791884845861
 20
-7576.5322985550547
 30
0.0
 40
9.6678841915969258
 50
192.73702167626789
 51
347.26297832373211
  0
ARC
  5
58E87
  8
V_P0_LATO_OPPOSTO
 10
16557.791884845861
 20
-7576.5322985550547
 30
0.0
 40
6.7178675292700181
 50
229.1499740176273
 51
310.8500259823727
  0
LINE
  5
58E88
  8
V_P0_LATO_OPPOSTO
 10
16562.18591637889
 20
-7581.6138564881458
 30
0.0
 11
16553.397853312828
 21
-7581.6138564881458
 31
0.0
  0
LINE
  5
58E89
  8
V_P0_LATO_OPPOSTO
 10
16567.221864513831
 20
-7578.6638398258183
 30
0.0
 11
16548.361905177891
 21
-7578.6638398258183
 31
0.0
  0
ARC
  5
58E8A
  8
V_P0_LATO_OPPOSTO
 10
16510.357668234508
 20
-7576.5322985550547
 30
0.0
 40
6.7178675292700181
 50
229.14997401743551
 51
310.8500259823727
  0
ARC
  5
58E8B
  8
V_P0_LATO_OPPOSTO
 10
16510.357668234508
 20
-7576.5322985550547
 30
0.0
 40
9.6678841915969258
 50
192.73702167626789
 51
347.26297832373211
  0
LINE
  5
58E8C
  8
V_P0_LATO_OPPOSTO
 10
16514.751699767541
 20
-7581.6138564881458
 30
0.0
 11
16505.963636701479
 21
-7581.6138564881458
 31
0.0
  0
LINE
  5
58E8D
  8
V_P0_LATO_OPPOSTO
 10
16519.787647902482
 20
-7578.6638398258183
 30
0.0
 11
16500.927688566539
 21
-7578.6638398258183
 31
0.0
  0
CIRCLE
  5
58E8E
  8
V_P0_LATO_OPPOSTO
 10
16483.048432157349
 20
-7556.3897752973262
 30
0.0
 40
1.2395758883582879
  0
POLYLINE
  5
58E8F
  8
V_P0_LATO_OPPOSTO
 66
     1
 10
0.0
 20
0.0
 30
0.0
 70
     1
  0
VERTEX
  5
5906E
  8
V_P0_LATO_OPPOSTO
 10
16562.377406372361
 20
-7559.3494670337459
 30
0.0
  0
VERTEX
  5
5906F
  8
V_P0_LATO_OPPOSTO
 10
16562.377406372361
 20
-7555.150199408974
 30
0.0
  0
VERTEX
  5
59070
  8
V_P0_LATO_OPPOSTO
 10
16551.910534374379
 20
-7555.150199408974
 30
0.0
  0
VERTEX
  5
59071
  8
V_P0_LATO_OPPOSTO
 10
16551.910534374379
 20
-7566.4124092211587
 30
0.0
 42
0.3695888342956131
  0
VERTEX
  5
59072
  8
V_P0_LATO_OPPOSTO
 10
16557.514637399749
 20
-7572.9583395344371
 30
0.0
 42
0.1966961853930905
  0
VERTEX
  5
59073
  8
V_P0_LATO_OPPOSTO
 10
16565.74571044766
 20
-7570.9988475445143
 30
0.0
  0
VERTEX
  5
59074
  8
V_P0_LATO_OPPOSTO
 10
16567.46491698172
 20
-7573.3961224977156
 30
0.0
 42
-0.1966961853930858
  0
VERTEX
  5
59075
  8
V_P0_LATO_OPPOSTO
 10
16557.060019552799
 20
-7575.8731158416749
 30
0.0
 42
-0.3695888342956127
  0
VERTEX
  5
59076
  8
V_P0_LATO_OPPOSTO
 10
16548.96051771205
 20
-7566.4124092211587
 30
0.0
  0
VERTEX
  5
59077
  8
V_P0_LATO_OPPOSTO
 10
16548.96051771205
 20
-7552.2001827466484
 30
0.0
  0
VERTEX
  5
59078
  8
V_P0_LATO_OPPOSTO
 10
16565.327423034691
 20
-7552.2001827466484
 30
0.0
  0
VERTEX
  5
59079
  8
V_P0_LATO_OPPOSTO
 10
16565.327423034691
 20
-7563.3514836950999
 30
0.0
 42
-3.0419525369884961
  0
SEQEND
  5
5907A
  8
V_P0_LATO_OPPOSTO
  0
POLYLINE
  5
58E90
  8
V_P0_LATO_OPPOSTO
 66
     1
 10
0.0
 20
0.0
 30
0.0
 70
     1
  0
VERTEX
  5
5907B
  8
V_P0_LATO_OPPOSTO
 10
16524.618203807371
 20
-7552.2001827466484
 30
0.0
  0
VERTEX
  5
5907C
  8
V_P0_LATO_OPPOSTO
 10
16527.5682204697
 20
-7552.2001827466484
 30
0.0
  0
VERTEX
  5
5907D
  8
V_P0_LATO_OPPOSTO
 10
16527.5682204697
 20
-7566.610412593348
 30
0.0
 42
1.079539078280445
  0
VERTEX
  5
5907E
  8
V_P0_LATO_OPPOSTO
 10
16540.505405244781
 20
-7565.6193089851204
 30
0.0
  0
VERTEX
  5
5907F
  8
V_P0_LATO_OPPOSTO
 10
16539.93894356989
 20
-7561.94390645776
 30
0.0
 42
-0.0593168876024371
  0
VERTEX
  5
59080
  8
V_P0_LATO_OPPOSTO
 10
16537.298554827768
 20
-7566.7312467956153
 30
0.0
 42
-2.794425006901641
  0
VERTEX
  5
59081
  8
V_P0_LATO_OPPOSTO
 10
16536.954327832689
 20
-7561.4261338845909
 30
0.0
 42
0.0981770247917601
  0
VERTEX
  5
59082
  8
V_P0_LATO_OPPOSTO
 10
16538.679390182999
 20
-7553.7714811961878
 30
0.0
  0
VERTEX
  5
59083
  8
V_P0_LATO_OPPOSTO
 10
16538.437217973329
 20
-7552.2001827466484
 30
0.0
  0
VERTEX
  5
59084
  8
V_P0_LATO_OPPOSTO
 10
16541.422065910301
 20
-7552.2001827466484
 30
0.0
  0
VERTEX
  5
59085
  8
V_P0_LATO_OPPOSTO
 10
16543.420997091249
 20
-7565.169951117964
 30
0.0
 42
-1.079539078278879
  0
VERTEX
  5
59086
  8
V_P0_LATO_OPPOSTO
 10
16524.618203807371
 20
-7566.6104125933452
 30
0.0
  0
SEQEND
  5
59087
  8
V_P0_LATO_OPPOSTO
  0
POLYLINE
  5
58E91
  8
V_P0_LATO_OPPOSTO
 66
     1
 10
0.0
 20
0.0
 30
0.0
 70
     1
  0
VERTEX
  5
59088
  8
V_P0_LATO_OPPOSTO
 10
16481.808856268999
 20
-7560.3917919586829
 30
0.0
 42
3.0419525369885432
  0
VERTEX
  5
59089
  8
V_P0_LATO_OPPOSTO
 10
16478.85883960667
 20
-7556.3897752973289
 30
0.0
  0
VERTEX
  5
5908A
  8
V_P0_LATO_OPPOSTO
 10
16478.858839606692
 20
-7567.0739727577202
 30
0.0
 42
0.449223580896828
  0
VERTEX
  5
5908B
  8
V_P0_LATO_OPPOSTO
 10
16488.656114251589
 20
-7575.7780647515729
 30
0.0
 42
0.1032572001456292
  0
VERTEX
  5
5908C
  8
V_P0_LATO_OPPOSTO
 10
16494.116877736749
 20
-7573.9452388059199
 30
0.0
  0
VERTEX
  5
5908D
  8
V_P0_LATO_OPPOSTO
 10
16492.626548528209
 20
-7571.3993564130733
 30
0.0
 42
-0.1032572001456411
  0
VERTEX
  5
5908E
  8
V_P0_LATO_OPPOSTO
 10
16488.30871425544
 20
-7572.8485747702489
 30
0.0
 42
-0.4492235808968598
  0
VERTEX
  5
5908F
  8
V_P0_LATO_OPPOSTO
 10
16481.808856269021
 20
-7567.0739727577138
 30
0.0
  0
SEQEND
  5
59090
  8
V_P0_LATO_OPPOSTO
  0
CIRCLE
  5
58E92
  8
V_P0_LATO_OPPOSTO
 10
16509.552558168169
 20
-7564.2883736011399
 30
0.0
 40
1.2395758883582879
  0
POLYLINE
  5
58E93
  8
V_P0_LATO_OPPOSTO
 66
     1
 10
0.0
 20
0.0
 30
0.0
  0
VERTEX
  5
59091
  8
V_P0_LATO_OPPOSTO
 10
16512.61201392801
 20
-7561.4261338847082
 30
0.0
 42
2.794425006901641
  0
VERTEX
  5
59092
  8
V_P0_LATO_OPPOSTO
 10
16512.956240923078
 20
-7566.7312467957327
 30
0.0
 42
0.0593168876024371
  0
VERTEX
  5
59093
  8
V_P0_LATO_OPPOSTO
 10
16515.596629665211
 20
-7561.9439064578801
 30
0.0
 42
0.0494348004555909
  0
SEQEND
  5
59094
  8
V_P0_LATO_OPPOSTO
  0
POLYLINE
  5
58E94
  8
V_P0_LATO_OPPOSTO
 66
     1
 10
0.0
 20
0.0
 30
0.0
  0
VERTEX
  5
59095
  8
V_P0_LATO_OPPOSTO
 10
16512.61201392801
 20
-7561.4261338847082
 30
0.0
 42
0.0997462876556583
  0
VERTEX
  5
59096
  8
V_P0_LATO_OPPOSTO
 10
16514.339938110101
 20
-7553.6461127122247
 30
0.0
  0
SEQEND
  5
59097
  8
V_P0_LATO_OPPOSTO
  0
POLYLINE
  5
58E95
  8
V_P0_LATO_OPPOSTO
 66
     1
 10
0.0
 20
0.0
 30
0.0
  0
VERTEX
  5
59098
  8
V_P0_LATO_OPPOSTO
 10
16514.33707627832
 20
-7553.7714811963042
 30
0.0
  0
VERTEX
  5
59099
  8
V_P0_LATO_OPPOSTO
 10
16514.09490406865
 20
-7552.2001827467657
 30
0.0
  0
VERTEX
  5
5909A
  8
V_P0_LATO_OPPOSTO
 10
16517.079752005619
 20
-7552.2001827467657
 30
0.0
  0
VERTEX
  5
5909B
  8
V_P0_LATO_OPPOSTO
 10
16519.07868318657
 20
-7565.1699511180823
 30
0.0
 42
-1.079539078278879
  0
VERTEX
  5
5909C
  8
V_P0_LATO_OPPOSTO
 10
16500.275889902689
 20
-7566.6104125934653
 30
0.0
  0
VERTEX
  5
5909D
  8
V_P0_LATO_OPPOSTO
 10
16500.275889902689
 20
-7552.2001827466484
 30
0.0
  0
VERTEX
  5
5909E
  8
V_P0_LATO_OPPOSTO
 10
16503.225906565011
 20
-7552.2001827466484
 30
0.0
  0
VERTEX
  5
5909F
  8
V_P0_LATO_OPPOSTO
 10
16503.225906565011
 20
-7566.6104125934799
 30
0.0
  0
SEQEND
  5
590A0
  8
V_P0_LATO_OPPOSTO
  0
POLYLINE
  5
58E96
  8
V_P0_LATO_OPPOSTO
 66
     1
 10
0.0
 20
0.0
 30
0.0
  0
VERTEX
  5
590A1
  8
V_P0_LATO_OPPOSTO
 10
16503.225906565011
 20
-7566.6104125934662
 30
0.0
 42
1.079539078280445
  0
VERTEX
  5
590A2
  8
V_P0_LATO_OPPOSTO
 10
16516.163091340091
 20
-7565.6193089852377
 30
0.0
  0
VERTEX
  5
590A3
  8
V_P0_LATO_OPPOSTO
 10
16515.596629665211
 20
-7561.9439064578764
 30
0.0
  0
SEQEND
  5
590A4
  8
V_P0_LATO_OPPOSTO
  0
LINE
  5
58E97
  8
V_P0_LATO_OPPOSTO
 10
16543.321899801151
 20
-7576.7711084099847
 30
0.0
 11
16548.361905177891
 21
-7578.6638398258183
 31
0.0
  0
LINE
  5
58E98
  8
V_P0_LATO_OPPOSTO
 10
16558.409867269911
 20
-7576.7711084099847
 30
0.0
 11
16567.221864513831
 21
-7578.6638398258183
 31
0.0
  0
LINE
  5
58E99
  8
V_P0_LATO_OPPOSTO
 10
16553.282219189841
 20
-7585.0839592366447
 30
0.0
 11
16547.258151010708
 21
-7581.9072039386447
 31
0.0
  0
LINE
  5
58E9A
  8
V_P0_LATO_OPPOSTO
 10
16505.374526512071
 20
-7576.7711084099847
 30
0.0
 11
16500.927688566539
 21
-7578.6638398258183
 31
0.0
  0
LINE
  5
58E9B
  8
V_P0_LATO_OPPOSTO
 10
16520.219675357861
 20
-7577.6178350817136
 30
0.0
 11
16519.48412462377
 21
-7579.722248165478
 31
0.0
  0
LINE
  5
58E9C
  8
V_P0_LATO_OPPOSTO
 10
16548.96051771205
 20
-7552.2001827466484
 30
0.0
 11
16543.800789828481
 21
-7555.6001827466489
 31
0.0
  0
LINE
  5
58E9D
  8
V_P0_LATO_OPPOSTO
 10
16565.74571044766
 20
-7570.9988475445143
 30
0.0
 11
16557.22894401697
 21
-7570.639114584942
 31
0.0
  0
LINE
  5
58E9E
  8
V_P0_LATO_OPPOSTO
 10
16549.97969583096
 20
-7574.4854705060015
 30
0.0
 11
16556.684150215151
 21
-7575.8067924458383
 31
0.0
  0
POLYLINE
  5
58E9F
  8
V_P0_LATO_OPPOSTO
 66
     1
 10
0.0
 20
0.0
 30
0.0
  0
VERTEX
  5
590A5
  8
V_P0_LATO_OPPOSTO
 10
16507.21310091086
 20
-7560.8127980399286
 30
0.0
  0
VERTEX
  5
590A6
  8
V_P0_LATO_OPPOSTO
 10
16507.21310091086
 20
-7555.6001827466489
 30
0.0
  0
VERTEX
  5
590A7
  8
V_P0_LATO_OPPOSTO
 10
16503.225906565011
 20
-7552.2001827466484
 30
0.0
  0
SEQEND
  5
590A8
  8
V_P0_LATO_OPPOSTO
  0
ARC
  5
58EA0
  8
PROFILO
 10
16716.39734011333
 20
-7552.2876827466416
 30
0.0
 40
1.587499999999999
 50
40.902296850011098
 51
90.0
  0
ARC
  5
58EA1
  8
PROFILO
 10
16697.097340113331
 20
-7552.2876827466416
 30
0.0
 40
1.587499999999999
 50
90.0
 51
208.19286056190651
  0
POLYLINE
  5
58EA2
  8
PROFILO
 66
     1
 10
0.0
 20
0.0
 30
0.0
  0
VERTEX
  5
590A9
  8
PROFILO
 10
16716.39734011333
 20
-7550.700182746642
 30
0.0
  0
VERTEX
  5
590AA
  8
PROFILO
 10
16697.097340113331
 20
-7550.700182746642
 30
0.0
  0
SEQEND
  5
590AB
  8
PROFILO
  0
POLYLINE
  5
58EA3
  8
C-P45
 66
     1
 10
0.0
 20
0.0
 30
0.0
  0
VERTEX
  5
590AC
  8
C-P45
 10
16716.39734011333
 20
-7552.2876827466416
 30
0.0
  0
VERTEX
  5
590AD
  8
C-P45
 10
16697.097340113331
 20
-7552.2876827466416
 30
0.0
  0
SEQEND
  5
590AE
  8
C-P45
  0
POLYLINE
  5
58EA4
  8
PROFILO
 66
     1
 10
0.0
 20
0.0
 30
0.0
  0
VERTEX
  5
590AF
  8
PROFILO
 10
16710.597340113331
 20
-7551.200182746642
 30
0.0
  0
VERTEX
  5
590B0
  8
PROFILO
 10
16710.597340113331
 20
-7547.2001827466474
 30
0.0
  0
SEQEND
  5
590B1
  8
PROFILO
  0
POLYLINE
  5
58EA5
  8
PROFILO
 66
     1
 10
0.0
 20
0.0
 30
0.0
  0
VERTEX
  5
590B2
  8
PROFILO
 10
16702.89734011333
 20
-7551.200182746642
 30
0.0
  0
VERTEX
  5
590B3
  8
PROFILO
 10
16702.89734011333
 20
-7547.2001827466474
 30
0.0
  0
SEQEND
  5
590B4
  8
PROFILO
  0
POLYLINE
  5
58EA6
  8
C-P35
 66
     1
 10
0.0
 20
0.0
 30
0.0
  0
VERTEX
  5
590B5
  8
C-P35
 10
16707.422340113331
 20
-7552.7876827466407
 30
0.0
  0
VERTEX
  5
590B6
  8
C-P35
 10
16707.422340113331
 20
-7545.6126827466469
 30
0.0
  0
VERTEX
  5
590B7
  8
C-P35
 10
16705.83484011333
 20
-7545.6126827466469
 30
0.0
  0
VERTEX
  5
590B8
  8
C-P35
 10
16705.83484011333
 20
-7552.7876827466407
 30
0.0
  0
VERTEX
  5
590B9
  8
C-P35
 10
16704.484840113331
 20
-7552.7876827466407
 30
0.0
  0
VERTEX
  5
590BA
  8
C-P35
 10
16704.484840113331
 20
-7545.6126827466469
 30
0.0
  0
VERTEX
  5
590BB
  8
C-P35
 10
16709.009840113329
 20
-7545.6126827466469
 30
0.0
  0
VERTEX
  5
590BC
  8
C-P35
 10
16709.009840113329
 20
-7552.7876827466407
 30
0.0
  0
VERTEX
  5
590BD
  8
C-P35
 10
16705.83484011333
 20
-7552.7876827466407
 30
0.0
  0
SEQEND
  5
590BE
  8
C-P35
  0
POLYLINE
  5
58EA7
  8
PROFILO
 66
     1
 10
0.0
 20
0.0
 30
0.0
 70
     1
  0
VERTEX
  5
590BF
  8
PROFILO
 10
16695.509840113329
 20
-7556.6126827466496
 30
0.0
  0
VERTEX
  5
590C0
  8
PROFILO
 10
16695.509840113329
 20
-7553.7876827466489
 30
0.0
 42
-0.4142135623729608
  0
VERTEX
  5
590C1
  8
PROFILO
 10
16697.097340113331
 20
-7552.2001827466493
 30
0.0
  0
VERTEX
  5
590C2
  8
PROFILO
 10
16716.510051992951
 20
-7552.2001827466493
 30
0.0
 42
-0.3070648477467088
  0
VERTEX
  5
590C3
  8
PROFILO
 10
16717.984840113331
 20
-7551.200182746642
 30
0.0
  0
VERTEX
  5
590C4
  8
PROFILO
 10
16724.309840113328
 20
-7551.200182746642
 30
0.0
 42
-0.3070648477467089
  0
VERTEX
  5
590C5
  8
PROFILO
 10
16725.784628233709
 20
-7552.2001827466493
 30
0.0
  0
VERTEX
  5
590C6
  8
PROFILO
 10
16799.39734011333
 20
-7552.2001827466493
 30
0.0
 42
-0.4142135623729608
  0
VERTEX
  5
590C7
  8
PROFILO
 10
16800.984840113331
 20
-7553.7876827466489
 30
0.0
  0
VERTEX
  5
590C8
  8
PROFILO
 10
16800.984840113331
 20
-7564.2001827466474
 30
0.0
  0
VERTEX
  5
590C9
  8
PROFILO
 10
16806.509840113329
 20
-7564.2001827466474
 30
0.0
 42
-0.9999999999999998
  0
VERTEX
  5
590CA
  8
PROFILO
 10
16809.684840113328
 20
-7564.2001827466474
 30
0.0
  0
VERTEX
  5
590CB
  8
PROFILO
 10
16809.684840113328
 20
-7583.0251827466491
 30
0.0
 42
-0.9999999999999998
  0
VERTEX
  5
590CC
  8
PROFILO
 10
16809.684840113328
 20
-7586.2001827466502
 30
0.0
  0
VERTEX
  5
590CD
  8
PROFILO
 10
16730.58484011333
 20
-7586.2001827466502
 30
0.0
 42
-0.4142135623730951
  0
VERTEX
  5
590CE
  8
PROFILO
 10
16728.997340113328
 20
-7584.6126827466487
 30
0.0
  0
VERTEX
  5
590CF
  8
PROFILO
 10
16728.997340113328
 20
-7568.9501827466474
 30
0.0
  0
VERTEX
  5
590D0
  8
PROFILO
 10
16719.687340113331
 20
-7568.9501827466474
 30
0.0
  0
VERTEX
  5
590D1
  8
PROFILO
 10
16719.687340113331
 20
-7574.762682746642
 30
0.0
 42
-0.2496533862350641
  0
VERTEX
  5
590D2
  8
PROFILO
 10
16718.985945612389
 20
-7576.0798665965822
 30
0.0
  0
VERTEX
  5
590D3
  8
PROFILO
 10
16716.235945612389
 20
-7577.9298665965898
 30
0.0
 42
-0.1491378573790114
  0
VERTEX
  5
590D4
  8
PROFILO
 10
16715.34984011334
 20
-7578.2001827466484
 30
0.0
  0
VERTEX
  5
590D5
  8
PROFILO
 10
16687.447404143601
 20
-7578.2001827466484
 30
0.0
  0
VERTEX
  5
590D6
  8
PROFILO
 10
16679.91237212846
 20
-7585.735214761783
 30
0.0
 42
-0.1989123673797334
  0
VERTEX
  5
590D7
  8
PROFILO
 10
16678.789840113332
 20
-7586.2001827466511
 30
0.0
  0
VERTEX
  5
590D8
  8
PROFILO
 10
16671.597340113331
 20
-7586.2001827466502
 30
0.0
 42
-0.3332794100358492
  0
VERTEX
  5
590D9
  8
PROFILO
 10
16670.0734264315
 20
-7585.057478587838
 30
0.0
  0
VERTEX
  5
590DA
  8
PROFILO
 10
16665.743538577161
 20
-7570.2228629484334
 30
0.0
 42
-0.1645141699993855
  0
VERTEX
  5
590DB
  8
PROFILO
 10
16665.84200952468
 20
-7567.8863244658523
 30
0.0
  0
VERTEX
  5
590DC
  8
PROFILO
 10
16669.799630137291
 20
-7557.6287443847968
 30
0.0
 42
-0.3100403836335515
  0
VERTEX
  5
590DD
  8
PROFILO
 10
16671.280715701541
 20
-7556.6126827466496
 30
0.0
  0
SEQEND
  5
590DE
  8
PROFILO
  0
POLYLINE
  5
58EA8
  8
C_P7_LATO_OPPOSTO
 66
     1
 10
0.0
 20
0.0
 30
0.0
 70
     1
  0
VERTEX
  5
590DF
  8
C_P7_LATO_OPPOSTO
 10
16697.097340113331
 20
-7558.2001827466502
 30
0.0
  0
VERTEX
  5
590E0
  8
C_P7_LATO_OPPOSTO
 10
16697.097340113331
 20
-7553.7876827466489
 30
0.0
  0
VERTEX
  5
590E1
  8
C_P7_LATO_OPPOSTO
 10
16716.510051992951
 20
-7553.7876827466489
 30
0.0
 42
0.3070648477466804
  0
VERTEX
  5
590E2
  8
C_P7_LATO_OPPOSTO
 10
16717.984840113331
 20
-7552.7876827466407
 30
0.0
  0
VERTEX
  5
590E3
  8
C_P7_LATO_OPPOSTO
 10
16724.309840113328
 20
-7552.7876827466407
 30
0.0
 42
0.3070648477466803
  0
VERTEX
  5
590E4
  8
C_P7_LATO_OPPOSTO
 10
16725.784628233709
 20
-7553.7876827466489
 30
0.0
  0
VERTEX
  5
590E5
  8
C_P7_LATO_OPPOSTO
 10
16799.39734011333
 20
-7553.7876827466489
 30
0.0
  0
VERTEX
  5
590E6
  8
C_P7_LATO_OPPOSTO
 10
16799.39734011333
 20
-7565.7876827466471
 30
0.0
  0
VERTEX
  5
590E7
  8
C_P7_LATO_OPPOSTO
 10
16806.509840113329
 20
-7565.7876827466471
 30
0.0
 42
0.4142135623729608
  0
VERTEX
  5
590E8
  8
C_P7_LATO_OPPOSTO
 10
16808.097340113331
 20
-7564.2001827466474
 30
0.0
  0
VERTEX
  5
590E9
  8
C_P7_LATO_OPPOSTO
 10
16808.097340113331
 20
-7583.0251827466491
 30
0.0
 42
0.4142135623729608
  0
VERTEX
  5
590EA
  8
C_P7_LATO_OPPOSTO
 10
16809.684840113328
 20
-7584.6126827466487
 30
0.0
  0
VERTEX
  5
590EB
  8
C_P7_LATO_OPPOSTO
 10
16730.58484011333
 20
-7584.6126827466487
 30
0.0
  0
VERTEX
  5
590EC
  8
C_P7_LATO_OPPOSTO
 10
16730.58484011333
 20
-7567.3626827466469
 30
0.0
  0
VERTEX
  5
590ED
  8
C_P7_LATO_OPPOSTO
 10
16718.099840113329
 20
-7567.3626827466469
 30
0.0
  0
VERTEX
  5
590EE
  8
C_P7_LATO_OPPOSTO
 10
16718.099840113329
 20
-7574.762682746642
 30
0.0
  0
VERTEX
  5
590EF
  8
C_P7_LATO_OPPOSTO
 10
16715.34984011334
 20
-7576.6126827466478
 30
0.0
  0
VERTEX
  5
590F0
  8
C_P7_LATO_OPPOSTO
 10
16686.789840113332
 20
-7576.6126827466487
 30
0.0
  0
VERTEX
  5
590F1
  8
C_P7_LATO_OPPOSTO
 10
16678.789840113332
 20
-7584.6126827466524
 30
0.0
  0
VERTEX
  5
590F2
  8
C_P7_LATO_OPPOSTO
 10
16671.597340113331
 20
-7584.6126827466487
 30
0.0
  0
VERTEX
  5
590F3
  8
C_P7_LATO_OPPOSTO
 10
16667.26745225898
 20
-7569.7780671072469
 30
0.0
 42
-0.1645141699992907
  0
VERTEX
  5
590F4
  8
C_P7_LATO_OPPOSTO
 10
16667.323095088919
 20
-7568.4577628277066
 30
0.0
  0
VERTEX
  5
590F5
  8
C_P7_LATO_OPPOSTO
 10
16671.28071570153
 20
-7558.2001827466502
 30
0.0
  0
SEQEND
  5
590F6
  8
C_P7_LATO_OPPOSTO
  0
POLYLINE
  5
58EA9
  8
C_P15_LATO_OPPOSTO
 66
     1
 10
0.0
 20
0.0
 30
0.0
  0
VERTEX
  5
590F7
  8
C_P15_LATO_OPPOSTO
 10
16730.584840113341
 20
-7584.6126827466478
 30
0.0
  0
VERTEX
  5
590F8
  8
C_P15_LATO_OPPOSTO
 10
16681.034904143598
 20
-7584.6126827466478
 30
0.0
  0
VERTEX
  5
590F9
  8
C_P15_LATO_OPPOSTO
 10
16681.034904143598
 20
-7582.6126827466478
 30
0.0
  0
VERTEX
  5
590FA
  8
C_P15_LATO_OPPOSTO
 10
16728.997340113328
 20
-7582.6126827466478
 30
0.0
  0
VERTEX
  5
590FB
  8
C_P15_LATO_OPPOSTO
 10
16728.997340113328
 20
-7580.6126827466478
 30
0.0
  0
VERTEX
  5
590FC
  8
C_P15_LATO_OPPOSTO
 10
16685.034904143598
 20
-7580.6126827466478
 30
0.0
  0
VERTEX
  5
590FD
  8
C_P15_LATO_OPPOSTO
 10
16685.034904143598
 20
-7578.6126827466478
 30
0.0
  0
VERTEX
  5
590FE
  8
C_P15_LATO_OPPOSTO
 10
16728.997340113328
 20
-7578.6126827466478
 30
0.0
  0
VERTEX
  5
590FF
  8
C_P15_LATO_OPPOSTO
 10
16728.997340113328
 20
-7576.6126827466478
 30
0.0
  0
VERTEX
  5
59100
  8
C_P15_LATO_OPPOSTO
 10
16715.34984011334
 20
-7576.6126827466478
 30
0.0
  0
VERTEX
  5
59101
  8
C_P15_LATO_OPPOSTO
 10
16715.34984011334
 20
-7574.6126827466478
 30
0.0
  0
VERTEX
  5
59102
  8
C_P15_LATO_OPPOSTO
 10
16728.997340113328
 20
-7574.6126827466478
 30
0.0
  0
VERTEX
  5
59103
  8
C_P15_LATO_OPPOSTO
 10
16728.997340113328
 20
-7572.6126827466478
 30
0.0
  0
VERTEX
  5
59104
  8
C_P15_LATO_OPPOSTO
 10
16719.687340113331
 20
-7572.6126827466478
 30
0.0
  0
VERTEX
  5
59105
  8
C_P15_LATO_OPPOSTO
 10
16719.687340113331
 20
-7570.6126827466478
 30
0.0
  0
VERTEX
  5
59106
  8
C_P15_LATO_OPPOSTO
 10
16728.997340113328
 20
-7570.6126827466478
 30
0.0
  0
VERTEX
  5
59107
  8
C_P15_LATO_OPPOSTO
 10
16728.997340113328
 20
-7568.6126827466478
 30
0.0
  0
VERTEX
  5
59108
  8
C_P15_LATO_OPPOSTO
 10
16719.687340113331
 20
-7568.6126827466478
 30
0.0
  0
SEQEND
  5
59109
  8
C_P15_LATO_OPPOSTO
  0
CIRCLE
  5
58EAA
  8
PROFILO
 10
16725.46734011334
 20
-7572.7001827466484
 30
0.0
 40
2.1000000000000001
  0
CIRCLE
  5
58EAB
  8
C_P7_LATO_OPPOSTO
 10
16725.46734011334
 20
-7572.7001827466484
 30
0.0
 40
0.5125000000000002
  0
CIRCLE
  5
58EAC
  8
PROFILO
 10
16691.877340113329
 20
-7581.9501827466493
 30
0.0
 40
2.1000000000000001
  0
CIRCLE
  5
58EAD
  8
C_P7_LATO_OPPOSTO
 10
16691.877340113329
 20
-7581.9501827466493
 30
0.0
 40
0.5125000000000002
  0
POLYLINE
  5
58EAE
  8
PROFILO
 66
     1
 10
0.0
 20
0.0
 30
0.0
 70
     1
  0
VERTEX
  5
5910A
  8
PROFILO
 10
16831.573709734748
 20
-7571.7627248882582
 30
0.0
  0
VERTEX
  5
5910B
  8
PROFILO
 10
16834.62762853819
 20
-7569.2001827466474
 30
0.0
  0
VERTEX
  5
5910C
  8
PROFILO
 10
16827.296807918348
 20
-7563.0488938683102
 30
0.0
 42
-0.9452937923568175
  0
VERTEX
  5
5910D
  8
PROFILO
 10
16824.986813798721
 20
-7560.878015506768
 30
0.0
  0
VERTEX
  5
5910E
  8
PROFILO
 10
16826.798634468509
 20
-7558.7187717144052
 30
0.0
 42
-0.945293792355601
  0
VERTEX
  5
5910F
  8
PROFILO
 10
16829.337658579101
 20
-7560.6167027614056
 30
0.0
  0
VERTEX
  5
59110
  8
PROFILO
 10
16836.413027447408
 20
-7566.5536421692505
 30
0.0
 42
0.6848233923615091
  0
VERTEX
  5
59111
  8
PROFILO
 10
16836.903216591389
 20
-7566.2840635748798
 30
0.0
 42
0.3757905234032603
  0
VERTEX
  5
59112
  8
PROFILO
 10
16815.097340113331
 20
-7547.2001827466474
 30
0.0
  0
VERTEX
  5
59113
  8
PROFILO
 10
16693.311426442109
 20
-7547.2001827466474
 30
0.0
 42
-0.2797252294880603
  0
VERTEX
  5
59114
  8
PROFILO
 10
16677.46830150676
 20
-7537.5843357002022
 30
0.0
 42
0.7848796439676905
  0
VERTEX
  5
59115
  8
PROFILO
 10
16658.597340113331
 20
-7542.2001827466493
 30
0.0
  0
VERTEX
  5
59116
  8
PROFILO
 10
16658.597340113331
 20
-7545.6126827466469
 30
0.0
 42
-0.4142135623730951
  0
VERTEX
  5
59117
  8
PROFILO
 10
16657.009840113329
 20
-7547.2001827466474
 30
0.0
  0
VERTEX
  5
59118
  8
PROFILO
 10
16388.50630545714
 20
-7547.2001827466456
 30
0.0
 42
0.1316524975874091
  0
VERTEX
  5
59119
  8
PROFILO
 10
16387.00630545714
 20
-7547.6021065352934
 30
0.0
  0
VERTEX
  5
5911A
  8
PROFILO
 10
16354.097340113331
 20
-7566.6021065353007
 30
0.0
 42
0.5773502691893042
  0
VERTEX
  5
5911B
  8
PROFILO
 10
16354.097340113331
 20
-7571.7982589580042
 30
0.0
  0
VERTEX
  5
5911C
  8
PROFILO
 10
16387.006305457129
 20
-7590.798258958006
 30
0.0
 42
0.1316524975874107
  0
VERTEX
  5
5911D
  8
PROFILO
 10
16388.50630545714
 20
-7591.2001827466529
 30
0.0
  0
VERTEX
  5
5911E
  8
PROFILO
 10
16657.009840113329
 20
-7591.2001827466529
 30
0.0
 42
-0.4142135623729608
  0
VERTEX
  5
5911F
  8
PROFILO
 10
16658.597340113331
 20
-7592.7876827466489
 30
0.0
  0
VERTEX
  5
59120
  8
PROFILO
 10
16658.597340113331
 20
-7596.2001827466529
 30
0.0
 42
0.7848796439678036
  0
VERTEX
  5
59121
  8
PROFILO
 10
16677.46830150676
 20
-7600.8160297930999
 30
0.0
 42
-0.2797252294881704
  0
VERTEX
  5
59122
  8
PROFILO
 10
16693.311426442109
 20
-7591.2001827466502
 30
0.0
  0
VERTEX
  5
59123
  8
PROFILO
 10
16815.097340113331
 20
-7591.2001827466502
 30
0.0
 42
0.3757905234033589
  0
VERTEX
  5
59124
  8
PROFILO
 10
16836.903216591389
 20
-7572.1163019184123
 30
0.0
 42
0.6848233923615091
  0
VERTEX
  5
59125
  8
PROFILO
 10
16836.413027447408
 20
-7571.8467233240426
 30
0.0
  0
VERTEX
  5
59126
  8
PROFILO
 10
16833.614560395508
 20
-7574.1949159951564
 30
0.0
 42
-0.2044439053891028
  0
VERTEX
  5
59127
  8
PROFILO
 10
16832.877321768981
 20
-7576.0558664734763
 30
0.0
  0
VERTEX
  5
59128
  8
PROFILO
 10
16828.786840918609
 20
-7580.1864225854088
 30
0.0
 42
-0.42879518564775
  0
VERTEX
  5
59129
  8
PROFILO
 10
16826.48733024676
 20
-7580.1406821188702
 30
0.0
  0
VERTEX
  5
5912A
  8
PROFILO
 10
16824.82855829017
 20
-7578.3267427558667
 30
0.0
 42
-0.4267507844574438
  0
VERTEX
  5
5912B
  8
PROFILO
 10
16824.979652988211
 20
-7576.0393409562703
 30
0.0
  0
VERTEX
  5
5912C
  8
PROFILO
 10
16829.4263228819
 20
-7572.308141888504
 30
0.0
 42
-0.228559842469051
  0
SEQEND
  5
5912D
  8
PROFILO
  0
POLYLINE
  5
58EAF
  8
V-P2
 66
     1
 10
0.0
 20
0.0
 30
0.0
  0
VERTEX
  5
5912E
  8
V-P2
 10
16656.597340113331
 20
-7546.7001827466474
 30
0.0
  0
VERTEX
  5
5912F
  8
V-P2
 10
16388.50630545714
 20
-7546.7001827466456
 30
0.0
 42
0.1316524975873931
  0
VERTEX
  5
59130
  8
V-P2
 10
16386.75630545714
 20
-7547.1690938334004
 30
0.0
  0
VERTEX
  5
59131
  8
V-P2
 10
16353.847340113331
 20
-7566.1690938334077
 30
0.0
 42
0.5773502691896273
  0
VERTEX
  5
59132
  8
V-P2
 10
16353.847340113331
 20
-7572.2312716598981
 30
0.0
  0
VERTEX
  5
59133
  8
V-P2
 10
16386.756305457129
 20
-7591.2312716598972
 30
0.0
 42
0.1316524975873942
  0
VERTEX
  5
59134
  8
V-P2
 10
16388.50630545714
 20
-7591.7001827466529
 30
0.0
  0
VERTEX
  5
59135
  8
V-P2
 10
16656.597340113331
 20
-7591.7001827466529
 30
0.0
  0
SEQEND
  5
59136
  8
V-P2
  0
CIRCLE
  5
58EB0
  8
PROFILO
 10
16668.597340113331
 20
-7596.2001827466493
 30
0.0
 40
2.1000000000000001
  0
CIRCLE
  5
58EB1
  8
C_P7_LATO_OPPOSTO
 10
16668.597340113331
 20
-7596.2001827466493
 30
0.0
 40
0.5125000000000002
  0
CIRCLE
  5
58EB2
  8
PROFILO
 10
16668.597340113331
 20
-7542.2001827466493
 30
0.0
 40
2.1000000000000001
  0
CIRCLE
  5
58EB3
  8
C_P7_LATO_OPPOSTO
 10
16668.597340113331
 20
-7542.2001827466493
 30
0.0
 40
0.5125000000000002
  0
CIRCLE
  5
58EB4
  8
PROFILO
 10
16826.847340113331
 20
-7569.2001827466502
 30
0.0
 40
2.1000000000000001
  0
CIRCLE
  5
58EB5
  8
C_P7_LATO_OPPOSTO
 10
16826.847340113331
 20
-7569.2001827466502
 30
0.0
 40
0.5125000000000002
  0
ARC
  5
58EB6
  8
PROFILO
 10
16816.238286136359
 20
-7557.6905066352519
 30
0.0
 40
20.475543358343039
 50
251.3333177070721
 51
294.43737847646838
  0
ARC
  5
58EB7
  8
PROFILO
 10
16820.268281269739
 20
-7576.7459930762607
 30
0.0
 40
15.781994897863621
 50
73.892115659882137
 51
132.11356313167511
  0
ARC
  5
58EB8
  8
PROFILO
 10
16810.354878528589
 20
-7536.651574627821
 30
0.0
 40
46.971593968061477
 50
270.69357849266822
 51
290.8540029930561
  0
ARC
  5
58EB9
  8
PROFILO
 10
16821.425528209729
 20
-7579.3415119133333
 30
0.0
 40
21.79881447582946
 50
74.460175888240755
 51
136.00511440577461
  0
POLYLINE
  5
58EBA
  8
C-P3
 66
     1
 10
0.0
 20
0.0
 30
0.0
  0
VERTEX
  5
59137
  8
C-P3
 10
16827.132639439289
 20
-7560.7904316656723
 30
0.0
 42
0.3538385892709082
  0
VERTEX
  5
59138
  8
C-P3
 10
16806.098558342728
 20
-7566.7001827466484
 30
0.0
  0
VERTEX
  5
59139
  8
C-P3
 10
16805.655492390481
 20
-7566.7001827466484
 30
0.0
 42
-0.3121433154207078
  0
VERTEX
  5
5913A
  8
C-P3
 10
16827.690432543921
 20
-7560.1256797293127
 30
0.0
  0
SEQEND
  5
5913B
  8
C-P3
  0
POLYLINE
  5
58EBB
  8
C-P3
 66
     1
 10
0.0
 20
0.0
 30
0.0
  0
VERTEX
  5
5913C
  8
C-P3
 10
16807.684840113328
 20
-7581.9570586243844
 30
0.0
 42
0.1112487630742047
  0
VERTEX
  5
5913D
  8
C-P3
 10
16827.370126065129
 20
-7578.7252877581386
 30
0.0
  0
VERTEX
  5
5913E
  8
C-P3
 10
16826.226969068852
 20
-7577.3629263010307
 30
0.0
 42
-0.2204569588264554
  0
VERTEX
  5
5913F
  8
C-P3
 10
16807.684840113328
 20
-7578.0280690104037
 30
0.0
  0
VERTEX
  5
59140
  8
C-P3
 10
16807.684840113328
 20
-7580.3667040233086
 30
0.0
 42
0.0655229305421896
  0
VERTEX
  5
59141
  8
C-P3
 10
16819.08661785223
 20
-7579.5689181102334
 30
0.0
  0
SEQEND
  5
59142
  8
C-P3
  0
CIRCLE
  5
58EBC
  8
PROFILO
 10
16815.097340113331
 20
-7569.2001827466502
 30
0.0
 40
5.0
  0
CIRCLE
  5
58EBD
  8
C_P7_LATO_OPPOSTO
 10
16815.097340113331
 20
-7569.2001827466502
 30
0.0
 40
3.4125000000003629
  0
POLYLINE
  5
58EBE
  8
V_P2_LATO_OPPOSTO
 66
     1
 10
0.0
 20
0.0
 30
0.0
  0
VERTEX
  5
59143
  8
V_P2_LATO_OPPOSTO
 10
16656.597340113331
 20
-7546.7001827466474
 30
0.0
  0
VERTEX
  5
59144
  8
V_P2_LATO_OPPOSTO
 10
16388.50630545714
 20
-7546.7001827466456
 30
0.0
 42
0.1316524975873931
  0
VERTEX
  5
59145
  8
V_P2_LATO_OPPOSTO
 10
16386.75630545714
 20
-7547.1690938334004
 30
0.0
  0
VERTEX
  5
59146
  8
V_P2_LATO_OPPOSTO
 10
16353.847340113331
 20
-7566.1690938334077
 30
0.0
 42
0.5773502691896273
  0
VERTEX
  5
59147
  8
V_P2_LATO_OPPOSTO
 10
16353.847340113331
 20
-7572.2312716598981
 30
0.0
  0
VERTEX
  5
59148
  8
V_P2_LATO_OPPOSTO
 10
16386.756305457129
 20
-7591.2312716598972
 30
0.0
 42
0.1316524975873942
  0
VERTEX
  5
59149
  8
V_P2_LATO_OPPOSTO
 10
16388.50630545714
 20
-7591.7001827466529
 30
0.0
  0
VERTEX
  5
5914A
  8
V_P2_LATO_OPPOSTO
 10
16656.597340113331
 20
-7591.7001827466529
 30
0.0
  0
SEQEND
  5
5914B
  8
V_P2_LATO_OPPOSTO
  0
POLYLINE
  5
58EBF
  8
C_P7_LATO_OPPOSTO_ESTERNO
 66
     1
 10
0.0
 20
0.0
 30
0.0
 70
     1
  0
VERTEX
  5
5914C
  8
C_P7_LATO_OPPOSTO_ESTERNO
 10
16831.802749063099
 20
-7573.6428721441343
 30
0.0
 42
-0.387476429638864
  0
VERTEX
  5
5914D
  8
C_P7_LATO_OPPOSTO_ESTERNO
 10
16831.749331125538
 20
-7574.9388197607941
 30
0.0
  0
VERTEX
  5
5914E
  8
C_P7_LATO_OPPOSTO_ESTERNO
 10
16827.658850275169
 20
-7579.0693758727266
 30
0.0
  0
VERTEX
  5
5914F
  8
C_P7_LATO_OPPOSTO_ESTERNO
 10
16826.00007831859
 20
-7577.255436509723
 30
0.0
  0
VERTEX
  5
59150
  8
C_P7_LATO_OPPOSTO_ESTERNO
 10
16830.446748212282
 20
-7573.5242374419549
 30
0.0
 42
-0.4142135623707556
  0
VERTEX
  5
59151
  8
C_P7_LATO_OPPOSTO_ESTERNO
 10
16831.802749063099
 20
-7573.6428721441362
 30
0.0
  0
VERTEX
  5
59152
  8
C_P7_LATO_OPPOSTO_ESTERNO
 10
16837.097340113331
 20
-7569.2001827466474
 30
0.0
  0
VERTEX
  5
59153
  8
C_P7_LATO_OPPOSTO_ESTERNO
 10
16828.31723324873
 20
-7561.8327983148592
 30
0.0
 42
0.3816455683987365
  0
VERTEX
  5
59154
  8
C_P7_LATO_OPPOSTO_ESTERNO
 10
16826.202909352171
 20
-7561.8984408371443
 30
0.0
  0
VERTEX
  5
59155
  8
C_P7_LATO_OPPOSTO_ESTERNO
 10
16828.014730021961
 20
-7559.7391970447807
 30
0.0
 42
0.3816455683980415
  0
VERTEX
  5
59156
  8
C_P7_LATO_OPPOSTO_ESTERNO
 10
16828.31723324873
 20
-7561.8327983148592
 30
0.0
  0
VERTEX
  5
59157
  8
C_P7_LATO_OPPOSTO_ESTERNO
 10
16835.392602117041
 20
-7567.769737722705
 30
0.0
  0
VERTEX
  5
59158
  8
C_P7_LATO_OPPOSTO_ESTERNO
 10
16835.392602117041
 20
-7567.769737722705
 30
0.0
 42
0.6848233923603321
  0
VERTEX
  5
59159
  8
C_P7_LATO_OPPOSTO_ESTERNO
 10
16838.47670881452
 20
-7566.0736390664588
 30
0.0
 42
0.3757905234032481
  0
VERTEX
  5
5915A
  8
C_P7_LATO_OPPOSTO_ESTERNO
 10
16815.097340113331
 20
-7545.6126827466469
 30
0.0
  0
VERTEX
  5
5915B
  8
C_P7_LATO_OPPOSTO_ESTERNO
 10
16693.311426442109
 20
-7545.6126827466469
 30
0.0
 42
-0.2797252294880506
  0
VERTEX
  5
5915C
  8
C_P7_LATO_OPPOSTO_ESTERNO
 10
16678.876566627969
 20
-7536.851569981578
 30
0.0
 42
0.7848796439674723
  0
VERTEX
  5
5915D
  8
C_P7_LATO_OPPOSTO_ESTERNO
 10
16657.009840113329
 20
-7542.2001827466493
 30
0.0
  0
VERTEX
  5
5915E
  8
C_P7_LATO_OPPOSTO_ESTERNO
 10
16657.009840113329
 20
-7545.6126827466469
 30
0.0
  0
VERTEX
  5
5915F
  8
C_P7_LATO_OPPOSTO_ESTERNO
 10
16388.50630545714
 20
-7545.612682746646
 30
0.0
 42
0.1316524975873522
  0
VERTEX
  5
59160
  8
C_P7_LATO_OPPOSTO_ESTERNO
 10
16386.212555457139
 20
-7546.2272912067856
 30
0.0
  0
VERTEX
  5
59161
  8
C_P7_LATO_OPPOSTO_ESTERNO
 10
16353.30359011333
 20
-7565.2272912067938
 30
0.0
 42
0.5773502691891498
  0
VERTEX
  5
59162
  8
C_P7_LATO_OPPOSTO_ESTERNO
 10
16353.30359011333
 20
-7573.173074286512
 30
0.0
  0
VERTEX
  5
59163
  8
C_P7_LATO_OPPOSTO_ESTERNO
 10
16386.212555457139
 20
-7592.173074286512
 30
0.0
 42
0.131652497587454
  0
VERTEX
  5
59164
  8
C_P7_LATO_OPPOSTO_ESTERNO
 10
16388.50630545714
 20
-7592.7876827466534
 30
0.0
  0
VERTEX
  5
59165
  8
C_P7_LATO_OPPOSTO_ESTERNO
 10
16657.009840113329
 20
-7592.7876827466534
 30
0.0
  0
VERTEX
  5
59166
  8
C_P7_LATO_OPPOSTO_ESTERNO
 10
16657.009840113329
 20
-7596.2001827466529
 30
0.0
 42
0.7848796439678258
  0
VERTEX
  5
59167
  8
C_P7_LATO_OPPOSTO_ESTERNO
 10
16678.876566627969
 20
-7601.5487955117242
 30
0.0
 42
-0.2797252294881716
  0
VERTEX
  5
59168
  8
C_P7_LATO_OPPOSTO_ESTERNO
 10
16693.311426442109
 20
-7592.7876827466489
 30
0.0
  0
VERTEX
  5
59169
  8
C_P7_LATO_OPPOSTO_ESTERNO
 10
16815.097340113331
 20
-7592.7876827466489
 30
0.0
 42
0.3757905234033405
  0
VERTEX
  5
5916A
  8
C_P7_LATO_OPPOSTO_ESTERNO
 10
16838.47670881452
 20
-7572.3267264268297
 30
0.0
 42
0.6848233923603165
  0
VERTEX
  5
5916B
  8
C_P7_LATO_OPPOSTO_ESTERNO
 10
16835.392602117041
 20
-7570.6306277705899
 30
0.0
  0
SEQEND
  5
5916C
  8
C_P7_LATO_OPPOSTO_ESTERNO
  0
POLYLINE
  5
58EC0
  8
C_P3_LATO_OPPOSTO
 66
     1
 10
0.0
 20
0.0
 30
0.0
  0
VERTEX
  5
5916D
  8
C_P3_LATO_OPPOSTO
 10
16701.73734011333
 20
-7581.3001827466487
 30
0.0
  0
VERTEX
  5
5916E
  8
C_P3_LATO_OPPOSTO
 10
16706.817340113332
 20
-7581.3001827466487
 30
0.0
  0
VERTEX
  5
5916F
  8
C_P3_LATO_OPPOSTO
 10
16706.817340113332
 20
-7583.5501827466469
 30
0.0
  0
VERTEX
  5
59170
  8
C_P3_LATO_OPPOSTO
 10
16710.347340113341
 20
-7583.5501827466469
 30
0.0
  0
VERTEX
  5
59171
  8
C_P3_LATO_OPPOSTO
 10
16710.347340113341
 20
-7574.762682746642
 30
0.0
  0
VERTEX
  5
59172
  8
C_P3_LATO_OPPOSTO
 10
16716.847340113341
 20
-7574.762682746642
 30
0.0
  0
VERTEX
  5
59173
  8
C_P3_LATO_OPPOSTO
 10
16716.847340113341
 20
-7583.5501827466469
 30
0.0
  0
VERTEX
  5
59174
  8
C_P3_LATO_OPPOSTO
 10
16719.347340113341
 20
-7583.5501827466469
 30
0.0
  0
VERTEX
  5
59175
  8
C_P3_LATO_OPPOSTO
 10
16719.347340113341
 20
-7579.0501827466478
 30
0.0
  0
VERTEX
  5
59176
  8
C_P3_LATO_OPPOSTO
 10
16720.437340113331
 20
-7579.0501827466478
 30
0.0
  0
VERTEX
  5
59177
  8
C_P3_LATO_OPPOSTO
 10
16720.437340113331
 20
-7572.0201827466453
 30
0.0
  0
VERTEX
  5
59178
  8
C_P3_LATO_OPPOSTO
 10
16718.099840113329
 20
-7572.0201827466453
 30
0.0
  0
VERTEX
  5
59179
  8
C_P3_LATO_OPPOSTO
 10
16718.099840113329
 20
-7567.3626827466469
 30
0.0
  0
VERTEX
  5
5917A
  8
C_P3_LATO_OPPOSTO
 10
16730.58484011333
 20
-7567.3626827466469
 30
0.0
  0
VERTEX
  5
5917B
  8
C_P3_LATO_OPPOSTO
 10
16730.58484011333
 20
-7579.0501827466478
 30
0.0
  0
VERTEX
  5
5917C
  8
C_P3_LATO_OPPOSTO
 10
16725.847340113341
 20
-7579.0501827466478
 30
0.0
  0
VERTEX
  5
5917D
  8
C_P3_LATO_OPPOSTO
 10
16725.847340113341
 20
-7583.5501827466469
 30
0.0
  0
VERTEX
  5
5917E
  8
C_P3_LATO_OPPOSTO
 10
16728.372340113328
 20
-7582.7251827466471
 30
0.0
  0
VERTEX
  5
5917F
  8
C_P3_LATO_OPPOSTO
 10
16730.58484011333
 20
-7582.7251827466471
 30
0.0
  0
SEQEND
  5
59180
  8
C_P3_LATO_OPPOSTO
  0
POLYLINE
  5
58EC1
  8
V_P0_LATO_OPPOSTO
 66
     1
 10
0.0
 20
0.0
 30
0.0
  0
VERTEX
  5
59181
  8
V_P0_LATO_OPPOSTO
 10
16665.0505226266
 20
-7632.2751826463309
 30
0.0
  0
VERTEX
  5
59182
  8
V_P0_LATO_OPPOSTO
 10
16709.59955580832
 20
-7632.2751925228176
 30
0.0
  0
VERTEX
  5
59183
  8
V_P0_LATO_OPPOSTO
 10
16708.500026408339
 20
-7637.8885820586229
 30
0.0
  0
VERTEX
  5
59184
  8
V_P0_LATO_OPPOSTO
 10
16698.93218088675
 20
-7637.8885820586229
 30
0.0
  0
VERTEX
  5
59185
  8
V_P0_LATO_OPPOSTO
 10
16694.418310874429
 20
-7661.0751828469611
 30
0.0
  0
VERTEX
  5
59186
  8
V_P0_LATO_OPPOSTO
 10
16686.99165782307
 20
-7661.0751828469611
 30
0.0
  0
VERTEX
  5
59187
  8
V_P0_LATO_OPPOSTO
 10
16691.5055179589
 20
-7637.8885820586229
 30
0.0
  0
VERTEX
  5
59188
  8
V_P0_LATO_OPPOSTO
 10
16665.0505226266
 20
-7637.8885820586229
 30
0.0
 42
0.8847252645560551
  0
VERTEX
  5
59189
  8
V_P0_LATO_OPPOSTO
 10
16664.3700057858
 20
-7643.4309469602222
 30
0.0
  0
VERTEX
  5
5918A
  8
V_P0_LATO_OPPOSTO
 10
16668.010451446451
 20
-7644.3386120062532
 30
0.0
 42
-0.8847252645559413
  0
VERTEX
  5
5918B
  8
V_P0_LATO_OPPOSTO
 10
16665.955458944751
 20
-7661.0751828469611
 30
0.0
  0
VERTEX
  5
5918C
  8
V_P0_LATO_OPPOSTO
 10
16625.398653512329
 20
-7661.0751828469611
 30
0.0
  0
VERTEX
  5
5918D
  8
V_P0_LATO_OPPOSTO
 10
16631.01204304814
 20
-7632.2751925228176
 30
0.0
  0
VERTEX
  5
5918E
  8
V_P0_LATO_OPPOSTO
 10
16651.035077072542
 20
-7632.2751925228176
 30
0.0
  0
VERTEX
  5
5918F
  8
V_P0_LATO_OPPOSTO
 10
16649.935547672561
 20
-7637.8885820586229
 30
0.0
  0
VERTEX
  5
59190
  8
V_P0_LATO_OPPOSTO
 10
16637.339166699508
 20
-7637.8885820586229
 30
0.0
  0
VERTEX
  5
59191
  8
V_P0_LATO_OPPOSTO
 10
16636.297513505739
 20
-7643.2512076225121
 30
0.0
  0
VERTEX
  5
59192
  8
V_P0_LATO_OPPOSTO
 10
16648.160871586639
 20
-7643.2512076225121
 30
0.0
  0
VERTEX
  5
59193
  8
V_P0_LATO_OPPOSTO
 10
16647.042043533598
 20
-7648.8646070348022
 30
0.0
  0
VERTEX
  5
59194
  8
V_P0_LATO_OPPOSTO
 10
16635.197984105758
 20
-7648.8646070348022
 30
0.0
  0
VERTEX
  5
59195
  8
V_P0_LATO_OPPOSTO
 10
16633.924835963669
 20
-7655.46178343467
 30
0.0
  0
VERTEX
  5
59196
  8
V_P0_LATO_OPPOSTO
 10
16665.955458944751
 20
-7655.46178343467
 30
0.0
 42
0.88472526455604
  0
VERTEX
  5
59197
  8
V_P0_LATO_OPPOSTO
 10
16666.652447219862
 20
-7649.785269465875
 30
0.0
  0
VERTEX
  5
59198
  8
V_P0_LATO_OPPOSTO
 10
16663.012001559218
 20
-7648.8776044198503
 30
0.0
 42
-0.8854078720126409
  0
VERTEX
  5
59199
  8
V_P0_LATO_OPPOSTO
 10
16665.06342400295
 20
-7632.2751925228149
 30
0.0
  0
SEQEND
  5
5919A
  8
V_P0_LATO_OPPOSTO
  0
POLYLINE
  5
58EC2
  8
V_P0_LATO_OPPOSTO
 66
     1
 10
0.0
 20
0.0
 30
0.0
  0
VERTEX
  5
5919B
  8
V_P0_LATO_OPPOSTO
 10
16700.299842058739
 20
-7639.6459031838749
 30
0.0
  0
VERTEX
  5
5919C
  8
V_P0_LATO_OPPOSTO
 10
16698.59007299427
 20
-7639.6459031838749
 30
0.0
  0
SEQEND
  5
5919D
  8
V_P0_LATO_OPPOSTO
  0
POLYLINE
  5
58EC3
  8
V_P0_LATO_OPPOSTO
 66
     1
 10
0.0
 20
0.0
 30
0.0
  0
VERTEX
  5
5919E
  8
V_P0_LATO_OPPOSTO
 10
16683.093147190521
 20
-7658.1951838145451
 30
0.0
  0
VERTEX
  5
5919F
  8
V_P0_LATO_OPPOSTO
 10
16686.704235299181
 20
-7639.6459031838749
 30
0.0
  0
VERTEX
  5
591A0
  8
V_P0_LATO_OPPOSTO
 10
16665.54023903334
 20
-7639.6459031838749
 30
0.0
 42
0.6009676094729483
  0
VERTEX
  5
591A1
  8
V_P0_LATO_OPPOSTO
 10
16663.674994551719
 20
-7643.155248701456
 30
0.0
 42
0.6009676094729483
  0
SEQEND
  5
591A2
  8
V_P0_LATO_OPPOSTO
  0
POLYLINE
  5
58EC4
  8
V_P0_LATO_OPPOSTO
 66
     1
 10
0.0
 20
0.0
 30
0.0
  0
VERTEX
  5
591A3
  8
V_P0_LATO_OPPOSTO
 10
16654.3278825901
 20
-7635.1551915552309
 30
0.0
  0
VERTEX
  5
591A4
  8
V_P0_LATO_OPPOSTO
 10
16653.448259070112
 20
-7639.6459031838749
 30
0.0
  0
VERTEX
  5
591A5
  8
V_P0_LATO_OPPOSTO
 10
16643.371154291679
 20
-7639.6459031838749
 30
0.0
  0
VERTEX
  5
591A6
  8
V_P0_LATO_OPPOSTO
 10
16642.670848659989
 20
-7643.2512076225121
 30
0.0
  0
SEQEND
  5
591A7
  8
V_P0_LATO_OPPOSTO
  0
POLYLINE
  5
58EC5
  8
V_P0_LATO_OPPOSTO
 66
     1
 10
0.0
 20
0.0
 30
0.0
  0
VERTEX
  5
591A8
  8
V_P0_LATO_OPPOSTO
 10
16652.028518201369
 20
-7643.9360036349872
 30
0.0
  0
VERTEX
  5
591A9
  8
V_P0_LATO_OPPOSTO
 10
16651.133455758951
 20
-7648.4267231648191
 30
0.0
  0
SEQEND
  5
591AA
  8
V_P0_LATO_OPPOSTO
  0
POLYLINE
  5
58EC6
  8
V_P0_LATO_OPPOSTO
 66
     1
 10
0.0
 20
0.0
 30
0.0
  0
VERTEX
  5
591AB
  8
V_P0_LATO_OPPOSTO
 10
16641.5737037254
 20
-7648.8646070348022
 30
0.0
  0
VERTEX
  5
591AC
  8
V_P0_LATO_OPPOSTO
 10
16640.639689702999
 20
-7653.704464284714
 30
0.0
  0
VERTEX
  5
591AD
  8
V_P0_LATO_OPPOSTO
 10
16666.264188087851
 20
-7653.704464284714
 30
0.0
 42
0.4182441321014333
  0
VERTEX
  5
591AE
  8
V_P0_LATO_OPPOSTO
 10
16668.568807825832
 20
-7651.3679558052463
 30
0.0
  0
SEQEND
  5
591AF
  8
V_P0_LATO_OPPOSTO
  0
LINE
  5
58EC7
  8
V_P0_LATO_OPPOSTO
 10
16651.035077072542
 20
-7632.2751925228176
 30
0.0
 11
16654.3278825901
 21
-7635.1551915552309
 31
0.0
  0
LINE
  5
58EC8
  8
V_P0_LATO_OPPOSTO
 10
16653.448259070112
 20
-7639.6459031838749
 30
0.0
 11
16649.935547672561
 21
-7637.8885820586229
 31
0.0
  0
LINE
  5
58EC9
  8
V_P0_LATO_OPPOSTO
 10
16652.028518201369
 20
-7643.9360036349872
 30
0.0
 11
16648.160871586639
 21
-7643.2512076225121
 31
0.0
  0
LINE
  5
58ECA
  8
V_P0_LATO_OPPOSTO
 10
16651.133455758951
 20
-7648.4267231648191
 30
0.0
 11
16647.042043533598
 21
-7648.8646070348022
 31
0.0
  0
LINE
  5
58ECB
  8
V_P0_LATO_OPPOSTO
 10
16633.924835963669
 20
-7655.46178343467
 30
0.0
 11
16640.639689702999
 21
-7653.704464284714
 31
0.0
  0
LINE
  5
58ECC
  8
V_P0_LATO_OPPOSTO
 10
16686.99165782307
 20
-7661.0751828469611
 30
0.0
 11
16683.093147190521
 21
-7658.1951838145451
 31
0.0
  0
LINE
  5
58ECD
  8
V_P0_LATO_OPPOSTO
 10
16700.299842058739
 20
-7639.6459031838749
 30
0.0
 11
16708.500026408339
 21
-7637.8885820586229
 31
0.0
  0
LINE
  5
58ECE
  8
V_P0_LATO_OPPOSTO
 10
16686.704235299181
 20
-7639.6459031838749
 30
0.0
 11
16691.5055179589
 21
-7637.8885820586229
 31
0.0
  0
LINE
  5
58ECF
  8
V_P0_LATO_OPPOSTO
 10
16643.371154291679
 20
-7639.6459031838749
 30
0.0
 11
16637.339166699508
 21
-7637.8885820586229
 31
0.0
  0
ARC
  5
58ED0
  8
PROFILO
 10
16473.105863730321
 20
-7663.5876827466564
 30
0.0
 40
1.587499999999999
 50
220.90229685001111
 51
270.0
  0
ARC
  5
58ED1
  8
PROFILO
 10
16492.405863730321
 20
-7663.5876827466564
 30
0.0
 40
1.587499999999999
 50
270.0
 51
28.192860561906539
  0
POLYLINE
  5
58ED2
  8
PROFILO
 66
     1
 10
0.0
 20
0.0
 30
0.0
  0
VERTEX
  5
591B0
  8
PROFILO
 10
16473.105863730321
 20
-7665.1751827466551
 30
0.0
  0
VERTEX
  5
591B1
  8
PROFILO
 10
16492.405863730321
 20
-7665.1751827466551
 30
0.0
  0
SEQEND
  5
591B2
  8
PROFILO
  0
POLYLINE
  5
58ED3
  8
C-P45
 66
     1
 10
0.0
 20
0.0
 30
0.0
  0
VERTEX
  5
591B3
  8
C-P45
 10
16473.105863730321
 20
-7663.5876827466564
 30
0.0
  0
VERTEX
  5
591B4
  8
C-P45
 10
16492.405863730321
 20
-7663.5876827466564
 30
0.0
  0
SEQEND
  5
591B5
  8
C-P45
  0
POLYLINE
  5
58ED4
  8
PROFILO
 66
     1
 10
0.0
 20
0.0
 30
0.0
  0
VERTEX
  5
591B6
  8
PROFILO
 10
16478.905863730321
 20
-7664.6751827466551
 30
0.0
  0
VERTEX
  5
591B7
  8
PROFILO
 10
16478.905863730321
 20
-7668.6751827466514
 30
0.0
  0
SEQEND
  5
591B8
  8
PROFILO
  0
POLYLINE
  5
58ED5
  8
PROFILO
 66
     1
 10
0.0
 20
0.0
 30
0.0
  0
VERTEX
  5
591B9
  8
PROFILO
 10
16486.605863730321
 20
-7664.6751827466551
 30
0.0
  0
VERTEX
  5
591BA
  8
PROFILO
 10
16486.605863730321
 20
-7668.6751827466514
 30
0.0
  0
SEQEND
  5
591BB
  8
PROFILO
  0
POLYLINE
  5
58ED6
  8
C-P35
 66
     1
 10
0.0
 20
0.0
 30
0.0
  0
VERTEX
  5
591BC
  8
C-P35
 10
16482.08086373032
 20
-7663.0876827466564
 30
0.0
  0
VERTEX
  5
591BD
  8
C-P35
 10
16482.08086373032
 20
-7670.2626827466502
 30
0.0
  0
VERTEX
  5
591BE
  8
C-P35
 10
16483.668363730321
 20
-7670.2626827466502
 30
0.0
  0
VERTEX
  5
591BF
  8
C-P35
 10
16483.668363730321
 20
-7663.0876827466564
 30
0.0
  0
VERTEX
  5
591C0
  8
C-P35
 10
16485.01836373032
 20
-7663.0876827466564
 30
0.0
  0
VERTEX
  5
591C1
  8
C-P35
 10
16485.01836373032
 20
-7670.2626827466502
 30
0.0
  0
VERTEX
  5
591C2
  8
C-P35
 10
16480.493363730318
 20
-7670.2626827466502
 30
0.0
  0
VERTEX
  5
591C3
  8
C-P35
 10
16480.493363730318
 20
-7663.0876827466564
 30
0.0
  0
VERTEX
  5
591C4
  8
C-P35
 10
16483.668363730321
 20
-7663.0876827466564
 30
0.0
  0
SEQEND
  5
591C5
  8
C-P35
  0
POLYLINE
  5
58ED7
  8
PROFILO
 66
     1
 10
0.0
 20
0.0
 30
0.0
 70
     1
  0
VERTEX
  5
591C6
  8
PROFILO
 10
16493.993363730318
 20
-7659.2626827466493
 30
0.0
  0
VERTEX
  5
591C7
  8
PROFILO
 10
16493.993363730318
 20
-7662.0876827466491
 30
0.0
 42
-0.4142135623729608
  0
VERTEX
  5
591C8
  8
PROFILO
 10
16492.405863730321
 20
-7663.6751827466478
 30
0.0
  0
VERTEX
  5
591C9
  8
PROFILO
 10
16472.9931518507
 20
-7663.6751827466478
 30
0.0
 42
-0.3070648477467088
  0
VERTEX
  5
591CA
  8
PROFILO
 10
16471.51836373032
 20
-7664.6751827466551
 30
0.0
  0
VERTEX
  5
591CB
  8
PROFILO
 10
16465.193363730319
 20
-7664.6751827466551
 30
0.0
 42
-0.3070648477467089
  0
VERTEX
  5
591CC
  8
PROFILO
 10
16463.718575609939
 20
-7663.6751827466478
 30
0.0
  0
VERTEX
  5
591CD
  8
PROFILO
 10
16390.105863730321
 20
-7663.6751827466478
 30
0.0
 42
-0.4142135623729608
  0
VERTEX
  5
591CE
  8
PROFILO
 10
16388.51836373032
 20
-7662.0876827466491
 30
0.0
  0
VERTEX
  5
591CF
  8
PROFILO
 10
16388.51836373032
 20
-7651.6751827466496
 30
0.0
  0
VERTEX
  5
591D0
  8
PROFILO
 10
16382.99336373032
 20
-7651.6751827466496
 30
0.0
 42
-0.9999999999999998
  0
VERTEX
  5
591D1
  8
PROFILO
 10
16379.818363730319
 20
-7651.6751827466496
 30
0.0
  0
VERTEX
  5
591D2
  8
PROFILO
 10
16379.818363730319
 20
-7632.850182746648
 30
0.0
 42
-0.9999999999999998
  0
VERTEX
  5
591D3
  8
PROFILO
 10
16379.818363730319
 20
-7629.6751827466487
 30
0.0
  0
VERTEX
  5
591D4
  8
PROFILO
 10
16458.918363730321
 20
-7629.6751827466487
 30
0.0
 42
-0.4142135623730951
  0
VERTEX
  5
591D5
  8
PROFILO
 10
16460.505863730319
 20
-7631.2626827466484
 30
0.0
  0
VERTEX
  5
591D6
  8
PROFILO
 10
16460.505863730319
 20
-7646.9251827466514
 30
0.0
  0
VERTEX
  5
591D7
  8
PROFILO
 10
16469.81586373032
 20
-7646.9251827466514
 30
0.0
  0
VERTEX
  5
591D8
  8
PROFILO
 10
16469.81586373032
 20
-7641.112682746656
 30
0.0
 42
-0.2496533862350641
  0
VERTEX
  5
591D9
  8
PROFILO
 10
16470.51725823127
 20
-7639.7954988967158
 30
0.0
  0
VERTEX
  5
591DA
  8
PROFILO
 10
16473.267258231259
 20
-7637.9454988967091
 30
0.0
 42
-0.1491378573790114
  0
VERTEX
  5
591DB
  8
PROFILO
 10
16474.153363730311
 20
-7637.6751827466487
 30
0.0
  0
VERTEX
  5
591DC
  8
PROFILO
 10
16502.055799700051
 20
-7637.6751827466487
 30
0.0
  0
VERTEX
  5
591DD
  8
PROFILO
 10
16509.590831715192
 20
-7630.140150731515
 30
0.0
 42
-0.1989123673797334
  0
VERTEX
  5
591DE
  8
PROFILO
 10
16510.71336373032
 20
-7629.675182746646
 30
0.0
  0
VERTEX
  5
591DF
  8
PROFILO
 10
16517.905863730321
 20
-7629.6751827466487
 30
0.0
 42
-0.3332794100358492
  0
VERTEX
  5
591E0
  8
PROFILO
 10
16519.429777412151
 20
-7630.8178869054609
 30
0.0
  0
VERTEX
  5
591E1
  8
PROFILO
 10
16523.759665266502
 20
-7645.6525025448636
 30
0.0
 42
-0.1645141699993855
  0
VERTEX
  5
591E2
  8
PROFILO
 10
16523.661194318971
 20
-7647.9890410274465
 30
0.0
  0
VERTEX
  5
591E3
  8
PROFILO
 10
16519.70357370636
 20
-7658.246621108502
 30
0.0
 42
-0.3100403836335515
  0
VERTEX
  5
591E4
  8
PROFILO
 10
16518.222488142121
 20
-7659.2626827466493
 30
0.0
  0
SEQEND
  5
591E5
  8
PROFILO
  0
POLYLINE
  5
58ED8
  8
C_P7_LATO_OPPOSTO
 66
     1
 10
0.0
 20
0.0
 30
0.0
 70
     1
  0
VERTEX
  5
591E6
  8
C_P7_LATO_OPPOSTO
 10
16492.405863730321
 20
-7657.6751827466496
 30
0.0
  0
VERTEX
  5
591E7
  8
C_P7_LATO_OPPOSTO
 10
16492.405863730321
 20
-7662.0876827466491
 30
0.0
  0
VERTEX
  5
591E8
  8
C_P7_LATO_OPPOSTO
 10
16472.9931518507
 20
-7662.0876827466491
 30
0.0
 42
0.3070648477466804
  0
VERTEX
  5
591E9
  8
C_P7_LATO_OPPOSTO
 10
16471.51836373032
 20
-7663.0876827466564
 30
0.0
  0
VERTEX
  5
591EA
  8
C_P7_LATO_OPPOSTO
 10
16465.193363730319
 20
-7663.0876827466564
 30
0.0
 42
0.3070648477466803
  0
VERTEX
  5
591EB
  8
C_P7_LATO_OPPOSTO
 10
16463.718575609939
 20
-7662.0876827466491
 30
0.0
  0
VERTEX
  5
591EC
  8
C_P7_LATO_OPPOSTO
 10
16390.105863730321
 20
-7662.0876827466491
 30
0.0
  0
VERTEX
  5
591ED
  8
C_P7_LATO_OPPOSTO
 10
16390.105863730321
 20
-7650.0876827466509
 30
0.0
  0
VERTEX
  5
591EE
  8
C_P7_LATO_OPPOSTO
 10
16382.99336373032
 20
-7650.0876827466509
 30
0.0
 42
0.4142135623729608
  0
VERTEX
  5
591EF
  8
C_P7_LATO_OPPOSTO
 10
16381.405863730321
 20
-7651.6751827466496
 30
0.0
  0
VERTEX
  5
591F0
  8
C_P7_LATO_OPPOSTO
 10
16381.405863730321
 20
-7632.850182746648
 30
0.0
 42
0.4142135623729608
  0
VERTEX
  5
591F1
  8
C_P7_LATO_OPPOSTO
 10
16379.818363730319
 20
-7631.2626827466484
 30
0.0
  0
VERTEX
  5
591F2
  8
C_P7_LATO_OPPOSTO
 10
16458.918363730321
 20
-7631.2626827466484
 30
0.0
  0
VERTEX
  5
591F3
  8
C_P7_LATO_OPPOSTO
 10
16458.918363730321
 20
-7648.5126827466502
 30
0.0
  0
VERTEX
  5
591F4
  8
C_P7_LATO_OPPOSTO
 10
16471.403363730318
 20
-7648.5126827466502
 30
0.0
  0
VERTEX
  5
591F5
  8
C_P7_LATO_OPPOSTO
 10
16471.403363730318
 20
-7641.112682746656
 30
0.0
  0
VERTEX
  5
591F6
  8
C_P7_LATO_OPPOSTO
 10
16474.153363730311
 20
-7639.2626827466502
 30
0.0
  0
VERTEX
  5
591F7
  8
C_P7_LATO_OPPOSTO
 10
16502.71336373032
 20
-7639.2626827466484
 30
0.0
  0
VERTEX
  5
591F8
  8
C_P7_LATO_OPPOSTO
 10
16510.71336373032
 20
-7631.2626827466484
 30
0.0
  0
VERTEX
  5
591F9
  8
C_P7_LATO_OPPOSTO
 10
16517.905863730321
 20
-7631.2626827466484
 30
0.0
  0
VERTEX
  5
591FA
  8
C_P7_LATO_OPPOSTO
 10
16522.235751584671
 20
-7646.097298386052
 30
0.0
 42
-0.1645141699992907
  0
VERTEX
  5
591FB
  8
C_P7_LATO_OPPOSTO
 10
16522.180108754728
 20
-7647.4176026655914
 30
0.0
  0
VERTEX
  5
591FC
  8
C_P7_LATO_OPPOSTO
 10
16518.222488142121
 20
-7657.6751827466496
 30
0.0
  0
SEQEND
  5
591FD
  8
C_P7_LATO_OPPOSTO
  0
POLYLINE
  5
58ED9
  8
C_P15_LATO_OPPOSTO
 66
     1
 10
0.0
 20
0.0
 30
0.0
  0
VERTEX
  5
591FE
  8
C_P15_LATO_OPPOSTO
 10
16458.918363730321
 20
-7631.2626827466502
 30
0.0
  0
VERTEX
  5
591FF
  8
C_P15_LATO_OPPOSTO
 10
16508.468299700049
 20
-7631.2626827466502
 30
0.0
  0
VERTEX
  5
59200
  8
C_P15_LATO_OPPOSTO
 10
16508.468299700049
 20
-7633.2626827466502
 30
0.0
  0
VERTEX
  5
59201
  8
C_P15_LATO_OPPOSTO
 10
16460.505863730319
 20
-7633.2626827466502
 30
0.0
  0
VERTEX
  5
59202
  8
C_P15_LATO_OPPOSTO
 10
16460.505863730319
 20
-7635.2626827466511
 30
0.0
  0
VERTEX
  5
59203
  8
C_P15_LATO_OPPOSTO
 10
16504.468299700049
 20
-7635.2626827466511
 30
0.0
  0
VERTEX
  5
59204
  8
C_P15_LATO_OPPOSTO
 10
16504.468299700049
 20
-7637.2626827466502
 30
0.0
  0
VERTEX
  5
59205
  8
C_P15_LATO_OPPOSTO
 10
16460.505863730319
 20
-7637.2626827466502
 30
0.0
  0
VERTEX
  5
59206
  8
C_P15_LATO_OPPOSTO
 10
16460.505863730319
 20
-7639.2626827466502
 30
0.0
  0
VERTEX
  5
59207
  8
C_P15_LATO_OPPOSTO
 10
16474.153363730311
 20
-7639.2626827466502
 30
0.0
  0
VERTEX
  5
59208
  8
C_P15_LATO_OPPOSTO
 10
16474.153363730311
 20
-7641.2626827466493
 30
0.0
  0
VERTEX
  5
59209
  8
C_P15_LATO_OPPOSTO
 10
16460.505863730319
 20
-7641.2626827466493
 30
0.0
  0
VERTEX
  5
5920A
  8
C_P15_LATO_OPPOSTO
 10
16460.505863730319
 20
-7643.2626827466511
 30
0.0
  0
VERTEX
  5
5920B
  8
C_P15_LATO_OPPOSTO
 10
16469.81586373032
 20
-7643.2626827466511
 30
0.0
  0
VERTEX
  5
5920C
  8
C_P15_LATO_OPPOSTO
 10
16469.81586373032
 20
-7645.2626827466502
 30
0.0
  0
VERTEX
  5
5920D
  8
C_P15_LATO_OPPOSTO
 10
16460.505863730319
 20
-7645.2626827466502
 30
0.0
  0
VERTEX
  5
5920E
  8
C_P15_LATO_OPPOSTO
 10
16460.505863730319
 20
-7647.2626827466493
 30
0.0
  0
VERTEX
  5
5920F
  8
C_P15_LATO_OPPOSTO
 10
16469.81586373032
 20
-7647.2626827466493
 30
0.0
  0
SEQEND
  5
59210
  8
C_P15_LATO_OPPOSTO
  0
CIRCLE
  5
58EDA
  8
PROFILO
 10
16464.035863730322
 20
-7643.1751827466514
 30
0.0
 40
2.1000000000000001
  0
CIRCLE
  5
58EDB
  8
C_P7_LATO_OPPOSTO
 10
16464.035863730322
 20
-7643.1751827466514
 30
0.0
 40
0.5125000000000002
  0
CIRCLE
  5
58EDC
  8
PROFILO
 10
16497.625863730322
 20
-7633.9251827466478
 30
0.0
 40
2.1000000000000001
  0
CIRCLE
  5
58EDD
  8
C_P7_LATO_OPPOSTO
 10
16497.625863730322
 20
-7633.9251827466478
 30
0.0
 40
0.5125000000000002
  0
POLYLINE
  5
58EDE
  8
PROFILO
 66
     1
 10
0.0
 20
0.0
 30
0.0
 70
     1
  0
VERTEX
  5
59211
  8
PROFILO
 10
16357.929494108899
 20
-7644.1126406050407
 30
0.0
  0
VERTEX
  5
59212
  8
PROFILO
 10
16354.875575305459
 20
-7646.6751827466514
 30
0.0
  0
VERTEX
  5
59213
  8
PROFILO
 10
16362.206395925299
 20
-7652.8264716249887
 30
0.0
 42
-0.9452937923568175
  0
VERTEX
  5
59214
  8
PROFILO
 10
16364.51639004493
 20
-7654.99734998653
 30
0.0
  0
VERTEX
  5
59215
  8
PROFILO
 10
16362.704569375141
 20
-7657.1565937788928
 30
0.0
 42
-0.945293792355601
  0
VERTEX
  5
59216
  8
PROFILO
 10
16360.16554526455
 20
-7655.2586627318933
 30
0.0
  0
VERTEX
  5
59217
  8
PROFILO
 10
16353.090176396239
 20
-7649.3217233240493
 30
0.0
 42
0.6848233923615091
  0
VERTEX
  5
59218
  8
PROFILO
 10
16352.599987252261
 20
-7649.5913019184172
 30
0.0
 42
0.3757905234032603
  0
VERTEX
  5
59219
  8
PROFILO
 10
16374.405863730321
 20
-7668.6751827466514
 30
0.0
  0
VERTEX
  5
5921A
  8
PROFILO
 10
16496.191777401538
 20
-7668.6751827466514
 30
0.0
 42
-0.2797252294880603
  0
VERTEX
  5
5921B
  8
PROFILO
 10
16512.034902336891
 20
-7678.2910297930948
 30
0.0
 42
0.7848796439676905
  0
VERTEX
  5
5921C
  8
PROFILO
 10
16530.905863730321
 20
-7673.6751827466487
 30
0.0
  0
VERTEX
  5
5921D
  8
PROFILO
 10
16530.905863730321
 20
-7670.2626827466502
 30
0.0
 42
-0.4142135623730951
  0
VERTEX
  5
5921E
  8
PROFILO
 10
16532.493363730318
 20
-7668.6751827466514
 30
0.0
  0
VERTEX
  5
5921F
  8
PROFILO
 10
16800.996898386511
 20
-7668.6751827466524
 30
0.0
 42
0.1316524975874091
  0
VERTEX
  5
59220
  8
PROFILO
 10
16802.496898386511
 20
-7668.2732589580037
 30
0.0
  0
VERTEX
  5
59221
  8
PROFILO
 10
16835.405863730321
 20
-7649.2732589579973
 30
0.0
 42
0.5773502691893042
  0
VERTEX
  5
59222
  8
PROFILO
 10
16835.405863730321
 20
-7644.0771065352928
 30
0.0
  0
VERTEX
  5
59223
  8
PROFILO
 10
16802.496898386518
 20
-7625.0771065352928
 30
0.0
 42
0.1316524975874107
  0
VERTEX
  5
59224
  8
PROFILO
 10
16800.996898386518
 20
-7624.675182746646
 30
0.0
  0
VERTEX
  5
59225
  8
PROFILO
 10
16532.493363730318
 20
-7624.675182746646
 30
0.0
 42
-0.4142135623729608
  0
VERTEX
  5
59226
  8
PROFILO
 10
16530.905863730321
 20
-7623.0876827466491
 30
0.0
  0
VERTEX
  5
59227
  8
PROFILO
 10
16530.905863730321
 20
-7619.675182746646
 30
0.0
 42
0.7848796439678036
  0
VERTEX
  5
59228
  8
PROFILO
 10
16512.034902336891
 20
-7615.0593357001981
 30
0.0
 42
-0.2797252294881704
  0
VERTEX
  5
59229
  8
PROFILO
 10
16496.191777401538
 20
-7624.6751827466478
 30
0.0
  0
VERTEX
  5
5922A
  8
PROFILO
 10
16374.405863730321
 20
-7624.6751827466478
 30
0.0
 42
0.3757905234033589
  0
VERTEX
  5
5922B
  8
PROFILO
 10
16352.599987252261
 20
-7643.7590635748857
 30
0.0
 42
0.6848233923615091
  0
VERTEX
  5
5922C
  8
PROFILO
 10
16353.090176396239
 20
-7644.0286421692554
 30
0.0
  0
VERTEX
  5
5922D
  8
PROFILO
 10
16355.88864344813
 20
-7641.6804494981416
 30
0.0
 42
-0.2044439053891028
  0
VERTEX
  5
5922E
  8
PROFILO
 10
16356.62588207467
 20
-7639.8194990198226
 30
0.0
  0
VERTEX
  5
5922F
  8
PROFILO
 10
16360.716362925041
 20
-7635.6889429078892
 30
0.0
 42
-0.42879518564775
  0
VERTEX
  5
59230
  8
PROFILO
 10
16363.015873596891
 20
-7635.7346833744268
 30
0.0
  0
VERTEX
  5
59231
  8
PROFILO
 10
16364.674645553479
 20
-7637.5486227374313
 30
0.0
 42
-0.4267507844574438
  0
VERTEX
  5
59232
  8
PROFILO
 10
16364.52355085544
 20
-7639.8360245370286
 30
0.0
  0
VERTEX
  5
59233
  8
PROFILO
 10
16360.076880961749
 20
-7643.567223604794
 30
0.0
 42
-0.228559842469051
  0
SEQEND
  5
59234
  8
PROFILO
  0
POLYLINE
  5
58EDF
  8
V-P2
 66
     1
 10
0.0
 20
0.0
 30
0.0
  0
VERTEX
  5
59235
  8
V-P2
 10
16532.905863730321
 20
-7669.1751827466496
 30
0.0
  0
VERTEX
  5
59236
  8
V-P2
 10
16800.996898386511
 20
-7669.1751827466524
 30
0.0
 42
0.1316524975873931
  0
VERTEX
  5
59237
  8
V-P2
 10
16802.746898386511
 20
-7668.7062716598966
 30
0.0
  0
VERTEX
  5
59238
  8
V-P2
 10
16835.655863730321
 20
-7649.7062716598912
 30
0.0
 42
0.5773502691896273
  0
VERTEX
  5
59239
  8
V-P2
 10
16835.655863730321
 20
-7643.6440938333999
 30
0.0
  0
VERTEX
  5
5923A
  8
V-P2
 10
16802.746898386511
 20
-7624.6440938333999
 30
0.0
 42
0.1316524975873942
  0
VERTEX
  5
5923B
  8
V-P2
 10
16800.996898386518
 20
-7624.175182746646
 30
0.0
  0
VERTEX
  5
5923C
  8
V-P2
 10
16532.905863730321
 20
-7624.175182746646
 30
0.0
  0
SEQEND
  5
5923D
  8
V-P2
  0
CIRCLE
  5
58EE0
  8
PROFILO
 10
16520.905863730321
 20
-7619.6751827466478
 30
0.0
 40
2.1000000000000001
  0
CIRCLE
  5
58EE1
  8
C_P7_LATO_OPPOSTO
 10
16520.905863730321
 20
-7619.6751827466478
 30
0.0
 40
0.5125000000000002
  0
CIRCLE
  5
58EE2
  8
PROFILO
 10
16520.905863730321
 20
-7673.6751827466487
 30
0.0
 40
2.1000000000000001
  0
CIRCLE
  5
58EE3
  8
C_P7_LATO_OPPOSTO
 10
16520.905863730321
 20
-7673.6751827466487
 30
0.0
 40
0.5125000000000002
  0
CIRCLE
  5
58EE4
  8
PROFILO
 10
16362.655863730321
 20
-7646.6751827466487
 30
0.0
 40
2.1000000000000001
  0
CIRCLE
  5
58EE5
  8
C_P7_LATO_OPPOSTO
 10
16362.655863730321
 20
-7646.6751827466487
 30
0.0
 40
0.5125000000000002
  0
ARC
  5
58EE6
  8
PROFILO
 10
16373.264917707291
 20
-7658.184858858046
 30
0.0
 40
20.475543358343039
 50
71.333317707072112
 51
114.4373784764684
  0
ARC
  5
58EE7
  8
PROFILO
 10
16369.234922573911
 20
-7639.1293724170382
 30
0.0
 40
15.781994897863621
 50
253.89211565988211
 51
312.11356313167511
  0
ARC
  5
58EE8
  8
PROFILO
 10
16379.14832531506
 20
-7679.223790865477
 30
0.0
 40
46.971593968061477
 50
90.693578492668252
 51
110.854002993056
  0
ARC
  5
58EE9
  8
PROFILO
 10
16368.07767563392
 20
-7636.5338535799647
 30
0.0
 40
21.79881447582946
 50
254.46017588824071
 51
316.00511440577458
  0
POLYLINE
  5
58EEA
  8
C-P3
 66
     1
 10
0.0
 20
0.0
 30
0.0
  0
VERTEX
  5
5923E
  8
C-P3
 10
16362.37056440436
 20
-7655.0849338276266
 30
0.0
 42
0.3538385892709082
  0
VERTEX
  5
5923F
  8
C-P3
 10
16383.404645500919
 20
-7649.1751827466496
 30
0.0
  0
VERTEX
  5
59240
  8
C-P3
 10
16383.847711453171
 20
-7649.1751827466496
 30
0.0
 42
-0.3121433154207078
  0
VERTEX
  5
59241
  8
C-P3
 10
16361.81277129973
 20
-7655.7496857639862
 30
0.0
  0
SEQEND
  5
59242
  8
C-P3
  0
POLYLINE
  5
58EEB
  8
C-P3
 66
     1
 10
0.0
 20
0.0
 30
0.0
  0
VERTEX
  5
59243
  8
C-P3
 10
16381.818363730319
 20
-7633.9183068689154
 30
0.0
 42
0.1112487630742047
  0
VERTEX
  5
59244
  8
C-P3
 10
16362.133077778521
 20
-7637.1500777351603
 30
0.0
  0
VERTEX
  5
59245
  8
C-P3
 10
16363.276234774799
 20
-7638.5124391922673
 30
0.0
 42
-0.2204569588264554
  0
VERTEX
  5
59246
  8
C-P3
 10
16381.818363730319
 20
-7637.8472964828943
 30
0.0
  0
VERTEX
  5
59247
  8
C-P3
 10
16381.818363730319
 20
-7635.5086614699876
 30
0.0
 42
0.0655229305421896
  0
VERTEX
  5
59248
  8
C-P3
 10
16370.416585991419
 20
-7636.3064473830664
 30
0.0
  0
SEQEND
  5
59249
  8
C-P3
  0
CIRCLE
  5
58EEC
  8
PROFILO
 10
16374.405863730321
 20
-7646.6751827466487
 30
0.0
 40
5.0
  0
CIRCLE
  5
58EED
  8
C_P7_LATO_OPPOSTO
 10
16374.405863730321
 20
-7646.6751827466487
 30
0.0
 40
3.4125000000003629
  0
POLYLINE
  5
58EEE
  8
V_P2_LATO_OPPOSTO
 66
     1
 10
0.0
 20
0.0
 30
0.0
  0
VERTEX
  5
5924A
  8
V_P2_LATO_OPPOSTO
 10
16532.905863730321
 20
-7669.1751827466496
 30
0.0
  0
VERTEX
  5
5924B
  8
V_P2_LATO_OPPOSTO
 10
16800.996898386511
 20
-7669.1751827466524
 30
0.0
 42
0.1316524975873931
  0
VERTEX
  5
5924C
  8
V_P2_LATO_OPPOSTO
 10
16802.746898386511
 20
-7668.7062716598966
 30
0.0
  0
VERTEX
  5
5924D
  8
V_P2_LATO_OPPOSTO
 10
16835.655863730321
 20
-7649.7062716598912
 30
0.0
 42
0.5773502691896273
  0
VERTEX
  5
5924E
  8
V_P2_LATO_OPPOSTO
 10
16835.655863730321
 20
-7643.6440938333999
 30
0.0
  0
VERTEX
  5
5924F
  8
V_P2_LATO_OPPOSTO
 10
16802.746898386511
 20
-7624.6440938333999
 30
0.0
 42
0.1316524975873942
  0
VERTEX
  5
59250
  8
V_P2_LATO_OPPOSTO
 10
16800.996898386518
 20
-7624.175182746646
 30
0.0
  0
VERTEX
  5
59251
  8
V_P2_LATO_OPPOSTO
 10
16532.905863730321
 20
-7624.175182746646
 30
0.0
  0
SEQEND
  5
59252
  8
V_P2_LATO_OPPOSTO
  0
POLYLINE
  5
58EEF
  8
C_P7_LATO_OPPOSTO_ESTERNO
 66
     1
 10
0.0
 20
0.0
 30
0.0
 70
     1
  0
VERTEX
  5
59253
  8
C_P7_LATO_OPPOSTO_ESTERNO
 10
16357.70045478055
 20
-7642.2324933491636
 30
0.0
 42
-0.387476429638864
  0
VERTEX
  5
59254
  8
C_P7_LATO_OPPOSTO_ESTERNO
 10
16357.753872718111
 20
-7640.9365457325039
 30
0.0
  0
VERTEX
  5
59255
  8
C_P7_LATO_OPPOSTO_ESTERNO
 10
16361.84435356848
 20
-7636.8059896205714
 30
0.0
  0
VERTEX
  5
59256
  8
C_P7_LATO_OPPOSTO_ESTERNO
 10
16363.50312552506
 20
-7638.619928983574
 30
0.0
  0
VERTEX
  5
59257
  8
C_P7_LATO_OPPOSTO_ESTERNO
 10
16359.056455631369
 20
-7642.3511280513439
 30
0.0
 42
-0.4142135623707556
  0
VERTEX
  5
59258
  8
C_P7_LATO_OPPOSTO_ESTERNO
 10
16357.70045478055
 20
-7642.2324933491618
 30
0.0
  0
VERTEX
  5
59259
  8
C_P7_LATO_OPPOSTO_ESTERNO
 10
16352.405863730321
 20
-7646.6751827466514
 30
0.0
  0
VERTEX
  5
5925A
  8
C_P7_LATO_OPPOSTO_ESTERNO
 10
16361.185970594919
 20
-7654.0425671784396
 30
0.0
 42
0.3816455683987365
  0
VERTEX
  5
5925B
  8
C_P7_LATO_OPPOSTO_ESTERNO
 10
16363.300294491481
 20
-7653.9769246561527
 30
0.0
  0
VERTEX
  5
5925C
  8
C_P7_LATO_OPPOSTO_ESTERNO
 10
16361.48847382169
 20
-7656.1361684485164
 30
0.0
 42
0.3816455683980415
  0
VERTEX
  5
5925D
  8
C_P7_LATO_OPPOSTO_ESTERNO
 10
16361.185970594919
 20
-7654.0425671784396
 30
0.0
  0
VERTEX
  5
5925E
  8
C_P7_LATO_OPPOSTO_ESTERNO
 10
16354.11060172661
 20
-7648.1056277705939
 30
0.0
  0
VERTEX
  5
5925F
  8
C_P7_LATO_OPPOSTO_ESTERNO
 10
16354.11060172661
 20
-7648.1056277705939
 30
0.0
 42
0.6848233923603321
  0
VERTEX
  5
59260
  8
C_P7_LATO_OPPOSTO_ESTERNO
 10
16351.026495029129
 20
-7649.8017264268383
 30
0.0
 42
0.3757905234032481
  0
VERTEX
  5
59261
  8
C_P7_LATO_OPPOSTO_ESTERNO
 10
16374.405863730321
 20
-7670.2626827466502
 30
0.0
  0
VERTEX
  5
59262
  8
C_P7_LATO_OPPOSTO_ESTERNO
 10
16496.191777401538
 20
-7670.2626827466502
 30
0.0
 42
-0.2797252294880506
  0
VERTEX
  5
59263
  8
C_P7_LATO_OPPOSTO_ESTERNO
 10
16510.626637215679
 20
-7679.0237955117191
 30
0.0
 42
0.7848796439674723
  0
VERTEX
  5
59264
  8
C_P7_LATO_OPPOSTO_ESTERNO
 10
16532.493363730318
 20
-7673.6751827466487
 30
0.0
  0
VERTEX
  5
59265
  8
C_P7_LATO_OPPOSTO_ESTERNO
 10
16532.493363730318
 20
-7670.2626827466502
 30
0.0
  0
VERTEX
  5
59266
  8
C_P7_LATO_OPPOSTO_ESTERNO
 10
16800.996898386511
 20
-7670.262682746652
 30
0.0
 42
0.1316524975873522
  0
VERTEX
  5
59267
  8
C_P7_LATO_OPPOSTO_ESTERNO
 10
16803.290648386512
 20
-7669.6480742865124
 30
0.0
  0
VERTEX
  5
59268
  8
C_P7_LATO_OPPOSTO_ESTERNO
 10
16836.199613730321
 20
-7650.6480742865042
 30
0.0
 42
0.5773502691891498
  0
VERTEX
  5
59269
  8
C_P7_LATO_OPPOSTO_ESTERNO
 10
16836.199613730321
 20
-7642.702291206785
 30
0.0
  0
VERTEX
  5
5926A
  8
C_P7_LATO_OPPOSTO_ESTERNO
 10
16803.290648386512
 20
-7623.702291206786
 30
0.0
 42
0.131652497587454
  0
VERTEX
  5
5926B
  8
C_P7_LATO_OPPOSTO_ESTERNO
 10
16800.996898386518
 20
-7623.0876827466464
 30
0.0
  0
VERTEX
  5
5926C
  8
C_P7_LATO_OPPOSTO_ESTERNO
 10
16532.493363730318
 20
-7623.0876827466464
 30
0.0
  0
VERTEX
  5
5926D
  8
C_P7_LATO_OPPOSTO_ESTERNO
 10
16532.493363730318
 20
-7619.675182746646
 30
0.0
 42
0.7848796439678258
  0
VERTEX
  5
5926E
  8
C_P7_LATO_OPPOSTO_ESTERNO
 10
16510.626637215679
 20
-7614.3265699815738
 30
0.0
 42
-0.2797252294881716
  0
VERTEX
  5
5926F
  8
C_P7_LATO_OPPOSTO_ESTERNO
 10
16496.191777401538
 20
-7623.0876827466491
 30
0.0
  0
VERTEX
  5
59270
  8
C_P7_LATO_OPPOSTO_ESTERNO
 10
16374.405863730321
 20
-7623.0876827466491
 30
0.0
 42
0.3757905234033405
  0
VERTEX
  5
59271
  8
C_P7_LATO_OPPOSTO_ESTERNO
 10
16351.026495029129
 20
-7643.5486390664682
 30
0.0
 42
0.6848233923603165
  0
VERTEX
  5
59272
  8
C_P7_LATO_OPPOSTO_ESTERNO
 10
16354.11060172661
 20
-7645.2447377227072
 30
0.0
  0
SEQEND
  5
59273
  8
C_P7_LATO_OPPOSTO_ESTERNO
  0
POLYLINE
  5
58EF0
  8
C_P3_LATO_OPPOSTO
 66
     1
 10
0.0
 20
0.0
 30
0.0
  0
VERTEX
  5
59274
  8
C_P3_LATO_OPPOSTO
 10
16487.765863730321
 20
-7634.5751827466484
 30
0.0
  0
VERTEX
  5
59275
  8
C_P3_LATO_OPPOSTO
 10
16482.685863730319
 20
-7634.5751827466484
 30
0.0
  0
VERTEX
  5
59276
  8
C_P3_LATO_OPPOSTO
 10
16482.685863730319
 20
-7632.3251827466511
 30
0.0
  0
VERTEX
  5
59277
  8
C_P3_LATO_OPPOSTO
 10
16479.15586373031
 20
-7632.3251827466511
 30
0.0
  0
VERTEX
  5
59278
  8
C_P3_LATO_OPPOSTO
 10
16479.15586373031
 20
-7641.112682746656
 30
0.0
  0
VERTEX
  5
59279
  8
C_P3_LATO_OPPOSTO
 10
16472.65586373031
 20
-7641.112682746656
 30
0.0
  0
VERTEX
  5
5927A
  8
C_P3_LATO_OPPOSTO
 10
16472.65586373031
 20
-7632.3251827466511
 30
0.0
  0
VERTEX
  5
5927B
  8
C_P3_LATO_OPPOSTO
 10
16470.155863730321
 20
-7632.3251827466511
 30
0.0
  0
VERTEX
  5
5927C
  8
C_P3_LATO_OPPOSTO
 10
16470.155863730321
 20
-7636.8251827466511
 30
0.0
  0
VERTEX
  5
5927D
  8
C_P3_LATO_OPPOSTO
 10
16469.06586373032
 20
-7636.8251827466511
 30
0.0
  0
VERTEX
  5
5927E
  8
C_P3_LATO_OPPOSTO
 10
16469.06586373032
 20
-7643.8551827466517
 30
0.0
  0
VERTEX
  5
5927F
  8
C_P3_LATO_OPPOSTO
 10
16471.403363730318
 20
-7643.8551827466517
 30
0.0
  0
VERTEX
  5
59280
  8
C_P3_LATO_OPPOSTO
 10
16471.403363730318
 20
-7648.5126827466502
 30
0.0
  0
VERTEX
  5
59281
  8
C_P3_LATO_OPPOSTO
 10
16458.918363730321
 20
-7648.5126827466502
 30
0.0
  0
VERTEX
  5
59282
  8
C_P3_LATO_OPPOSTO
 10
16458.918363730321
 20
-7636.8251827466511
 30
0.0
  0
VERTEX
  5
59283
  8
C_P3_LATO_OPPOSTO
 10
16463.655863730321
 20
-7636.8251827466511
 30
0.0
  0
VERTEX
  5
59284
  8
C_P3_LATO_OPPOSTO
 10
16463.655863730321
 20
-7632.3251827466511
 30
0.0
  0
VERTEX
  5
59285
  8
C_P3_LATO_OPPOSTO
 10
16461.130863730319
 20
-7633.1501827466509
 30
0.0
  0
VERTEX
  5
59286
  8
C_P3_LATO_OPPOSTO
 10
16458.918363730321
 20
-7633.1501827466509
 30
0.0
  0
SEQEND
  5
59287
  8
C_P3_LATO_OPPOSTO
  0
POLYLINE
  5
58EF1
  8
V-P0
 66
     1
 10
0.0
 20
0.0
 30
0.0
  0
VERTEX
  5
59288
  8
V-P0
 10
16780.36354507499
 20
-7476.3519450893609
 30
0.0
  0
VERTEX
  5
59289
  8
V-P0
 10
16772.839101921822
 20
-7497.0251827466527
 30
0.0
  0
VERTEX
  5
5928A
  8
V-P0
 10
16780.36354507499
 20
-7517.6984204039418
 30
0.0
  0
SEQEND
  5
5928B
  8
V-P0
  0
CIRCLE
  5
58EF2
  8
PROFILO
 10
16626.339101921822
 20
-7524.0251827466518
 30
0.0
 40
2.25
  0
CIRCLE
  5
58EF3
  8
C_P7_LATO_OPPOSTO
 10
16626.339101921822
 20
-7524.0251827466518
 30
0.0
 40
0.6625000000003638
  0
POLYLINE
  5
58EF4
  8
C_P3_LATO_OPPOSTO
 66
     1
 10
0.0
 20
0.0
 30
0.0
 70
     1
  0
VERTEX
  5
5928C
  8
C_P3_LATO_OPPOSTO
 10
16629.251601921831
 20
-7525.9376827466522
 30
0.0
  0
VERTEX
  5
5928D
  8
C_P3_LATO_OPPOSTO
 10
16623.426601921819
 20
-7525.9376827466522
 30
0.0
  0
VERTEX
  5
5928E
  8
C_P3_LATO_OPPOSTO
 10
16623.426601921819
 20
-7522.1126827466487
 30
0.0
  0
VERTEX
  5
5928F
  8
C_P3_LATO_OPPOSTO
 10
16629.251601921831
 20
-7522.1126827466524
 30
0.0
  0
SEQEND
  5
59290
  8
C_P3_LATO_OPPOSTO
  0
POLYLINE
  5
58EF5
  8
PROFILO
 66
     1
 10
0.0
 20
0.0
 30
0.0
 70
     1
  0
VERTEX
  5
59291
  8
PROFILO
 10
16629.251601921831
 20
-7527.5251827466518
 30
0.0
  0
VERTEX
  5
59292
  8
PROFILO
 10
16623.426601921819
 20
-7527.5251827466536
 30
0.0
 42
-0.4142135623729967
  0
VERTEX
  5
59293
  8
PROFILO
 10
16621.839101921822
 20
-7525.937682746654
 30
0.0
  0
VERTEX
  5
59294
  8
PROFILO
 10
16621.839101921822
 20
-7522.1126827466478
 30
0.0
 42
-0.4142135623731668
  0
VERTEX
  5
59295
  8
PROFILO
 10
16623.426601921819
 20
-7520.5251827466491
 30
0.0
  0
VERTEX
  5
59296
  8
PROFILO
 10
16629.251601921831
 20
-7520.5251827466491
 30
0.0
 42
-0.4142135623731934
  0
VERTEX
  5
59297
  8
PROFILO
 10
16630.839101921829
 20
-7522.1126827466524
 30
0.0
  0
VERTEX
  5
59298
  8
PROFILO
 10
16630.839101921822
 20
-7525.9376827466522
 30
0.0
 42
-0.4142135623730951
  0
SEQEND
  5
59299
  8
PROFILO
  0
CIRCLE
  5
58EF6
  8
PROFILO
 10
16626.339101921822
 20
-7470.0251827466518
 30
0.0
 40
2.25
  0
CIRCLE
  5
58EF7
  8
C_P7_LATO_OPPOSTO
 10
16626.339101921822
 20
-7470.0251827466518
 30
0.0
 40
0.6625000000003638
  0
POLYLINE
  5
58EF8
  8
C_P3_LATO_OPPOSTO
 66
     1
 10
0.0
 20
0.0
 30
0.0
 70
     1
  0
VERTEX
  5
5929A
  8
C_P3_LATO_OPPOSTO
 10
16629.251601921831
 20
-7471.9376827466522
 30
0.0
  0
VERTEX
  5
5929B
  8
C_P3_LATO_OPPOSTO
 10
16623.426601921819
 20
-7471.9376827466522
 30
0.0
  0
VERTEX
  5
5929C
  8
C_P3_LATO_OPPOSTO
 10
16623.426601921819
 20
-7468.1126827466487
 30
0.0
  0
VERTEX
  5
5929D
  8
C_P3_LATO_OPPOSTO
 10
16629.251601921831
 20
-7468.1126827466514
 30
0.0
  0
SEQEND
  5
5929E
  8
C_P3_LATO_OPPOSTO
  0
POLYLINE
  5
58EF9
  8
PROFILO
 66
     1
 10
0.0
 20
0.0
 30
0.0
 70
     1
  0
VERTEX
  5
5929F
  8
PROFILO
 10
16629.251601921831
 20
-7473.5251827466518
 30
0.0
  0
VERTEX
  5
592A0
  8
PROFILO
 10
16623.426601921819
 20
-7473.5251827466536
 30
0.0
 42
-0.4142135623729967
  0
VERTEX
  5
592A1
  8
PROFILO
 10
16621.839101921822
 20
-7471.9376827466549
 30
0.0
  0
VERTEX
  5
592A2
  8
PROFILO
 10
16621.839101921822
 20
-7468.1126827466487
 30
0.0
 42
-0.4142135623731668
  0
VERTEX
  5
592A3
  8
PROFILO
 10
16623.426601921819
 20
-7466.5251827466473
 30
0.0
  0
VERTEX
  5
592A4
  8
PROFILO
 10
16629.251601921831
 20
-7466.52518274665
 30
0.0
 42
-0.4142135623731934
  0
VERTEX
  5
592A5
  8
PROFILO
 10
16630.839101921829
 20
-7468.1126827466514
 30
0.0
  0
VERTEX
  5
592A6
  8
PROFILO
 10
16630.839101921822
 20
-7471.9376827466522
 30
0.0
 42
-0.4142135623730951
  0
SEQEND
  5
592A7
  8
PROFILO
  0
CIRCLE
  5
58EFA
  8
PROFILO
 10
16772.839101921822
 20
-7497.0251827466527
 30
0.0
 40
5.0
  0
CIRCLE
  5
58EFB
  8
V_P2_LATO_OPPOSTO
 10
16772.839101921822
 20
-7497.0251827466527
 30
0.0
 40
4.5
  0
CIRCLE
  5
58EFC
  8
C_P7_LATO_OPPOSTO
 10
16772.839101921822
 20
-7497.0251827466527
 30
0.0
 40
3.4125000000000001
  0
CIRCLE
  5
58EFD
  8
PROFILO
 10
16784.589101921822
 20
-7497.0251827466527
 30
0.0
 40
2.25
  0
CIRCLE
  5
58EFE
  8
C_P7_LATO_OPPOSTO
 10
16784.589101921822
 20
-7497.0251827466527
 30
0.0
 40
0.6625000000003638
  0
POLYLINE
  5
58EFF
  8
C_P3_LATO_OPPOSTO
 66
     1
 10
0.0
 20
0.0
 30
0.0
 70
     1
  0
VERTEX
  5
592A8
  8
C_P3_LATO_OPPOSTO
 10
16786.501601921831
 20
-7494.1126827466496
 30
0.0
  0
VERTEX
  5
592A9
  8
C_P3_LATO_OPPOSTO
 10
16786.501601921831
 20
-7499.9376827466513
 30
0.0
  0
VERTEX
  5
592AA
  8
C_P3_LATO_OPPOSTO
 10
16782.676601921819
 20
-7499.9376827466513
 30
0.0
  0
VERTEX
  5
592AB
  8
C_P3_LATO_OPPOSTO
 10
16782.676601921819
 20
-7494.1126827466496
 30
0.0
  0
SEQEND
  5
592AC
  8
C_P3_LATO_OPPOSTO
  0
POLYLINE
  5
58F00
  8
PROFILO
 66
     1
 10
0.0
 20
0.0
 30
0.0
 70
     1
  0
VERTEX
  5
592AD
  8
PROFILO
 10
16788.089101921822
 20
-7494.1126827466496
 30
0.0
  0
VERTEX
  5
592AE
  8
PROFILO
 10
16788.089101921829
 20
-7499.9376827466522
 30
0.0
 42
-0.4142135623729967
  0
VERTEX
  5
592AF
  8
PROFILO
 10
16786.501601921831
 20
-7501.5251827466509
 30
0.0
  0
VERTEX
  5
592B0
  8
PROFILO
 10
16782.676601921819
 20
-7501.5251827466509
 30
0.0
 42
-0.4142135623731668
  0
VERTEX
  5
592B1
  8
PROFILO
 10
16781.089101921822
 20
-7499.937682746654
 30
0.0
  0
VERTEX
  5
592B2
  8
PROFILO
 10
16781.089101921822
 20
-7494.112682746646
 30
0.0
 42
-0.4142135623731934
  0
VERTEX
  5
592B3
  8
PROFILO
 10
16782.676601921819
 20
-7492.5251827466464
 30
0.0
  0
VERTEX
  5
592B4
  8
PROFILO
 10
16786.501601921831
 20
-7492.5251827466527
 30
0.0
 42
-0.4142135623730951
  0
SEQEND
  5
592B5
  8
PROFILO
  0
POLYLINE
  5
58F01
  8
PROFILO
 66
     1
 10
0.0
 20
0.0
 30
0.0
 70
     1
  0
VERTEX
  5
592B6
  8
PROFILO
 10
16772.839101921829
 20
-7519.0251827466536
 30
0.0
  0
VERTEX
  5
592B7
  8
PROFILO
 10
16651.053188250611
 20
-7519.0251827466518
 30
0.0
 42
0.2797252294881704
  0
VERTEX
  5
592B8
  8
PROFILO
 10
16635.210063315259
 20
-7528.6410297931034
 30
0.0
 42
-0.7848796439678036
  0
VERTEX
  5
592B9
  8
PROFILO
 10
16616.339101921822
 20
-7524.0251827466554
 30
0.0
  0
VERTEX
  5
592BA
  8
PROFILO
 10
16616.339101921829
 20
-7470.0251827466518
 30
0.0
 42
-0.7848796439676905
  0
VERTEX
  5
592BB
  8
PROFILO
 10
16635.210063315259
 20
-7465.4093357002048
 30
0.0
 42
0.2797252294880603
  0
VERTEX
  5
592BC
  8
PROFILO
 10
16651.053188250611
 20
-7475.02518274665
 30
0.0
  0
VERTEX
  5
592BD
  8
PROFILO
 10
16772.839101921822
 20
-7475.02518274665
 30
0.0
 42
-0.9999999999999998
  0
SEQEND
  5
592BE
  8
PROFILO
  0
POLYLINE
  5
58F02
  8
C_P7_LATO_OPPOSTO_ESTERNO
 66
     1
 10
0.0
 20
0.0
 30
0.0
 70
     1
  0
VERTEX
  5
592BF
  8
C_P7_LATO_OPPOSTO_ESTERNO
 10
16772.839101921829
 20
-7520.6126827466533
 30
0.0
  0
VERTEX
  5
592C0
  8
C_P7_LATO_OPPOSTO_ESTERNO
 10
16651.053188250611
 20
-7520.6126827466514
 30
0.0
 42
0.2797252294881715
  0
VERTEX
  5
592C1
  8
C_P7_LATO_OPPOSTO_ESTERNO
 10
16636.61832843646
 20
-7529.3737955117267
 30
0.0
 42
-0.7848796439678293
  0
VERTEX
  5
592C2
  8
C_P7_LATO_OPPOSTO_ESTERNO
 10
16614.751601921831
 20
-7524.0251827466554
 30
0.0
  0
VERTEX
  5
592C3
  8
C_P7_LATO_OPPOSTO_ESTERNO
 10
16614.751601921831
 20
-7470.0251827466518
 30
0.0
 42
-0.7848796439674693
  0
VERTEX
  5
592C4
  8
C_P7_LATO_OPPOSTO_ESTERNO
 10
16636.61832843646
 20
-7464.6765699815815
 30
0.0
 42
0.2797252294880506
  0
VERTEX
  5
592C5
  8
C_P7_LATO_OPPOSTO_ESTERNO
 10
16651.053188250611
 20
-7473.4376827466504
 30
0.0
  0
VERTEX
  5
592C6
  8
C_P7_LATO_OPPOSTO_ESTERNO
 10
16772.839101921822
 20
-7473.4376827466504
 30
0.0
 42
-1.0
  0
SEQEND
  5
592C7
  8
C_P7_LATO_OPPOSTO_ESTERNO
  0
POLYLINE
  5
58F03
  8
V_P2_LATO_OPPOSTO
 66
     1
 10
0.0
 20
0.0
 30
0.0
 70
     1
  0
VERTEX
  5
592C8
  8
V_P2_LATO_OPPOSTO
 10
16772.839101921829
 20
-7519.5251827466536
 30
0.0
  0
VERTEX
  5
592C9
  8
V_P2_LATO_OPPOSTO
 10
16651.053188250611
 20
-7519.5251827466518
 30
0.0
 42
0.2797252294881667
  0
VERTEX
  5
592CA
  8
V_P2_LATO_OPPOSTO
 10
16635.653611384929
 20
-7528.8718221454246
 30
0.0
 42
-0.784879643967842
  0
VERTEX
  5
592CB
  8
V_P2_LATO_OPPOSTO
 10
16615.839101921822
 20
-7524.0251827466554
 30
0.0
  0
VERTEX
  5
592CC
  8
V_P2_LATO_OPPOSTO
 10
16615.839101921829
 20
-7470.0251827466518
 30
0.0
 42
-0.7848796439677308
  0
VERTEX
  5
592CD
  8
V_P2_LATO_OPPOSTO
 10
16635.653611384929
 20
-7465.1785433478817
 30
0.0
 42
0.2797252294880535
  0
VERTEX
  5
592CE
  8
V_P2_LATO_OPPOSTO
 10
16651.053188250611
 20
-7474.52518274665
 30
0.0
  0
VERTEX
  5
592CF
  8
V_P2_LATO_OPPOSTO
 10
16772.839101921822
 20
-7474.52518274665
 30
0.0
 42
-1.0
  0
SEQEND
  5
592D0
  8
V_P2_LATO_OPPOSTO
  0
CIRCLE
  5
58F04
  8
PROFILO
 10
16649.619101921831
 20
-7509.7751827466518
 30
0.0
 40
2.25
  0
CIRCLE
  5
58F05
  8
C_P7_LATO_OPPOSTO
 10
16649.619101921831
 20
-7509.7751827466518
 30
0.0
 40
0.6625000000003638
  0
POLYLINE
  5
58F06
  8
C_P3_LATO_OPPOSTO
 66
     1
 10
0.0
 20
0.0
 30
0.0
 70
     1
  0
VERTEX
  5
592D1
  8
C_P3_LATO_OPPOSTO
 10
16651.53160192183
 20
-7506.8626827466533
 30
0.0
  0
VERTEX
  5
592D2
  8
C_P3_LATO_OPPOSTO
 10
16651.53160192183
 20
-7512.6876827466549
 30
0.0
  0
VERTEX
  5
592D3
  8
C_P3_LATO_OPPOSTO
 10
16647.706601921829
 20
-7512.6876827466504
 30
0.0
  0
VERTEX
  5
592D4
  8
C_P3_LATO_OPPOSTO
 10
16647.706601921829
 20
-7506.8626827466533
 30
0.0
  0
SEQEND
  5
592D5
  8
C_P3_LATO_OPPOSTO
  0
POLYLINE
  5
58F07
  8
PROFILO
 66
     1
 10
0.0
 20
0.0
 30
0.0
 70
     1
  0
VERTEX
  5
592D6
  8
PROFILO
 10
16653.119101921831
 20
-7506.8626827466496
 30
0.0
  0
VERTEX
  5
592D7
  8
PROFILO
 10
16653.119101921831
 20
-7512.6876827466549
 30
0.0
 42
-0.4142135623729967
  0
VERTEX
  5
592D8
  8
PROFILO
 10
16651.53160192183
 20
-7514.2751827466554
 30
0.0
  0
VERTEX
  5
592D9
  8
PROFILO
 10
16647.706601921818
 20
-7514.2751827466518
 30
0.0
 42
-0.4142135623731668
  0
VERTEX
  5
592DA
  8
PROFILO
 10
16646.11910192182
 20
-7512.6876827466567
 30
0.0
  0
VERTEX
  5
592DB
  8
PROFILO
 10
16646.119101921831
 20
-7506.862682746646
 30
0.0
 42
-0.4142135623731934
  0
VERTEX
  5
592DC
  8
PROFILO
 10
16647.706601921829
 20
-7505.2751827466482
 30
0.0
  0
VERTEX
  5
592DD
  8
PROFILO
 10
16651.53160192183
 20
-7505.2751827466518
 30
0.0
 42
-0.4142135623730951
  0
SEQEND
  5
592DE
  8
PROFILO
  0
CIRCLE
  5
58F08
  8
PROFILO
 10
16683.209101921831
 20
-7500.5251827466491
 30
0.0
 40
2.25
  0
CIRCLE
  5
58F09
  8
C_P7_LATO_OPPOSTO
 10
16683.209101921831
 20
-7500.5251827466491
 30
0.0
 40
0.6625000000003638
  0
POLYLINE
  5
58F0A
  8
C_P3_LATO_OPPOSTO
 66
     1
 10
0.0
 20
0.0
 30
0.0
 70
     1
  0
VERTEX
  5
592DF
  8
C_P3_LATO_OPPOSTO
 10
16686.12160192183
 20
-7502.4376827466513
 30
0.0
  0
VERTEX
  5
592E0
  8
C_P3_LATO_OPPOSTO
 10
16680.296601921829
 20
-7502.4376827466513
 30
0.0
  0
VERTEX
  5
592E1
  8
C_P3_LATO_OPPOSTO
 10
16680.296601921829
 20
-7498.6126827466478
 30
0.0
  0
VERTEX
  5
592E2
  8
C_P3_LATO_OPPOSTO
 10
16686.12160192183
 20
-7498.6126827466487
 30
0.0
  0
SEQEND
  5
592E3
  8
C_P3_LATO_OPPOSTO
  0
POLYLINE
  5
58F0B
  8
PROFILO
 66
     1
 10
0.0
 20
0.0
 30
0.0
 70
     1
  0
VERTEX
  5
592E4
  8
PROFILO
 10
16686.12160192183
 20
-7504.0251827466509
 30
0.0
  0
VERTEX
  5
592E5
  8
PROFILO
 10
16680.296601921829
 20
-7504.0251827466509
 30
0.0
 42
-0.4142135623729967
  0
VERTEX
  5
592E6
  8
PROFILO
 10
16678.709101921831
 20
-7502.4376827466522
 30
0.0
  0
VERTEX
  5
592E7
  8
PROFILO
 10
16678.709101921831
 20
-7498.612682746646
 30
0.0
 42
-0.4142135623731668
  0
VERTEX
  5
592E8
  8
PROFILO
 10
16680.296601921829
 20
-7497.0251827466464
 30
0.0
  0
VERTEX
  5
592E9
  8
PROFILO
 10
16686.12160192183
 20
-7497.0251827466482
 30
0.0
 42
-0.4142135623731934
  0
VERTEX
  5
592EA
  8
PROFILO
 10
16687.709101921831
 20
-7498.6126827466487
 30
0.0
  0
VERTEX
  5
592EB
  8
PROFILO
 10
16687.709101921831
 20
-7502.4376827466513
 30
0.0
 42
-0.4142135623730951
  0
SEQEND
  5
592EC
  8
PROFILO
  0
CIRCLE
  5
58F0C
  8
PROFILO
 10
16680.339101921829
 20
-7509.1251827466522
 30
0.0
 40
2.0
  0
CIRCLE
  5
58F0D
  8
C_P7_LATO_OPPOSTO
 10
16680.339101921829
 20
-7509.1251827466522
 30
0.0
 40
0.4125000000000001
  0
CIRCLE
  5
58F0E
  8
PROFILO
 10
16671.339101921829
 20
-7509.1251827466522
 30
0.0
 40
2.0
  0
CIRCLE
  5
58F0F
  8
C_P7_LATO_OPPOSTO
 10
16671.339101921829
 20
-7509.1251827466522
 30
0.0
 40
0.4125000000000001
  0
LINE
  5
58F10
  8
PROFILO
 10
16679.939101921831
 20
-7505.7251827466534
 30
0.0
 11
16674.73910192183
 21
-7505.7251827466534
 31
0.0
  0
POLYLINE
  5
58F11
  8
PROFILO
 66
     1
 10
0.0
 20
0.0
 30
0.0
 70
     1
  0
VERTEX
  5
592ED
  8
PROFILO
 10
16668.990923258851
 20
-7505.1895040836698
 30
0.0
  0
VERTEX
  5
592EE
  8
PROFILO
 10
16682.687280584811
 20
-7505.1895040836698
 30
0.0
 42
-0.4142135623730951
  0
VERTEX
  5
592EF
  8
PROFILO
 10
16684.274780584808
 20
-7506.7770040836695
 30
0.0
  0
VERTEX
  5
592F0
  8
PROFILO
 10
16684.274780584808
 20
-7511.4733614096358
 30
0.0
 42
-0.4142135623730951
  0
VERTEX
  5
592F1
  8
PROFILO
 10
16682.687280584822
 20
-7513.0608614096363
 30
0.0
  0
VERTEX
  5
592F2
  8
PROFILO
 10
16668.990923258851
 20
-7513.0608614096363
 30
0.0
 42
-0.4142135623730951
  0
VERTEX
  5
592F3
  8
PROFILO
 10
16667.403423258838
 20
-7511.4733614096358
 30
0.0
  0
VERTEX
  5
592F4
  8
PROFILO
 10
16667.403423258838
 20
-7506.7770040836695
 30
0.0
 42
-0.4142135623730951
  0
SEQEND
  5
592F5
  8
PROFILO
  0
POLYLINE
  5
58F12
  8
C-P4
 66
     1
 10
0.0
 20
0.0
 30
0.0
  0
VERTEX
  5
592F6
  8
C-P4
 10
16682.687280584811
 20
-7511.4733614096358
 30
0.0
  0
VERTEX
  5
592F7
  8
C-P4
 10
16668.990923258851
 20
-7511.4733614096358
 30
0.0
  0
VERTEX
  5
592F8
  8
C-P4
 10
16668.990923258851
 20
-7509.4733614096358
 30
0.0
  0
VERTEX
  5
592F9
  8
C-P4
 10
16682.687280584811
 20
-7509.4733614096358
 30
0.0
  0
VERTEX
  5
592FA
  8
C-P4
 10
16682.687280584811
 20
-7507.4733614096358
 30
0.0
  0
VERTEX
  5
592FB
  8
C-P4
 10
16668.990923258851
 20
-7507.4733614096358
 30
0.0
  0
VERTEX
  5
592FC
  8
C-P4
 10
16668.990923258851
 20
-7506.7770040836695
 30
0.0
  0
VERTEX
  5
592FD
  8
C-P4
 10
16682.687280584811
 20
-7506.7770040836695
 30
0.0
  0
VERTEX
  5
592FE
  8
C-P4
 10
16682.687280584811
 20
-7511.4733614096358
 30
0.0
  0
VERTEX
  5
592FF
  8
C-P4
 10
16668.990923258851
 20
-7511.4733614096358
 30
0.0
  0
VERTEX
  5
59300
  8
C-P4
 10
16668.990923258851
 20
-7506.7770040836695
 30
0.0
  0
SEQEND
  5
59301
  8
C-P4
  0
POLYLINE
  5
58F13
  8
PROFILO
 66
     1
 10
0.0
 20
0.0
 30
0.0
 70
     1
  0
VERTEX
  5
59302
  8
PROFILO
 10
16676.47818923158
 20
-7492.02518274665
 30
0.0
 42
0.4142135623730951
  0
VERTEX
  5
59303
  8
PROFILO
 10
16678.065689231571
 20
-7493.6126827466496
 30
0.0
  0
VERTEX
  5
59304
  8
PROFILO
 10
16679.712514612071
 20
-7493.6126827466496
 30
0.0
 42
0.4142135623730951
  0
VERTEX
  5
59305
  8
PROFILO
 10
16681.300014612068
 20
-7492.02518274665
 30
0.0
  0
VERTEX
  5
59306
  8
PROFILO
 10
16681.300014612068
 20
-7487.6126827466487
 30
0.0
  0
VERTEX
  5
59307
  8
PROFILO
 10
16682.551601921819
 20
-7487.6126827466487
 30
0.0
  0
VERTEX
  5
59308
  8
PROFILO
 10
16682.551601921819
 20
-7489.0909946781094
 30
0.0
 42
0.4142135623730951
  0
VERTEX
  5
59309
  8
PROFILO
 10
16684.139101921832
 20
-7490.678494678109
 30
0.0
  0
VERTEX
  5
5930A
  8
PROFILO
 10
16757.139101921832
 20
-7490.678494678109
 30
0.0
 42
0.4142135623730951
  0
VERTEX
  5
5930B
  8
PROFILO
 10
16758.726601921819
 20
-7489.0909946781094
 30
0.0
  0
VERTEX
  5
5930C
  8
PROFILO
 10
16758.726601921819
 20
-7483.9593708151906
 30
0.0
 42
0.4142135623730951
  0
VERTEX
  5
5930D
  8
PROFILO
 10
16757.139101921832
 20
-7482.3718708151919
 30
0.0
  0
VERTEX
  5
5930E
  8
PROFILO
 10
16684.139101921832
 20
-7482.3718708151919
 30
0.0
 42
0.4142135623730951
  0
VERTEX
  5
5930F
  8
PROFILO
 10
16682.551601921819
 20
-7483.9593708151906
 30
0.0
  0
VERTEX
  5
59310
  8
PROFILO
 10
16682.551601921819
 20
-7484.4376827466504
 30
0.0
  0
VERTEX
  5
59311
  8
PROFILO
 10
16681.300014612068
 20
-7484.4376827466504
 30
0.0
  0
VERTEX
  5
59312
  8
PROFILO
 10
16681.300014612068
 20
-7480.02518274665
 30
0.0
 42
0.4142135623730951
  0
VERTEX
  5
59313
  8
PROFILO
 10
16679.712514612071
 20
-7478.4376827466504
 30
0.0
  0
VERTEX
  5
59314
  8
PROFILO
 10
16678.065689231571
 20
-7478.4376827466504
 30
0.0
 42
0.4142135623730951
  0
VERTEX
  5
59315
  8
PROFILO
 10
16676.47818923158
 20
-7480.02518274665
 30
0.0
  0
SEQEND
  5
59316
  8
PROFILO
  0
POLYLINE
  5
58F14
  8
C-P35
 66
     1
 10
0.0
 20
0.0
 30
0.0
  0
VERTEX
  5
59317
  8
C-P35
 10
16679.712514612071
 20
-7486.02518274665
 30
0.0
  0
VERTEX
  5
59318
  8
C-P35
 10
16679.712514612071
 20
-7492.02518274665
 30
0.0
  0
VERTEX
  5
59319
  8
C-P35
 10
16678.065689231571
 20
-7492.02518274665
 30
0.0
  0
VERTEX
  5
5931A
  8
C-P35
 10
16678.065689231571
 20
-7480.02518274665
 30
0.0
  0
VERTEX
  5
5931B
  8
C-P35
 10
16679.712514612071
 20
-7480.02518274665
 30
0.0
  0
VERTEX
  5
5931C
  8
C-P35
 10
16679.712514612071
 20
-7486.02518274665
 30
0.0
  0
VERTEX
  5
5931D
  8
C-P35
 10
16684.139101921832
 20
-7486.02518274665
 30
0.0
  0
VERTEX
  5
5931E
  8
C-P35
 10
16684.139101921832
 20
-7486.5251827466509
 30
0.0
  0
VERTEX
  5
5931F
  8
C-P35
 10
16757.139101921832
 20
-7486.5251827466509
 30
0.0
  0
VERTEX
  5
59320
  8
C-P35
 10
16757.139101921832
 20
-7489.0909946781094
 30
0.0
  0
VERTEX
  5
59321
  8
C-P35
 10
16684.139101921832
 20
-7489.0909946781094
 30
0.0
  0
VERTEX
  5
59322
  8
C-P35
 10
16684.139101921832
 20
-7483.9593708151906
 30
0.0
  0
VERTEX
  5
59323
  8
C-P35
 10
16757.139101921832
 20
-7483.9593708151906
 30
0.0
  0
VERTEX
  5
59324
  8
C-P35
 10
16757.139101921832
 20
-7486.5251827466509
 30
0.0
  0
SEQEND
  5
59325
  8
C-P35
  0
POLYLINE
  5
58F15
  8
PROFILO
 66
     1
 10
0.0
 20
0.0
 30
0.0
 70
     1
  0
VERTEX
  5
59326
  8
PROFILO
 10
16682.32603369304
 20
-7487.6126827466487
 30
0.0
  0
VERTEX
  5
59327
  8
PROFILO
 10
16682.551601921819
 20
-7487.6126827466487
 30
0.0
  0
VERTEX
  5
59328
  8
PROFILO
 10
16682.551601921819
 20
-7490.0611581296307
 30
0.0
 42
0.4142135623730951
  0
VERTEX
  5
59329
  8
PROFILO
 10
16684.139101921832
 20
-7491.6486581296303
 30
0.0
  0
VERTEX
  5
5932A
  8
PROFILO
 10
16757.139101921832
 20
-7491.6486581296303
 30
0.0
 42
0.4142135623730951
  0
VERTEX
  5
5932B
  8
PROFILO
 10
16758.726601921819
 20
-7490.0611581296307
 30
0.0
  0
VERTEX
  5
5932C
  8
PROFILO
 10
16758.726601921819
 20
-7482.9892073636702
 30
0.0
 42
0.4142135623730951
  0
VERTEX
  5
5932D
  8
PROFILO
 10
16757.139101921832
 20
-7481.4017073636696
 30
0.0
  0
VERTEX
  5
5932E
  8
PROFILO
 10
16684.139101921832
 20
-7481.4017073636696
 30
0.0
 42
0.4142135623730951
  0
VERTEX
  5
5932F
  8
PROFILO
 10
16682.551601921819
 20
-7482.9892073636702
 30
0.0
  0
VERTEX
  5
59330
  8
PROFILO
 10
16682.551601921819
 20
-7484.4376827466504
 30
0.0
  0
VERTEX
  5
59331
  8
PROFILO
 10
16682.32603369304
 20
-7484.4376827466504
 30
0.0
  0
VERTEX
  5
59332
  8
PROFILO
 10
16682.32603369304
 20
-7480.02518274665
 30
0.0
 42
0.4142135623730951
  0
VERTEX
  5
59333
  8
PROFILO
 10
16680.738533693038
 20
-7478.4376827466504
 30
0.0
  0
VERTEX
  5
59334
  8
PROFILO
 10
16677.039670150611
 20
-7478.4376827466504
 30
0.0
 42
0.4142135623730951
  0
VERTEX
  5
59335
  8
PROFILO
 10
16675.452170150609
 20
-7480.02518274665
 30
0.0
  0
VERTEX
  5
59336
  8
PROFILO
 10
16675.452170150609
 20
-7492.02518274665
 30
0.0
 42
0.4142135623730951
  0
VERTEX
  5
59337
  8
PROFILO
 10
16677.039670150611
 20
-7493.6126827466496
 30
0.0
  0
VERTEX
  5
59338
  8
PROFILO
 10
16680.738533693038
 20
-7493.6126827466496
 30
0.0
 42
0.4142135623724238
  0
VERTEX
  5
59339
  8
PROFILO
 10
16682.32603369304
 20
-7492.02518274665
 30
0.0
  0
SEQEND
  5
5933A
  8
PROFILO
  0
POLYLINE
  5
58F16
  8
C-P2
 66
     1
 10
0.0
 20
0.0
 30
0.0
  0
VERTEX
  5
5933B
  8
C-P2
 10
16680.738533693038
 20
-7486.02518274665
 30
0.0
  0
VERTEX
  5
5933C
  8
C-P2
 10
16680.738533693038
 20
-7480.02518274665
 30
0.0
  0
VERTEX
  5
5933D
  8
C-P2
 10
16677.039670150611
 20
-7480.02518274665
 30
0.0
  0
VERTEX
  5
5933E
  8
C-P2
 10
16677.039670150611
 20
-7492.02518274665
 30
0.0
  0
VERTEX
  5
5933F
  8
C-P2
 10
16680.738533693038
 20
-7492.02518274665
 30
0.0
  0
VERTEX
  5
59340
  8
C-P2
 10
16680.738533693038
 20
-7486.02518274665
 30
0.0
  0
VERTEX
  5
59341
  8
C-P2
 10
16684.139101921832
 20
-7486.02518274665
 30
0.0
  0
VERTEX
  5
59342
  8
C-P2
 10
16684.139101921832
 20
-7490.0611581296307
 30
0.0
  0
VERTEX
  5
59343
  8
C-P2
 10
16757.139101921832
 20
-7490.0611581296307
 30
0.0
  0
VERTEX
  5
59344
  8
C-P2
 10
16757.139101921832
 20
-7482.9892073636702
 30
0.0
  0
VERTEX
  5
59345
  8
C-P2
 10
16684.139101921832
 20
-7482.9892073636702
 30
0.0
  0
VERTEX
  5
59346
  8
C-P2
 10
16684.139101921832
 20
-7486.02518274665
 30
0.0
  0
SEQEND
  5
59347
  8
C-P2
  0
POLYLINE
  5
58F17
  8
PROFILO
 66
     1
 10
0.0
 20
0.0
 30
0.0
 70
     1
  0
VERTEX
  5
59348
  8
PROFILO
 10
16681.278095351969
 20
-7478.4376827466504
 30
0.0
  0
VERTEX
  5
59349
  8
PROFILO
 10
16676.50010849168
 20
-7478.4376827466504
 30
0.0
 42
0.4142135623727595
  0
VERTEX
  5
5934A
  8
PROFILO
 10
16674.912608491679
 20
-7480.02518274665
 30
0.0
  0
VERTEX
  5
5934B
  8
PROFILO
 10
16674.912608491679
 20
-7492.02518274665
 30
0.0
 42
0.4142135623724239
  0
VERTEX
  5
5934C
  8
PROFILO
 10
16676.50010849168
 20
-7493.6126827466496
 30
0.0
  0
VERTEX
  5
5934D
  8
PROFILO
 10
16681.278095351969
 20
-7493.6126827466478
 30
0.0
 42
0.4142135623724238
  0
VERTEX
  5
5934E
  8
PROFILO
 10
16682.86559535197
 20
-7492.02518274665
 30
0.0
  0
VERTEX
  5
5934F
  8
PROFILO
 10
16682.86559535197
 20
-7492.2914640439858
 30
0.0
  0
VERTEX
  5
59350
  8
PROFILO
 10
16757.139101921832
 20
-7492.2914640439858
 30
0.0
 42
0.4142135623727593
  0
VERTEX
  5
59351
  8
PROFILO
 10
16758.726601921819
 20
-7490.7039640439862
 30
0.0
  0
VERTEX
  5
59352
  8
PROFILO
 10
16758.72660192183
 20
-7482.3464014493138
 30
0.0
 42
0.4142135623734306
  0
VERTEX
  5
59353
  8
PROFILO
 10
16757.139101921832
 20
-7480.7589014493142
 30
0.0
  0
VERTEX
  5
59354
  8
PROFILO
 10
16682.86559535197
 20
-7480.7589014493142
 30
0.0
  0
VERTEX
  5
59355
  8
PROFILO
 10
16682.86559535197
 20
-7480.02518274665
 30
0.0
 42
0.4142135623727595
  0
SEQEND
  5
59356
  8
PROFILO
  0
POLYLINE
  5
58F18
  8
C-P1
 66
     1
 10
0.0
 20
0.0
 30
0.0
  0
VERTEX
  5
59357
  8
C-P1
 10
16681.27809535198
 20
-7486.02518274665
 30
0.0
  0
VERTEX
  5
59358
  8
C-P1
 10
16684.139101921832
 20
-7486.02518274665
 30
0.0
  0
VERTEX
  5
59359
  8
C-P1
 10
16684.139101921832
 20
-7490.7039640439862
 30
0.0
  0
VERTEX
  5
5935A
  8
C-P1
 10
16757.139101921821
 20
-7490.7039640439862
 30
0.0
  0
VERTEX
  5
5935B
  8
C-P1
 10
16757.139101921832
 20
-7482.3464014493138
 30
0.0
  0
VERTEX
  5
5935C
  8
C-P1
 10
16684.139101921832
 20
-7482.3464014493138
 30
0.0
  0
VERTEX
  5
5935D
  8
C-P1
 10
16684.139101921832
 20
-7486.02518274665
 30
0.0
  0
VERTEX
  5
5935E
  8
C-P1
 10
16681.27809535198
 20
-7486.02518274665
 30
0.0
  0
VERTEX
  5
5935F
  8
C-P1
 10
16681.278095351969
 20
-7480.02518274665
 30
0.0
  0
VERTEX
  5
59360
  8
C-P1
 10
16676.50010849168
 20
-7480.02518274665
 30
0.0
  0
VERTEX
  5
59361
  8
C-P1
 10
16676.50010849168
 20
-7492.02518274665
 30
0.0
  0
VERTEX
  5
59362
  8
C-P1
 10
16681.278095351969
 20
-7492.0251827466482
 30
0.0
  0
VERTEX
  5
59363
  8
C-P1
 10
16681.27809535198
 20
-7486.02518274665
 30
0.0
  0
SEQEND
  5
59364
  8
C-P1
  0
ARC
  5
58F19
  8
PROFILO
 10
16629.25160192182
 20
-7487.0251827466518
 30
0.0
 40
1.587499999999999
 50
0.0
 51
180.0
  0
ARC
  5
58F1A
  8
PROFILO
 10
16629.25160192182
 20
-7507.0251827466518
 30
0.0
 40
1.587499999999999
 50
180.0
 51
0.0
  0
POLYLINE
  5
58F1B
  8
PROFILO
 66
     1
 10
0.0
 20
0.0
 30
0.0
  0
VERTEX
  5
59365
  8
PROFILO
 10
16627.664101921819
 20
-7507.0251827466518
 30
0.0
  0
VERTEX
  5
59366
  8
PROFILO
 10
16627.664101921819
 20
-7487.0251827466518
 30
0.0
  0
SEQEND
  5
59367
  8
PROFILO
  0
POLYLINE
  5
58F1C
  8
PROFILO
 66
     1
 10
0.0
 20
0.0
 30
0.0
  0
VERTEX
  5
59368
  8
PROFILO
 10
16630.839101921822
 20
-7487.0251827466518
 30
0.0
  0
VERTEX
  5
59369
  8
PROFILO
 10
16630.839101921822
 20
-7507.0251827466518
 30
0.0
  0
SEQEND
  5
5936A
  8
PROFILO
  0
POLYLINE
  5
58F1D
  8
C-P3
 66
     1
 10
0.0
 20
0.0
 30
0.0
  0
VERTEX
  5
5936B
  8
C-P3
 10
16629.25160192182
 20
-7507.0251827466518
 30
0.0
  0
VERTEX
  5
5936C
  8
C-P3
 10
16629.25160192182
 20
-7487.0251827466518
 30
0.0
  0
SEQEND
  5
5936D
  8
C-P3
  0
POLYLINE
  5
58F1E
  8
C-P25
 66
     1
 10
0.0
 20
0.0
 30
0.0
  0
VERTEX
  5
5936E
  8
C-P25
 10
16764.339101921822
 20
-7510.5451827466522
 30
0.0
  0
VERTEX
  5
5936F
  8
C-P25
 10
16764.339101921822
 20
-7495.3051827466516
 30
0.0
  0
VERTEX
  5
59370
  8
C-P25
 10
16764.339101921822
 20
-7504.9651827466514
 30
0.0
  0
VERTEX
  5
59371
  8
C-P25
 10
16761.799101921821
 20
-7504.9651827466514
 30
0.0
  0
VERTEX
  5
59372
  8
C-P25
 10
16761.778746052802
 20
-7495.3051827466516
 30
0.0
  0
VERTEX
  5
59373
  8
C-P25
 10
16760.009101921831
 20
-7495.3051827466516
 30
0.0
  0
VERTEX
  5
59374
  8
C-P25
 10
16760.009101921831
 20
-7508.5051827466523
 30
0.0
  0
VERTEX
  5
59375
  8
C-P25
 10
16760.009101921831
 20
-7495.3051827466516
 30
0.0
  0
VERTEX
  5
59376
  8
C-P25
 10
16758.219101921819
 20
-7495.3051827466516
 30
0.0
  0
VERTEX
  5
59377
  8
C-P25
 10
16758.219101921819
 20
-7504.965182746656
 30
0.0
  0
VERTEX
  5
59378
  8
C-P25
 10
16758.219101921819
 20
-7495.3051827466516
 30
0.0
  0
VERTEX
  5
59379
  8
C-P25
 10
16727.489101921819
 20
-7495.3051827466516
 30
0.0
  0
VERTEX
  5
5937A
  8
C-P25
 10
16736.37910192183
 20
-7495.3051827466516
 30
0.0
  0
VERTEX
  5
5937B
  8
C-P25
 10
16736.37910192183
 20
-7498.3051827466516
 30
0.0
  0
VERTEX
  5
5937C
  8
C-P25
 10
16738.919101921831
 20
-7498.3051827466516
 30
0.0
  0
VERTEX
  5
5937D
  8
C-P25
 10
16738.919101921831
 20
-7495.3051827466516
 30
0.0
  0
VERTEX
  5
5937E
  8
C-P25
 10
16746.539101921819
 20
-7495.3051827466516
 30
0.0
  0
VERTEX
  5
5937F
  8
C-P25
 10
16746.539101921819
 20
-7498.3051827466516
 30
0.0
  0
VERTEX
  5
59380
  8
C-P25
 10
16749.07910192182
 20
-7498.3051827466516
 30
0.0
  0
VERTEX
  5
59381
  8
C-P25
 10
16749.07910192182
 20
-7495.3051827466516
 30
0.0
  0
VERTEX
  5
59382
  8
C-P25
 10
16764.339101921822
 20
-7495.3051827466516
 30
0.0
  0
VERTEX
  5
59383
  8
C-P25
 10
16764.339101921822
 20
-7510.5451827466522
 30
0.0
  0
VERTEX
  5
59384
  8
C-P25
 10
16700.139101921832
 20
-7510.5451827466522
 30
0.0
  0
VERTEX
  5
59385
  8
C-P25
 10
16700.139101921832
 20
-7494.7251827466498
 30
0.0
  0
VERTEX
  5
59386
  8
C-P25
 10
16707.594101921819
 20
-7494.7251827466498
 30
0.0
  0
VERTEX
  5
59387
  8
C-P25
 10
16707.594101921819
 20
-7495.4851827466473
 30
0.0
  0
VERTEX
  5
59388
  8
C-P25
 10
16707.594101921819
 20
-7505.7076827466499
 30
0.0
  0
VERTEX
  5
59389
  8
C-P25
 10
16709.59410192183
 20
-7505.7076827466499
 30
0.0
  0
VERTEX
  5
5938A
  8
C-P25
 10
16709.59410192183
 20
-7500.502682746649
 30
0.0
  0
VERTEX
  5
5938B
  8
C-P25
 10
16711.594101921819
 20
-7500.502682746649
 30
0.0
  0
VERTEX
  5
5938C
  8
C-P25
 10
16711.594101921819
 20
-7505.7076827466499
 30
0.0
  0
VERTEX
  5
5938D
  8
C-P25
 10
16705.59410192183
 20
-7505.7076827466499
 30
0.0
  0
VERTEX
  5
5938E
  8
C-P25
 10
16705.59410192183
 20
-7500.502682746649
 30
0.0
  0
VERTEX
  5
5938F
  8
C-P25
 10
16704.419101921831
 20
-7500.502682746649
 30
0.0
  0
VERTEX
  5
59390
  8
C-P25
 10
16704.419101921831
 20
-7505.7076827466499
 30
0.0
  0
VERTEX
  5
59391
  8
C-P25
 10
16712.03910192183
 20
-7505.7076827466499
 30
0.0
  0
VERTEX
  5
59392
  8
C-P25
 10
16712.03910192183
 20
-7500.502682746649
 30
0.0
  0
VERTEX
  5
59393
  8
C-P25
 10
16705.59410192183
 20
-7500.502682746649
 30
0.0
  0
VERTEX
  5
59394
  8
C-P25
 10
16707.594101921819
 20
-7500.502682746649
 30
0.0
  0
VERTEX
  5
59395
  8
C-P25
 10
16707.594101921819
 20
-7494.7251827466498
 30
0.0
  0
VERTEX
  5
59396
  8
C-P25
 10
16700.139101921832
 20
-7494.7251827466498
 30
0.0
  0
SEQEND
  5
59397
  8
C-P25
  0
POLYLINE
  5
58F1F
  8
C-P25
 66
     1
 10
0.0
 20
0.0
 30
0.0
  0
VERTEX
  5
59398
  8
C-P25
 10
16656.869101921831
 20
-7502.4251827466451
 30
0.0
  0
VERTEX
  5
59399
  8
C-P25
 10
16651.119101921831
 20
-7502.4251827466451
 30
0.0
  0
VERTEX
  5
5939A
  8
C-P25
 10
16651.119101921831
 20
-7496.5751827466493
 30
0.0
  0
VERTEX
  5
5939B
  8
C-P25
 10
16653.669101921831
 20
-7496.5751827466493
 30
0.0
  0
VERTEX
  5
5939C
  8
C-P25
 10
16653.669101921831
 20
-7494.5251827466509
 30
0.0
  0
VERTEX
  5
5939D
  8
C-P25
 10
16653.669101921831
 20
-7496.5751827466493
 30
0.0
  0
VERTEX
  5
5939E
  8
C-P25
 10
16651.119101921831
 20
-7496.5751827466493
 30
0.0
  0
VERTEX
  5
5939F
  8
C-P25
 10
16651.119101921831
 20
-7499.8251827466493
 30
0.0
  0
VERTEX
  5
593A0
  8
C-P25
 10
16648.57910192183
 20
-7499.8251827466493
 30
0.0
  0
VERTEX
  5
593A1
  8
C-P25
 10
16648.57910192183
 20
-7502.3651827466501
 30
0.0
  0
VERTEX
  5
593A2
  8
C-P25
 10
16643.499101921829
 20
-7502.3651827466501
 30
0.0
  0
VERTEX
  5
593A3
  8
C-P25
 10
16643.499101921829
 20
-7496.5751827466493
 30
0.0
  0
VERTEX
  5
593A4
  8
C-P25
 10
16646.049101921832
 20
-7496.5751827466493
 30
0.0
  0
VERTEX
  5
593A5
  8
C-P25
 10
16646.049101921832
 20
-7494.5251827466509
 30
0.0
  0
VERTEX
  5
593A6
  8
C-P25
 10
16646.049101921832
 20
-7496.5751827466493
 30
0.0
  0
VERTEX
  5
593A7
  8
C-P25
 10
16643.499101921829
 20
-7496.5751827466493
 30
0.0
  0
VERTEX
  5
593A8
  8
C-P25
 10
16643.499101921829
 20
-7499.8251827466493
 30
0.0
  0
VERTEX
  5
593A9
  8
C-P25
 10
16640.959101921831
 20
-7499.8251827466493
 30
0.0
  0
VERTEX
  5
593AA
  8
C-P25
 10
16640.959101921831
 20
-7502.3651827466501
 30
0.0
  0
VERTEX
  5
593AB
  8
C-P25
 10
16635.879101921819
 20
-7502.3651827466501
 30
0.0
  0
VERTEX
  5
593AC
  8
C-P25
 10
16635.879101921819
 20
-7496.5751827466493
 30
0.0
  0
VERTEX
  5
593AD
  8
C-P25
 10
16638.429101921822
 20
-7496.5751827466493
 30
0.0
  0
VERTEX
  5
593AE
  8
C-P25
 10
16638.429101921822
 20
-7494.5251827466509
 30
0.0
  0
VERTEX
  5
593AF
  8
C-P25
 10
16638.429101921822
 20
-7496.5751827466493
 30
0.0
  0
VERTEX
  5
593B0
  8
C-P25
 10
16635.879101921819
 20
-7496.5751827466493
 30
0.0
  0
VERTEX
  5
593B1
  8
C-P25
 10
16635.879101921819
 20
-7499.8251827466493
 30
0.0
  0
VERTEX
  5
593B2
  8
C-P25
 10
16633.339101921822
 20
-7499.8251827466493
 30
0.0
  0
VERTEX
  5
593B3
  8
C-P25
 10
16633.339101921822
 20
-7507.230182746649
 30
0.0
  0
VERTEX
  5
593B4
  8
C-P25
 10
16635.879101921819
 20
-7507.230182746649
 30
0.0
  0
SEQEND
  5
593B5
  8
C-P25
  0
POLYLINE
  5
58F20
  8
PROFILO
 66
     1
 10
0.0
 20
0.0
 30
0.0
 70
     1
  0
VERTEX
  5
593B6
  8
PROFILO
 10
16666.183843728209
 20
-7507.5376827466534
 30
0.0
  0
VERTEX
  5
593B7
  8
PROFILO
 10
16657.854360115442
 20
-7507.5376827466534
 30
0.0
 42
0.9999999999999998
  0
VERTEX
  5
593B8
  8
PROFILO
 10
16657.854360115442
 20
-7510.7126827466509
 30
0.0
  0
VERTEX
  5
593B9
  8
PROFILO
 10
16666.183843728209
 20
-7510.7126827466509
 30
0.0
 42
0.9999999999999998
  0
SEQEND
  5
593BA
  8
PROFILO
  0
POLYLINE
  5
58F21
  8
PROFILO
 66
     1
 10
0.0
 20
0.0
 30
0.0
 70
     1
  0
VERTEX
  5
593BB
  8
PROFILO
 10
16666.183843728209
 20
-7507.125182746654
 30
0.0
  0
VERTEX
  5
593BC
  8
PROFILO
 10
16657.854360115442
 20
-7507.125182746654
 30
0.0
 42
1.0
  0
VERTEX
  5
593BD
  8
PROFILO
 10
16657.854360115442
 20
-7511.1251827466504
 30
0.0
  0
VERTEX
  5
593BE
  8
PROFILO
 10
16666.183843728209
 20
-7511.1251827466504
 30
0.0
 42
1.0
  0
SEQEND
  5
593BF
  8
PROFILO
  0
LINE
  5
58F22
  8
C_P7_LATO_OPPOSTO
 10
16666.183843728209
 20
-7509.1251827466522
 30
0.0
 11
16657.854360115442
 21
-7509.1251827466522
 31
0.0
  0
POLYLINE
  5
58F23
  8
C-P15
 66
     1
 10
0.0
 20
0.0
 30
0.0
  0
VERTEX
  5
593C0
  8
C-P15
 10
16672.109101921818
 20
-7502.4251827466451
 30
0.0
  0
VERTEX
  5
593C1
  8
C-P15
 10
16675.639101921832
 20
-7502.4251827466451
 30
0.0
  0
VERTEX
  5
593C2
  8
C-P15
 10
16675.639101921832
 20
-7499.8451827466479
 30
0.0
  0
VERTEX
  5
593C3
  8
C-P15
 10
16678.179101921829
 20
-7499.8451827466479
 30
0.0
  0
VERTEX
  5
593C4
  8
C-P15
 10
16675.639101921832
 20
-7499.8451827466479
 30
0.0
  0
VERTEX
  5
593C5
  8
C-P15
 10
16675.639101921832
 20
-7494.7251827466498
 30
0.0
  0
VERTEX
  5
593C6
  8
C-P15
 10
16691.639101921832
 20
-7494.7251827466498
 30
0.0
  0
VERTEX
  5
593C7
  8
C-P15
 10
16691.639101921832
 20
-7509.7251827466507
 30
0.0
  0
VERTEX
  5
593C8
  8
C-P15
 10
16686.11410192183
 20
-7509.7251827466507
 30
0.0
  0
VERTEX
  5
593C9
  8
C-P15
 10
16686.11410192183
 20
-7510.5501827466496
 30
0.0
  0
VERTEX
  5
593CA
  8
C-P15
 10
16683.589101921829
 20
-7510.5501827466496
 30
0.0
  0
VERTEX
  5
593CB
  8
C-P15
 10
16683.589101921829
 20
-7511.3751827466504
 30
0.0
  0
VERTEX
  5
593CC
  8
C-P15
 10
16683.589101921829
 20
-7506.8751827466504
 30
0.0
  0
VERTEX
  5
593CD
  8
C-P15
 10
16668.089101921829
 20
-7506.8751827466504
 30
0.0
  0
VERTEX
  5
593CE
  8
C-P15
 10
16668.089101921829
 20
-7511.3751827466504
 30
0.0
  0
VERTEX
  5
593CF
  8
C-P15
 10
16668.089101921829
 20
-7509.1251827466504
 30
0.0
  0
VERTEX
  5
593D0
  8
C-P15
 10
16664.55910192183
 20
-7509.1251827466522
 30
0.0
  0
VERTEX
  5
593D1
  8
C-P15
 10
16664.55910192183
 20
-7511.3751827466504
 30
0.0
  0
SEQEND
  5
593D2
  8
C-P15
  0
LINE
  5
58F24
  8
PROFILO
 10
16627.664101921819
 20
-7497.0251827466527
 30
0.0
 11
16599.928085189429
 21
-7497.0251827466527
 31
0.0
  0
POLYLINE
  5
58F25
  8
PROFILO
 66
     1
 10
0.0
 20
0.0
 30
0.0
  0
VERTEX
  5
593D3
  8
PROFILO
 10
16627.664101921819
 20
-7490.0251827466518
 30
0.0
  0
VERTEX
  5
593D4
  8
PROFILO
 10
16622.251601921831
 20
-7490.0251827466518
 30
0.0
 42
0.4142135623730951
  0
VERTEX
  5
593D5
  8
PROFILO
 10
16620.664101921819
 20
-7491.6126827466524
 30
0.0
  0
VERTEX
  5
593D6
  8
PROFILO
 10
16620.664101921819
 20
-7502.4376827466522
 30
0.0
 42
0.4142135623730951
  0
VERTEX
  5
593D7
  8
PROFILO
 10
16622.25160192182
 20
-7504.0251827466509
 30
0.0
  0
VERTEX
  5
593D8
  8
PROFILO
 10
16627.664101921819
 20
-7504.0251827466509
 30
0.0
  0
SEQEND
  5
593D9
  8
PROFILO
  0
POLYLINE
  5
58F26
  8
C-P15
 66
     1
 10
0.0
 20
0.0
 30
0.0
  0
VERTEX
  5
593DA
  8
C-P15
 10
16627.664101921819
 20
-7491.6126827466524
 30
0.0
  0
VERTEX
  5
593DB
  8
C-P15
 10
16622.251601921831
 20
-7491.6126827466524
 30
0.0
  0
VERTEX
  5
593DC
  8
C-P15
 10
16622.25160192182
 20
-7502.4376827466522
 30
0.0
  0
VERTEX
  5
593DD
  8
C-P15
 10
16627.664101921819
 20
-7502.4376827466522
 30
0.0
  0
VERTEX
  5
593DE
  8
C-P15
 10
16627.664101921819
 20
-7491.6126827466524
 30
0.0
  0
VERTEX
  5
593DF
  8
C-P15
 10
16625.664101921819
 20
-7491.6126827466524
 30
0.0
  0
VERTEX
  5
593E0
  8
C-P15
 10
16625.664101921819
 20
-7502.4376827466522
 30
0.0
  0
VERTEX
  5
593E1
  8
C-P15
 10
16623.664101921819
 20
-7502.4376827466522
 30
0.0
  0
VERTEX
  5
593E2
  8
C-P15
 10
16623.664101921819
 20
-7491.6126827466524
 30
0.0
  0
SEQEND
  5
593E3
  8
C-P15
  0
POLYLINE
  5
58F27
  8
V_P2_LATO_OPPOSTO
 66
     1
 10
0.0
 20
0.0
 30
0.0
  0
VERTEX
  5
593E4
  8
V_P2_LATO_OPPOSTO
 10
16666.183843728209
 20
-7509.1251827466522
 30
0.0
  0
VERTEX
  5
593E5
  8
V_P2_LATO_OPPOSTO
 10
16657.854360115442
 20
-7509.1251827466522
 30
0.0
  0
SEQEND
  5
593E6
  8
V_P2_LATO_OPPOSTO
  0
POLYLINE
  5
58F28
  8
V-P0
 66
     1
 10
0.0
 20
0.0
 30
0.0
  0
VERTEX
  5
593E7
  8
V-P0
 10
16516.621783266499
 20
-7476.3519450893609
 30
0.0
  0
VERTEX
  5
593E8
  8
V-P0
 10
16509.097340113331
 20
-7497.0251827466527
 30
0.0
  0
VERTEX
  5
593E9
  8
V-P0
 10
16516.621783266499
 20
-7517.6984204039418
 30
0.0
  0
SEQEND
  5
593EA
  8
V-P0
  0
CIRCLE
  5
58F29
  8
PROFILO
 10
16362.597340113331
 20
-7524.0251827466518
 30
0.0
 40
2.25
  0
CIRCLE
  5
58F2A
  8
C_P7_LATO_OPPOSTO
 10
16362.597340113331
 20
-7524.0251827466518
 30
0.0
 40
0.6625000000003638
  0
POLYLINE
  5
58F2B
  8
C_P3_LATO_OPPOSTO
 66
     1
 10
0.0
 20
0.0
 30
0.0
 70
     1
  0
VERTEX
  5
593EB
  8
C_P3_LATO_OPPOSTO
 10
16365.509840113329
 20
-7525.9376827466522
 30
0.0
  0
VERTEX
  5
593EC
  8
C_P3_LATO_OPPOSTO
 10
16359.68484011333
 20
-7525.9376827466522
 30
0.0
  0
VERTEX
  5
593ED
  8
C_P3_LATO_OPPOSTO
 10
16359.68484011333
 20
-7522.1126827466487
 30
0.0
  0
VERTEX
  5
593EE
  8
C_P3_LATO_OPPOSTO
 10
16365.509840113329
 20
-7522.1126827466524
 30
0.0
  0
SEQEND
  5
593EF
  8
C_P3_LATO_OPPOSTO
  0
POLYLINE
  5
58F2C
  8
PROFILO
 66
     1
 10
0.0
 20
0.0
 30
0.0
 70
     1
  0
VERTEX
  5
593F0
  8
PROFILO
 10
16365.509840113329
 20
-7527.5251827466518
 30
0.0
  0
VERTEX
  5
593F1
  8
PROFILO
 10
16359.68484011333
 20
-7527.5251827466536
 30
0.0
 42
-0.4142135623729967
  0
VERTEX
  5
593F2
  8
PROFILO
 10
16358.097340113331
 20
-7525.937682746654
 30
0.0
  0
VERTEX
  5
593F3
  8
PROFILO
 10
16358.097340113331
 20
-7522.1126827466478
 30
0.0
 42
-0.4142135623731668
  0
VERTEX
  5
593F4
  8
PROFILO
 10
16359.684840113319
 20
-7520.5251827466491
 30
0.0
  0
VERTEX
  5
593F5
  8
PROFILO
 10
16365.509840113329
 20
-7520.5251827466491
 30
0.0
 42
-0.4142135623731934
  0
VERTEX
  5
593F6
  8
PROFILO
 10
16367.097340113331
 20
-7522.1126827466524
 30
0.0
  0
VERTEX
  5
593F7
  8
PROFILO
 10
16367.097340113331
 20
-7525.9376827466522
 30
0.0
 42
-0.4142135623730951
  0
SEQEND
  5
593F8
  8
PROFILO
  0
CIRCLE
  5
58F2D
  8
PROFILO
 10
16362.597340113331
 20
-7470.0251827466518
 30
0.0
 40
2.25
  0
CIRCLE
  5
58F2E
  8
C_P7_LATO_OPPOSTO
 10
16362.597340113331
 20
-7470.0251827466518
 30
0.0
 40
0.6625000000003638
  0
POLYLINE
  5
58F2F
  8
C_P3_LATO_OPPOSTO
 66
     1
 10
0.0
 20
0.0
 30
0.0
 70
     1
  0
VERTEX
  5
593F9
  8
C_P3_LATO_OPPOSTO
 10
16365.509840113329
 20
-7471.9376827466522
 30
0.0
  0
VERTEX
  5
593FA
  8
C_P3_LATO_OPPOSTO
 10
16359.68484011333
 20
-7471.9376827466522
 30
0.0
  0
VERTEX
  5
593FB
  8
C_P3_LATO_OPPOSTO
 10
16359.68484011333
 20
-7468.1126827466487
 30
0.0
  0
VERTEX
  5
593FC
  8
C_P3_LATO_OPPOSTO
 10
16365.509840113329
 20
-7468.1126827466514
 30
0.0
  0
SEQEND
  5
593FD
  8
C_P3_LATO_OPPOSTO
  0
POLYLINE
  5
58F30
  8
PROFILO
 66
     1
 10
0.0
 20
0.0
 30
0.0
 70
     1
  0
VERTEX
  5
593FE
  8
PROFILO
 10
16365.509840113329
 20
-7473.5251827466518
 30
0.0
  0
VERTEX
  5
593FF
  8
PROFILO
 10
16359.68484011333
 20
-7473.5251827466536
 30
0.0
 42
-0.4142135623729967
  0
VERTEX
  5
59400
  8
PROFILO
 10
16358.097340113331
 20
-7471.9376827466549
 30
0.0
  0
VERTEX
  5
59401
  8
PROFILO
 10
16358.097340113331
 20
-7468.1126827466487
 30
0.0
 42
-0.4142135623731668
  0
VERTEX
  5
59402
  8
PROFILO
 10
16359.684840113319
 20
-7466.5251827466473
 30
0.0
  0
VERTEX
  5
59403
  8
PROFILO
 10
16365.509840113329
 20
-7466.52518274665
 30
0.0
 42
-0.4142135623731934
  0
VERTEX
  5
59404
  8
PROFILO
 10
16367.097340113331
 20
-7468.1126827466514
 30
0.0
  0
VERTEX
  5
59405
  8
PROFILO
 10
16367.097340113331
 20
-7471.9376827466522
 30
0.0
 42
-0.4142135623730951
  0
SEQEND
  5
59406
  8
PROFILO
  0
CIRCLE
  5
58F31
  8
PROFILO
 10
16509.097340113331
 20
-7497.0251827466527
 30
0.0
 40
5.0
  0
CIRCLE
  5
58F32
  8
V_P2_LATO_OPPOSTO
 10
16509.097340113331
 20
-7497.0251827466527
 30
0.0
 40
4.5
  0
CIRCLE
  5
58F33
  8
C_P7_LATO_OPPOSTO
 10
16509.097340113331
 20
-7497.0251827466527
 30
0.0
 40
3.4125000000000001
  0
CIRCLE
  5
58F34
  8
PROFILO
 10
16520.847340113331
 20
-7497.0251827466527
 30
0.0
 40
2.25
  0
CIRCLE
  5
58F35
  8
C_P7_LATO_OPPOSTO
 10
16520.847340113331
 20
-7497.0251827466527
 30
0.0
 40
0.6625000000003638
  0
POLYLINE
  5
58F36
  8
C_P3_LATO_OPPOSTO
 66
     1
 10
0.0
 20
0.0
 30
0.0
 70
     1
  0
VERTEX
  5
59407
  8
C_P3_LATO_OPPOSTO
 10
16522.759840113329
 20
-7494.1126827466496
 30
0.0
  0
VERTEX
  5
59408
  8
C_P3_LATO_OPPOSTO
 10
16522.759840113329
 20
-7499.9376827466513
 30
0.0
  0
VERTEX
  5
59409
  8
C_P3_LATO_OPPOSTO
 10
16518.934840113328
 20
-7499.9376827466513
 30
0.0
  0
VERTEX
  5
5940A
  8
C_P3_LATO_OPPOSTO
 10
16518.934840113328
 20
-7494.1126827466496
 30
0.0
  0
SEQEND
  5
5940B
  8
C_P3_LATO_OPPOSTO
  0
POLYLINE
  5
58F37
  8
PROFILO
 66
     1
 10
0.0
 20
0.0
 30
0.0
 70
     1
  0
VERTEX
  5
5940C
  8
PROFILO
 10
16524.347340113331
 20
-7494.1126827466496
 30
0.0
  0
VERTEX
  5
5940D
  8
PROFILO
 10
16524.347340113331
 20
-7499.9376827466522
 30
0.0
 42
-0.4142135623729967
  0
VERTEX
  5
5940E
  8
PROFILO
 10
16522.759840113329
 20
-7501.5251827466509
 30
0.0
  0
VERTEX
  5
5940F
  8
PROFILO
 10
16518.934840113321
 20
-7501.5251827466509
 30
0.0
 42
-0.4142135623731668
  0
VERTEX
  5
59410
  8
PROFILO
 10
16517.347340113331
 20
-7499.937682746654
 30
0.0
  0
VERTEX
  5
59411
  8
PROFILO
 10
16517.347340113331
 20
-7494.112682746646
 30
0.0
 42
-0.4142135623731934
  0
VERTEX
  5
59412
  8
PROFILO
 10
16518.934840113328
 20
-7492.5251827466464
 30
0.0
  0
VERTEX
  5
59413
  8
PROFILO
 10
16522.759840113329
 20
-7492.5251827466527
 30
0.0
 42
-0.4142135623730951
  0
SEQEND
  5
59414
  8
PROFILO
  0
POLYLINE
  5
58F38
  8
PROFILO
 66
     1
 10
0.0
 20
0.0
 30
0.0
 70
     1
  0
VERTEX
  5
59415
  8
PROFILO
 10
16509.097340113331
 20
-7519.0251827466536
 30
0.0
  0
VERTEX
  5
59416
  8
PROFILO
 10
16387.311426442109
 20
-7519.0251827466518
 30
0.0
 42
0.2797252294881704
  0
VERTEX
  5
59417
  8
PROFILO
 10
16371.46830150676
 20
-7528.6410297931034
 30
0.0
 42
-0.7848796439678036
  0
VERTEX
  5
59418
  8
PROFILO
 10
16352.597340113331
 20
-7524.0251827466554
 30
0.0
  0
VERTEX
  5
59419
  8
PROFILO
 10
16352.597340113331
 20
-7470.0251827466518
 30
0.0
 42
-0.7848796439676905
  0
VERTEX
  5
5941A
  8
PROFILO
 10
16371.46830150676
 20
-7465.4093357002048
 30
0.0
 42
0.2797252294880603
  0
VERTEX
  5
5941B
  8
PROFILO
 10
16387.311426442109
 20
-7475.02518274665
 30
0.0
  0
VERTEX
  5
5941C
  8
PROFILO
 10
16509.097340113331
 20
-7475.02518274665
 30
0.0
 42
-0.9999999999999998
  0
SEQEND
  5
5941D
  8
PROFILO
  0
POLYLINE
  5
58F39
  8
C_P7_LATO_OPPOSTO_ESTERNO
 66
     1
 10
0.0
 20
0.0
 30
0.0
 70
     1
  0
VERTEX
  5
5941E
  8
C_P7_LATO_OPPOSTO_ESTERNO
 10
16509.097340113331
 20
-7520.6126827466533
 30
0.0
  0
VERTEX
  5
5941F
  8
C_P7_LATO_OPPOSTO_ESTERNO
 10
16387.311426442109
 20
-7520.6126827466514
 30
0.0
 42
0.2797252294881715
  0
VERTEX
  5
59420
  8
C_P7_LATO_OPPOSTO_ESTERNO
 10
16372.876566627971
 20
-7529.3737955117267
 30
0.0
 42
-0.7848796439678293
  0
VERTEX
  5
59421
  8
C_P7_LATO_OPPOSTO_ESTERNO
 10
16351.009840113329
 20
-7524.0251827466554
 30
0.0
  0
VERTEX
  5
59422
  8
C_P7_LATO_OPPOSTO_ESTERNO
 10
16351.009840113329
 20
-7470.0251827466518
 30
0.0
 42
-0.7848796439674693
  0
VERTEX
  5
59423
  8
C_P7_LATO_OPPOSTO_ESTERNO
 10
16372.876566627971
 20
-7464.6765699815815
 30
0.0
 42
0.2797252294880506
  0
VERTEX
  5
59424
  8
C_P7_LATO_OPPOSTO_ESTERNO
 10
16387.311426442109
 20
-7473.4376827466504
 30
0.0
  0
VERTEX
  5
59425
  8
C_P7_LATO_OPPOSTO_ESTERNO
 10
16509.097340113331
 20
-7473.4376827466504
 30
0.0
 42
-1.0
  0
SEQEND
  5
59426
  8
C_P7_LATO_OPPOSTO_ESTERNO
  0
POLYLINE
  5
58F3A
  8
V_P2_LATO_OPPOSTO
 66
     1
 10
0.0
 20
0.0
 30
0.0
 70
     1
  0
VERTEX
  5
59427
  8
V_P2_LATO_OPPOSTO
 10
16509.097340113331
 20
-7519.5251827466536
 30
0.0
  0
VERTEX
  5
59428
  8
V_P2_LATO_OPPOSTO
 10
16387.311426442109
 20
-7519.5251827466518
 30
0.0
 42
0.2797252294881667
  0
VERTEX
  5
59429
  8
V_P2_LATO_OPPOSTO
 10
16371.911849576431
 20
-7528.8718221454246
 30
0.0
 42
-0.784879643967842
  0
VERTEX
  5
5942A
  8
V_P2_LATO_OPPOSTO
 10
16352.097340113331
 20
-7524.0251827466554
 30
0.0
  0
VERTEX
  5
5942B
  8
V_P2_LATO_OPPOSTO
 10
16352.097340113331
 20
-7470.0251827466518
 30
0.0
 42
-0.7848796439677308
  0
VERTEX
  5
5942C
  8
V_P2_LATO_OPPOSTO
 10
16371.911849576431
 20
-7465.1785433478817
 30
0.0
 42
0.2797252294880535
  0
VERTEX
  5
5942D
  8
V_P2_LATO_OPPOSTO
 10
16387.311426442109
 20
-7474.52518274665
 30
0.0
  0
VERTEX
  5
5942E
  8
V_P2_LATO_OPPOSTO
 10
16509.097340113331
 20
-7474.52518274665
 30
0.0
 42
-1.0
  0
SEQEND
  5
5942F
  8
V_P2_LATO_OPPOSTO
  0
CIRCLE
  5
58F3B
  8
PROFILO
 10
16385.877340113329
 20
-7509.7751827466518
 30
0.0
 40
2.25
  0
CIRCLE
  5
58F3C
  8
C_P7_LATO_OPPOSTO
 10
16385.877340113329
 20
-7509.7751827466518
 30
0.0
 40
0.6625000000003638
  0
POLYLINE
  5
58F3D
  8
C_P3_LATO_OPPOSTO
 66
     1
 10
0.0
 20
0.0
 30
0.0
 70
     1
  0
VERTEX
  5
59430
  8
C_P3_LATO_OPPOSTO
 10
16387.789840113332
 20
-7506.8626827466533
 30
0.0
  0
VERTEX
  5
59431
  8
C_P3_LATO_OPPOSTO
 10
16387.789840113332
 20
-7512.6876827466549
 30
0.0
  0
VERTEX
  5
59432
  8
C_P3_LATO_OPPOSTO
 10
16383.964840113331
 20
-7512.6876827466504
 30
0.0
  0
VERTEX
  5
59433
  8
C_P3_LATO_OPPOSTO
 10
16383.964840113331
 20
-7506.8626827466533
 30
0.0
  0
SEQEND
  5
59434
  8
C_P3_LATO_OPPOSTO
  0
POLYLINE
  5
58F3E
  8
PROFILO
 66
     1
 10
0.0
 20
0.0
 30
0.0
 70
     1
  0
VERTEX
  5
59435
  8
PROFILO
 10
16389.377340113329
 20
-7506.8626827466496
 30
0.0
  0
VERTEX
  5
59436
  8
PROFILO
 10
16389.377340113329
 20
-7512.6876827466549
 30
0.0
 42
-0.4142135623729967
  0
VERTEX
  5
59437
  8
PROFILO
 10
16387.789840113332
 20
-7514.2751827466554
 30
0.0
  0
VERTEX
  5
59438
  8
PROFILO
 10
16383.964840113331
 20
-7514.2751827466518
 30
0.0
 42
-0.4142135623731668
  0
VERTEX
  5
59439
  8
PROFILO
 10
16382.377340113329
 20
-7512.6876827466567
 30
0.0
  0
VERTEX
  5
5943A
  8
PROFILO
 10
16382.377340113329
 20
-7506.862682746646
 30
0.0
 42
-0.4142135623731934
  0
VERTEX
  5
5943B
  8
PROFILO
 10
16383.964840113331
 20
-7505.2751827466482
 30
0.0
  0
VERTEX
  5
5943C
  8
PROFILO
 10
16387.789840113332
 20
-7505.2751827466518
 30
0.0
 42
-0.4142135623730951
  0
SEQEND
  5
5943D
  8
PROFILO
  0
CIRCLE
  5
58F3F
  8
PROFILO
 10
16419.46734011333
 20
-7500.5251827466491
 30
0.0
 40
2.25
  0
CIRCLE
  5
58F40
  8
C_P7_LATO_OPPOSTO
 10
16419.46734011333
 20
-7500.5251827466491
 30
0.0
 40
0.6625000000003638
  0
POLYLINE
  5
58F41
  8
C_P3_LATO_OPPOSTO
 66
     1
 10
0.0
 20
0.0
 30
0.0
 70
     1
  0
VERTEX
  5
5943E
  8
C_P3_LATO_OPPOSTO
 10
16422.379840113339
 20
-7502.4376827466513
 30
0.0
  0
VERTEX
  5
5943F
  8
C_P3_LATO_OPPOSTO
 10
16416.554840113331
 20
-7502.4376827466513
 30
0.0
  0
VERTEX
  5
59440
  8
C_P3_LATO_OPPOSTO
 10
16416.554840113331
 20
-7498.6126827466478
 30
0.0
  0
VERTEX
  5
59441
  8
C_P3_LATO_OPPOSTO
 10
16422.379840113339
 20
-7498.6126827466487
 30
0.0
  0
SEQEND
  5
59442
  8
C_P3_LATO_OPPOSTO
  0
POLYLINE
  5
58F42
  8
PROFILO
 66
     1
 10
0.0
 20
0.0
 30
0.0
 70
     1
  0
VERTEX
  5
59443
  8
PROFILO
 10
16422.379840113339
 20
-7504.0251827466509
 30
0.0
  0
VERTEX
  5
59444
  8
PROFILO
 10
16416.554840113331
 20
-7504.0251827466509
 30
0.0
 42
-0.4142135623729967
  0
VERTEX
  5
59445
  8
PROFILO
 10
16414.96734011333
 20
-7502.4376827466522
 30
0.0
  0
VERTEX
  5
59446
  8
PROFILO
 10
16414.96734011333
 20
-7498.612682746646
 30
0.0
 42
-0.4142135623731668
  0
VERTEX
  5
59447
  8
PROFILO
 10
16416.554840113331
 20
-7497.0251827466464
 30
0.0
  0
VERTEX
  5
59448
  8
PROFILO
 10
16422.379840113339
 20
-7497.0251827466482
 30
0.0
 42
-0.4142135623731934
  0
VERTEX
  5
59449
  8
PROFILO
 10
16423.96734011334
 20
-7498.6126827466487
 30
0.0
  0
VERTEX
  5
5944A
  8
PROFILO
 10
16423.96734011333
 20
-7502.4376827466513
 30
0.0
 42
-0.4142135623730951
  0
SEQEND
  5
5944B
  8
PROFILO
  0
CIRCLE
  5
58F43
  8
PROFILO
 10
16416.597340113341
 20
-7509.1251827466522
 30
0.0
 40
2.0
  0
CIRCLE
  5
58F44
  8
C_P7_LATO_OPPOSTO
 10
16416.597340113341
 20
-7509.1251827466522
 30
0.0
 40
0.4125000000000001
  0
CIRCLE
  5
58F45
  8
PROFILO
 10
16407.597340113341
 20
-7509.1251827466522
 30
0.0
 40
2.0
  0
CIRCLE
  5
58F46
  8
C_P7_LATO_OPPOSTO
 10
16407.597340113341
 20
-7509.1251827466522
 30
0.0
 40
0.4125000000000001
  0
LINE
  5
58F47
  8
PROFILO
 10
16416.197340113329
 20
-7505.7251827466534
 30
0.0
 11
16410.997340113328
 21
-7505.7251827466534
 31
0.0
  0
POLYLINE
  5
58F48
  8
PROFILO
 66
     1
 10
0.0
 20
0.0
 30
0.0
 70
     1
  0
VERTEX
  5
5944C
  8
PROFILO
 10
16405.249161450349
 20
-7505.1895040836698
 30
0.0
  0
VERTEX
  5
5944D
  8
PROFILO
 10
16418.94551877632
 20
-7505.1895040836698
 30
0.0
 42
-0.4142135623730951
  0
VERTEX
  5
5944E
  8
PROFILO
 10
16420.53301877631
 20
-7506.7770040836695
 30
0.0
  0
VERTEX
  5
5944F
  8
PROFILO
 10
16420.53301877631
 20
-7511.4733614096358
 30
0.0
 42
-0.4142135623730951
  0
VERTEX
  5
59450
  8
PROFILO
 10
16418.94551877632
 20
-7513.0608614096363
 30
0.0
  0
VERTEX
  5
59451
  8
PROFILO
 10
16405.249161450349
 20
-7513.0608614096363
 30
0.0
 42
-0.4142135623730951
  0
VERTEX
  5
59452
  8
PROFILO
 10
16403.661661450351
 20
-7511.4733614096358
 30
0.0
  0
VERTEX
  5
59453
  8
PROFILO
 10
16403.661661450351
 20
-7506.7770040836695
 30
0.0
 42
-0.4142135623730951
  0
SEQEND
  5
59454
  8
PROFILO
  0
POLYLINE
  5
58F49
  8
C-P4
 66
     1
 10
0.0
 20
0.0
 30
0.0
  0
VERTEX
  5
59455
  8
C-P4
 10
16418.94551877632
 20
-7511.4733614096358
 30
0.0
  0
VERTEX
  5
59456
  8
C-P4
 10
16405.249161450349
 20
-7511.4733614096358
 30
0.0
  0
VERTEX
  5
59457
  8
C-P4
 10
16405.249161450349
 20
-7509.4733614096358
 30
0.0
  0
VERTEX
  5
59458
  8
C-P4
 10
16418.94551877632
 20
-7509.4733614096358
 30
0.0
  0
VERTEX
  5
59459
  8
C-P4
 10
16418.94551877632
 20
-7507.4733614096358
 30
0.0
  0
VERTEX
  5
5945A
  8
C-P4
 10
16405.249161450349
 20
-7507.4733614096358
 30
0.0
  0
VERTEX
  5
5945B
  8
C-P4
 10
16405.249161450349
 20
-7506.7770040836695
 30
0.0
  0
VERTEX
  5
5945C
  8
C-P4
 10
16418.94551877632
 20
-7506.7770040836695
 30
0.0
  0
VERTEX
  5
5945D
  8
C-P4
 10
16418.94551877632
 20
-7511.4733614096358
 30
0.0
  0
VERTEX
  5
5945E
  8
C-P4
 10
16405.249161450349
 20
-7511.4733614096358
 30
0.0
  0
VERTEX
  5
5945F
  8
C-P4
 10
16405.249161450349
 20
-7506.7770040836695
 30
0.0
  0
SEQEND
  5
59460
  8
C-P4
  0
POLYLINE
  5
58F4A
  8
PROFILO
 66
     1
 10
0.0
 20
0.0
 30
0.0
 70
     1
  0
VERTEX
  5
59461
  8
PROFILO
 10
16412.736427423079
 20
-7492.02518274665
 30
0.0
 42
0.4142135623730951
  0
VERTEX
  5
59462
  8
PROFILO
 10
16414.32392742308
 20
-7493.6126827466496
 30
0.0
  0
VERTEX
  5
59463
  8
PROFILO
 10
16415.97075280358
 20
-7493.6126827466496
 30
0.0
 42
0.4142135623730951
  0
VERTEX
  5
59464
  8
PROFILO
 10
16417.558252803581
 20
-7492.02518274665
 30
0.0
  0
VERTEX
  5
59465
  8
PROFILO
 10
16417.558252803581
 20
-7487.6126827466487
 30
0.0
  0
VERTEX
  5
59466
  8
PROFILO
 10
16418.809840113328
 20
-7487.6126827466487
 30
0.0
  0
VERTEX
  5
59467
  8
PROFILO
 10
16418.809840113328
 20
-7489.0909946781094
 30
0.0
 42
0.4142135623730951
  0
VERTEX
  5
59468
  8
PROFILO
 10
16420.39734011333
 20
-7490.678494678109
 30
0.0
  0
VERTEX
  5
59469
  8
PROFILO
 10
16493.39734011333
 20
-7490.678494678109
 30
0.0
 42
0.4142135623730951
  0
VERTEX
  5
5946A
  8
PROFILO
 10
16494.984840113331
 20
-7489.0909946781094
 30
0.0
  0
VERTEX
  5
5946B
  8
PROFILO
 10
16494.984840113331
 20
-7483.9593708151906
 30
0.0
 42
0.4142135623730951
  0
VERTEX
  5
5946C
  8
PROFILO
 10
16493.39734011333
 20
-7482.3718708151919
 30
0.0
  0
VERTEX
  5
5946D
  8
PROFILO
 10
16420.39734011333
 20
-7482.3718708151919
 30
0.0
 42
0.4142135623730951
  0
VERTEX
  5
5946E
  8
PROFILO
 10
16418.809840113328
 20
-7483.9593708151906
 30
0.0
  0
VERTEX
  5
5946F
  8
PROFILO
 10
16418.809840113328
 20
-7484.4376827466504
 30
0.0
  0
VERTEX
  5
59470
  8
PROFILO
 10
16417.558252803581
 20
-7484.4376827466504
 30
0.0
  0
VERTEX
  5
59471
  8
PROFILO
 10
16417.558252803581
 20
-7480.02518274665
 30
0.0
 42
0.4142135623730951
  0
VERTEX
  5
59472
  8
PROFILO
 10
16415.97075280358
 20
-7478.4376827466504
 30
0.0
  0
VERTEX
  5
59473
  8
PROFILO
 10
16414.32392742308
 20
-7478.4376827466504
 30
0.0
 42
0.4142135623730951
  0
VERTEX
  5
59474
  8
PROFILO
 10
16412.736427423079
 20
-7480.02518274665
 30
0.0
  0
SEQEND
  5
59475
  8
PROFILO
  0
POLYLINE
  5
58F4B
  8
C-P35
 66
     1
 10
0.0
 20
0.0
 30
0.0
  0
VERTEX
  5
59476
  8
C-P35
 10
16415.97075280358
 20
-7486.02518274665
 30
0.0
  0
VERTEX
  5
59477
  8
C-P35
 10
16415.97075280358
 20
-7492.02518274665
 30
0.0
  0
VERTEX
  5
59478
  8
C-P35
 10
16414.32392742308
 20
-7492.02518274665
 30
0.0
  0
VERTEX
  5
59479
  8
C-P35
 10
16414.32392742308
 20
-7480.02518274665
 30
0.0
  0
VERTEX
  5
5947A
  8
C-P35
 10
16415.97075280358
 20
-7480.02518274665
 30
0.0
  0
VERTEX
  5
5947B
  8
C-P35
 10
16415.97075280358
 20
-7486.02518274665
 30
0.0
  0
VERTEX
  5
5947C
  8
C-P35
 10
16420.39734011333
 20
-7486.02518274665
 30
0.0
  0
VERTEX
  5
5947D
  8
C-P35
 10
16420.39734011333
 20
-7486.5251827466509
 30
0.0
  0
VERTEX
  5
5947E
  8
C-P35
 10
16493.39734011333
 20
-7486.5251827466509
 30
0.0
  0
VERTEX
  5
5947F
  8
C-P35
 10
16493.39734011333
 20
-7489.0909946781094
 30
0.0
  0
VERTEX
  5
59480
  8
C-P35
 10
16420.39734011333
 20
-7489.0909946781094
 30
0.0
  0
VERTEX
  5
59481
  8
C-P35
 10
16420.39734011333
 20
-7483.9593708151906
 30
0.0
  0
VERTEX
  5
59482
  8
C-P35
 10
16493.39734011333
 20
-7483.9593708151906
 30
0.0
  0
VERTEX
  5
59483
  8
C-P35
 10
16493.39734011333
 20
-7486.5251827466509
 30
0.0
  0
SEQEND
  5
59484
  8
C-P35
  0
POLYLINE
  5
58F4C
  8
PROFILO
 66
     1
 10
0.0
 20
0.0
 30
0.0
 70
     1
  0
VERTEX
  5
59485
  8
PROFILO
 10
16418.584271884542
 20
-7487.6126827466487
 30
0.0
  0
VERTEX
  5
59486
  8
PROFILO
 10
16418.809840113328
 20
-7487.6126827466487
 30
0.0
  0
VERTEX
  5
59487
  8
PROFILO
 10
16418.809840113328
 20
-7490.0611581296307
 30
0.0
 42
0.4142135623730951
  0
VERTEX
  5
59488
  8
PROFILO
 10
16420.39734011333
 20
-7491.6486581296303
 30
0.0
  0
VERTEX
  5
59489
  8
PROFILO
 10
16493.39734011333
 20
-7491.6486581296303
 30
0.0
 42
0.4142135623730951
  0
VERTEX
  5
5948A
  8
PROFILO
 10
16494.984840113331
 20
-7490.0611581296307
 30
0.0
  0
VERTEX
  5
5948B
  8
PROFILO
 10
16494.984840113331
 20
-7482.9892073636702
 30
0.0
 42
0.4142135623730951
  0
VERTEX
  5
5948C
  8
PROFILO
 10
16493.39734011333
 20
-7481.4017073636696
 30
0.0
  0
VERTEX
  5
5948D
  8
PROFILO
 10
16420.39734011333
 20
-7481.4017073636696
 30
0.0
 42
0.4142135623730951
  0
VERTEX
  5
5948E
  8
PROFILO
 10
16418.809840113328
 20
-7482.9892073636702
 30
0.0
  0
VERTEX
  5
5948F
  8
PROFILO
 10
16418.809840113328
 20
-7484.4376827466504
 30
0.0
  0
VERTEX
  5
59490
  8
PROFILO
 10
16418.584271884542
 20
-7484.4376827466504
 30
0.0
  0
VERTEX
  5
59491
  8
PROFILO
 10
16418.584271884542
 20
-7480.02518274665
 30
0.0
 42
0.4142135623730951
  0
VERTEX
  5
59492
  8
PROFILO
 10
16416.996771884551
 20
-7478.4376827466504
 30
0.0
  0
VERTEX
  5
59493
  8
PROFILO
 10
16413.297908342109
 20
-7478.4376827466504
 30
0.0
 42
0.4142135623730951
  0
VERTEX
  5
59494
  8
PROFILO
 10
16411.710408342111
 20
-7480.02518274665
 30
0.0
  0
VERTEX
  5
59495
  8
PROFILO
 10
16411.710408342111
 20
-7492.02518274665
 30
0.0
 42
0.4142135623730951
  0
VERTEX
  5
59496
  8
PROFILO
 10
16413.297908342109
 20
-7493.6126827466496
 30
0.0
  0
VERTEX
  5
59497
  8
PROFILO
 10
16416.996771884551
 20
-7493.6126827466496
 30
0.0
 42
0.4142135623724238
  0
VERTEX
  5
59498
  8
PROFILO
 10
16418.584271884542
 20
-7492.02518274665
 30
0.0
  0
SEQEND
  5
59499
  8
PROFILO
  0
POLYLINE
  5
58F4D
  8
C-P2
 66
     1
 10
0.0
 20
0.0
 30
0.0
  0
VERTEX
  5
5949A
  8
C-P2
 10
16416.996771884551
 20
-7486.02518274665
 30
0.0
  0
VERTEX
  5
5949B
  8
C-P2
 10
16416.996771884551
 20
-7480.02518274665
 30
0.0
  0
VERTEX
  5
5949C
  8
C-P2
 10
16413.297908342109
 20
-7480.02518274665
 30
0.0
  0
VERTEX
  5
5949D
  8
C-P2
 10
16413.297908342109
 20
-7492.02518274665
 30
0.0
  0
VERTEX
  5
5949E
  8
C-P2
 10
16416.99677188454
 20
-7492.02518274665
 30
0.0
  0
VERTEX
  5
5949F
  8
C-P2
 10
16416.996771884551
 20
-7486.02518274665
 30
0.0
  0
VERTEX
  5
594A0
  8
C-P2
 10
16420.39734011333
 20
-7486.02518274665
 30
0.0
  0
VERTEX
  5
594A1
  8
C-P2
 10
16420.39734011333
 20
-7490.0611581296307
 30
0.0
  0
VERTEX
  5
594A2
  8
C-P2
 10
16493.39734011333
 20
-7490.0611581296307
 30
0.0
  0
VERTEX
  5
594A3
  8
C-P2
 10
16493.39734011333
 20
-7482.9892073636702
 30
0.0
  0
VERTEX
  5
594A4
  8
C-P2
 10
16420.39734011333
 20
-7482.9892073636702
 30
0.0
  0
VERTEX
  5
594A5
  8
C-P2
 10
16420.39734011333
 20
-7486.02518274665
 30
0.0
  0
SEQEND
  5
594A6
  8
C-P2
  0
POLYLINE
  5
58F4E
  8
PROFILO
 66
     1
 10
0.0
 20
0.0
 30
0.0
 70
     1
  0
VERTEX
  5
594A7
  8
PROFILO
 10
16417.536333543481
 20
-7478.4376827466504
 30
0.0
  0
VERTEX
  5
594A8
  8
PROFILO
 10
16412.758346683178
 20
-7478.4376827466504
 30
0.0
 42
0.4142135623727595
  0
VERTEX
  5
594A9
  8
PROFILO
 10
16411.170846683181
 20
-7480.02518274665
 30
0.0
  0
VERTEX
  5
594AA
  8
PROFILO
 10
16411.170846683181
 20
-7492.02518274665
 30
0.0
 42
0.4142135623724239
  0
VERTEX
  5
594AB
  8
PROFILO
 10
16412.758346683178
 20
-7493.6126827466496
 30
0.0
  0
VERTEX
  5
594AC
  8
PROFILO
 10
16417.536333543481
 20
-7493.6126827466478
 30
0.0
 42
0.4142135623724238
  0
VERTEX
  5
594AD
  8
PROFILO
 10
16419.123833543468
 20
-7492.02518274665
 30
0.0
  0
VERTEX
  5
594AE
  8
PROFILO
 10
16419.123833543468
 20
-7492.2914640439858
 30
0.0
  0
VERTEX
  5
594AF
  8
PROFILO
 10
16493.39734011333
 20
-7492.2914640439858
 30
0.0
 42
0.4142135623727593
  0
VERTEX
  5
594B0
  8
PROFILO
 10
16494.984840113331
 20
-7490.7039640439862
 30
0.0
  0
VERTEX
  5
594B1
  8
PROFILO
 10
16494.984840113331
 20
-7482.3464014493138
 30
0.0
 42
0.4142135623734306
  0
VERTEX
  5
594B2
  8
PROFILO
 10
16493.39734011333
 20
-7480.7589014493142
 30
0.0
  0
VERTEX
  5
594B3
  8
PROFILO
 10
16419.123833543468
 20
-7480.7589014493142
 30
0.0
  0
VERTEX
  5
594B4
  8
PROFILO
 10
16419.123833543468
 20
-7480.02518274665
 30
0.0
 42
0.4142135623727595
  0
SEQEND
  5
594B5
  8
PROFILO
  0
POLYLINE
  5
58F4F
  8
C-P1
 66
     1
 10
0.0
 20
0.0
 30
0.0
  0
VERTEX
  5
594B6
  8
C-P1
 10
16417.536333543481
 20
-7486.02518274665
 30
0.0
  0
VERTEX
  5
594B7
  8
C-P1
 10
16420.39734011333
 20
-7486.02518274665
 30
0.0
  0
VERTEX
  5
594B8
  8
C-P1
 10
16420.39734011333
 20
-7490.7039640439862
 30
0.0
  0
VERTEX
  5
594B9
  8
C-P1
 10
16493.397340113319
 20
-7490.7039640439862
 30
0.0
  0
VERTEX
  5
594BA
  8
C-P1
 10
16493.39734011333
 20
-7482.3464014493138
 30
0.0
  0
VERTEX
  5
594BB
  8
C-P1
 10
16420.39734011333
 20
-7482.3464014493138
 30
0.0
  0
VERTEX
  5
594BC
  8
C-P1
 10
16420.39734011333
 20
-7486.02518274665
 30
0.0
  0
VERTEX
  5
594BD
  8
C-P1
 10
16417.536333543481
 20
-7486.02518274665
 30
0.0
  0
VERTEX
  5
594BE
  8
C-P1
 10
16417.53633354347
 20
-7480.02518274665
 30
0.0
  0
VERTEX
  5
594BF
  8
C-P1
 10
16412.758346683178
 20
-7480.02518274665
 30
0.0
  0
VERTEX
  5
594C0
  8
C-P1
 10
16412.758346683178
 20
-7492.02518274665
 30
0.0
  0
VERTEX
  5
594C1
  8
C-P1
 10
16417.53633354347
 20
-7492.0251827466482
 30
0.0
  0
VERTEX
  5
594C2
  8
C-P1
 10
16417.536333543481
 20
-7486.02518274665
 30
0.0
  0
SEQEND
  5
594C3
  8
C-P1
  0
ARC
  5
58F50
  8
PROFILO
 10
16365.509840113329
 20
-7487.0251827466518
 30
0.0
 40
1.587499999999999
 50
0.0
 51
180.0
  0
ARC
  5
58F51
  8
PROFILO
 10
16365.509840113329
 20
-7507.0251827466518
 30
0.0
 40
1.587499999999999
 50
180.0
 51
0.0
  0
POLYLINE
  5
58F52
  8
PROFILO
 66
     1
 10
0.0
 20
0.0
 30
0.0
  0
VERTEX
  5
594C4
  8
PROFILO
 10
16363.92234011332
 20
-7507.0251827466518
 30
0.0
  0
VERTEX
  5
594C5
  8
PROFILO
 10
16363.922340113329
 20
-7487.0251827466518
 30
0.0
  0
SEQEND
  5
594C6
  8
PROFILO
  0
POLYLINE
  5
58F53
  8
PROFILO
 66
     1
 10
0.0
 20
0.0
 30
0.0
  0
VERTEX
  5
594C7
  8
PROFILO
 10
16367.097340113331
 20
-7487.0251827466518
 30
0.0
  0
VERTEX
  5
594C8
  8
PROFILO
 10
16367.09734011332
 20
-7507.0251827466518
 30
0.0
  0
SEQEND
  5
594C9
  8
PROFILO
  0
POLYLINE
  5
58F54
  8
C-P3
 66
     1
 10
0.0
 20
0.0
 30
0.0
  0
VERTEX
  5
594CA
  8
C-P3
 10
16365.509840113329
 20
-7507.0251827466518
 30
0.0
  0
VERTEX
  5
594CB
  8
C-P3
 10
16365.509840113329
 20
-7487.0251827466518
 30
0.0
  0
SEQEND
  5
594CC
  8
C-P3
  0
POLYLINE
  5
58F55
  8
C-P25
 66
     1
 10
0.0
 20
0.0
 30
0.0
  0
VERTEX
  5
594CD
  8
C-P25
 10
16500.597340113331
 20
-7510.5451827466522
 30
0.0
  0
VERTEX
  5
594CE
  8
C-P25
 10
16500.597340113331
 20
-7495.3051827466516
 30
0.0
  0
VERTEX
  5
594CF
  8
C-P25
 10
16500.597340113331
 20
-7504.9651827466514
 30
0.0
  0
VERTEX
  5
594D0
  8
C-P25
 10
16498.05734011333
 20
-7504.9651827466514
 30
0.0
  0
VERTEX
  5
594D1
  8
C-P25
 10
16498.036984244311
 20
-7495.3051827466516
 30
0.0
  0
VERTEX
  5
594D2
  8
C-P25
 10
16496.267340113329
 20
-7495.3051827466516
 30
0.0
  0
VERTEX
  5
594D3
  8
C-P25
 10
16496.267340113329
 20
-7508.5051827466523
 30
0.0
  0
VERTEX
  5
594D4
  8
C-P25
 10
16496.267340113329
 20
-7495.3051827466516
 30
0.0
  0
VERTEX
  5
594D5
  8
C-P25
 10
16494.477340113332
 20
-7495.3051827466516
 30
0.0
  0
VERTEX
  5
594D6
  8
C-P25
 10
16494.477340113332
 20
-7504.965182746656
 30
0.0
  0
VERTEX
  5
594D7
  8
C-P25
 10
16494.477340113332
 20
-7495.3051827466516
 30
0.0
  0
VERTEX
  5
594D8
  8
C-P25
 10
16463.747340113328
 20
-7495.3051827466516
 30
0.0
  0
VERTEX
  5
594D9
  8
C-P25
 10
16472.637340113331
 20
-7495.3051827466516
 30
0.0
  0
VERTEX
  5
594DA
  8
C-P25
 10
16472.637340113331
 20
-7498.3051827466516
 30
0.0
  0
VERTEX
  5
594DB
  8
C-P25
 10
16475.177340113329
 20
-7498.3051827466516
 30
0.0
  0
VERTEX
  5
594DC
  8
C-P25
 10
16475.177340113329
 20
-7495.3051827466516
 30
0.0
  0
VERTEX
  5
594DD
  8
C-P25
 10
16482.797340113331
 20
-7495.3051827466516
 30
0.0
  0
VERTEX
  5
594DE
  8
C-P25
 10
16482.797340113331
 20
-7498.3051827466516
 30
0.0
  0
VERTEX
  5
594DF
  8
C-P25
 10
16485.337340113329
 20
-7498.3051827466516
 30
0.0
  0
VERTEX
  5
594E0
  8
C-P25
 10
16485.337340113329
 20
-7495.3051827466516
 30
0.0
  0
VERTEX
  5
594E1
  8
C-P25
 10
16500.597340113331
 20
-7495.3051827466516
 30
0.0
  0
VERTEX
  5
594E2
  8
C-P25
 10
16500.597340113331
 20
-7510.5451827466522
 30
0.0
  0
VERTEX
  5
594E3
  8
C-P25
 10
16436.39734011333
 20
-7510.5451827466522
 30
0.0
  0
VERTEX
  5
594E4
  8
C-P25
 10
16436.39734011333
 20
-7494.7251827466498
 30
0.0
  0
VERTEX
  5
594E5
  8
C-P25
 10
16443.852340113332
 20
-7494.7251827466498
 30
0.0
  0
VERTEX
  5
594E6
  8
C-P25
 10
16443.852340113332
 20
-7495.4851827466473
 30
0.0
  0
VERTEX
  5
594E7
  8
C-P25
 10
16443.852340113332
 20
-7505.7076827466499
 30
0.0
  0
VERTEX
  5
594E8
  8
C-P25
 10
16445.852340113332
 20
-7505.7076827466499
 30
0.0
  0
VERTEX
  5
594E9
  8
C-P25
 10
16445.852340113332
 20
-7500.502682746649
 30
0.0
  0
VERTEX
  5
594EA
  8
C-P25
 10
16447.852340113332
 20
-7500.502682746649
 30
0.0
  0
VERTEX
  5
594EB
  8
C-P25
 10
16447.852340113332
 20
-7505.7076827466499
 30
0.0
  0
VERTEX
  5
594EC
  8
C-P25
 10
16441.852340113332
 20
-7505.7076827466499
 30
0.0
  0
VERTEX
  5
594ED
  8
C-P25
 10
16441.852340113332
 20
-7500.502682746649
 30
0.0
  0
VERTEX
  5
594EE
  8
C-P25
 10
16440.677340113329
 20
-7500.502682746649
 30
0.0
  0
VERTEX
  5
594EF
  8
C-P25
 10
16440.677340113329
 20
-7505.7076827466499
 30
0.0
  0
VERTEX
  5
594F0
  8
C-P25
 10
16448.297340113331
 20
-7505.7076827466499
 30
0.0
  0
VERTEX
  5
594F1
  8
C-P25
 10
16448.297340113331
 20
-7500.502682746649
 30
0.0
  0
VERTEX
  5
594F2
  8
C-P25
 10
16441.852340113332
 20
-7500.502682746649
 30
0.0
  0
VERTEX
  5
594F3
  8
C-P25
 10
16443.852340113332
 20
-7500.502682746649
 30
0.0
  0
VERTEX
  5
594F4
  8
C-P25
 10
16443.852340113332
 20
-7494.7251827466498
 30
0.0
  0
VERTEX
  5
594F5
  8
C-P25
 10
16436.39734011333
 20
-7494.7251827466498
 30
0.0
  0
SEQEND
  5
594F6
  8
C-P25
  0
POLYLINE
  5
58F56
  8
C-P25
 66
     1
 10
0.0
 20
0.0
 30
0.0
  0
VERTEX
  5
594F7
  8
C-P25
 10
16393.127340113329
 20
-7502.4251827466451
 30
0.0
  0
VERTEX
  5
594F8
  8
C-P25
 10
16387.37734011334
 20
-7502.4251827466451
 30
0.0
  0
VERTEX
  5
594F9
  8
C-P25
 10
16387.37734011334
 20
-7496.5751827466493
 30
0.0
  0
VERTEX
  5
594FA
  8
C-P25
 10
16389.927340113329
 20
-7496.5751827466493
 30
0.0
  0
VERTEX
  5
594FB
  8
C-P25
 10
16389.927340113329
 20
-7494.5251827466509
 30
0.0
  0
VERTEX
  5
594FC
  8
C-P25
 10
16389.927340113329
 20
-7496.5751827466493
 30
0.0
  0
VERTEX
  5
594FD
  8
C-P25
 10
16387.37734011334
 20
-7496.5751827466493
 30
0.0
  0
VERTEX
  5
594FE
  8
C-P25
 10
16387.37734011334
 20
-7499.8251827466493
 30
0.0
  0
VERTEX
  5
594FF
  8
C-P25
 10
16384.837340113329
 20
-7499.8251827466493
 30
0.0
  0
VERTEX
  5
59500
  8
C-P25
 10
16384.837340113329
 20
-7502.3651827466501
 30
0.0
  0
VERTEX
  5
59501
  8
C-P25
 10
16379.75734011333
 20
-7502.3651827466501
 30
0.0
  0
VERTEX
  5
59502
  8
C-P25
 10
16379.75734011333
 20
-7496.5751827466493
 30
0.0
  0
VERTEX
  5
59503
  8
C-P25
 10
16382.30734011333
 20
-7496.5751827466493
 30
0.0
  0
VERTEX
  5
59504
  8
C-P25
 10
16382.30734011333
 20
-7494.5251827466509
 30
0.0
  0
VERTEX
  5
59505
  8
C-P25
 10
16382.30734011333
 20
-7496.5751827466493
 30
0.0
  0
VERTEX
  5
59506
  8
C-P25
 10
16379.75734011333
 20
-7496.5751827466493
 30
0.0
  0
VERTEX
  5
59507
  8
C-P25
 10
16379.75734011333
 20
-7499.8251827466493
 30
0.0
  0
VERTEX
  5
59508
  8
C-P25
 10
16377.21734011333
 20
-7499.8251827466493
 30
0.0
  0
VERTEX
  5
59509
  8
C-P25
 10
16377.21734011333
 20
-7502.3651827466501
 30
0.0
  0
VERTEX
  5
5950A
  8
C-P25
 10
16372.13734011333
 20
-7502.3651827466501
 30
0.0
  0
VERTEX
  5
5950B
  8
C-P25
 10
16372.13734011333
 20
-7496.5751827466493
 30
0.0
  0
VERTEX
  5
5950C
  8
C-P25
 10
16374.687340113331
 20
-7496.5751827466493
 30
0.0
  0
VERTEX
  5
5950D
  8
C-P25
 10
16374.687340113331
 20
-7494.5251827466509
 30
0.0
  0
VERTEX
  5
5950E
  8
C-P25
 10
16374.687340113331
 20
-7496.5751827466493
 30
0.0
  0
VERTEX
  5
5950F
  8
C-P25
 10
16372.13734011333
 20
-7496.5751827466493
 30
0.0
  0
VERTEX
  5
59510
  8
C-P25
 10
16372.13734011333
 20
-7499.8251827466493
 30
0.0
  0
VERTEX
  5
59511
  8
C-P25
 10
16369.597340113331
 20
-7499.8251827466493
 30
0.0
  0
VERTEX
  5
59512
  8
C-P25
 10
16369.59734011332
 20
-7507.230182746649
 30
0.0
  0
VERTEX
  5
59513
  8
C-P25
 10
16372.137340113321
 20
-7507.230182746649
 30
0.0
  0
SEQEND
  5
59514
  8
C-P25
  0
POLYLINE
  5
58F57
  8
PROFILO
 66
     1
 10
0.0
 20
0.0
 30
0.0
 70
     1
  0
VERTEX
  5
59515
  8
PROFILO
 10
16402.442081919718
 20
-7507.5376827466534
 30
0.0
  0
VERTEX
  5
59516
  8
PROFILO
 10
16394.112598306951
 20
-7507.5376827466534
 30
0.0
 42
0.9999999999999998
  0
VERTEX
  5
59517
  8
PROFILO
 10
16394.112598306951
 20
-7510.7126827466509
 30
0.0
  0
VERTEX
  5
59518
  8
PROFILO
 10
16402.442081919718
 20
-7510.7126827466509
 30
0.0
 42
0.9999999999999998
  0
SEQEND
  5
59519
  8
PROFILO
  0
POLYLINE
  5
58F58
  8
PROFILO
 66
     1
 10
0.0
 20
0.0
 30
0.0
 70
     1
  0
VERTEX
  5
5951A
  8
PROFILO
 10
16402.442081919718
 20
-7507.125182746654
 30
0.0
  0
VERTEX
  5
5951B
  8
PROFILO
 10
16394.112598306951
 20
-7507.125182746654
 30
0.0
 42
1.0
  0
VERTEX
  5
5951C
  8
PROFILO
 10
16394.112598306951
 20
-7511.1251827466504
 30
0.0
  0
VERTEX
  5
5951D
  8
PROFILO
 10
16402.442081919718
 20
-7511.1251827466504
 30
0.0
 42
1.0
  0
SEQEND
  5
5951E
  8
PROFILO
  0
LINE
  5
58F59
  8
C_P7_LATO_OPPOSTO
 10
16402.442081919718
 20
-7509.1251827466522
 30
0.0
 11
16394.112598306951
 21
-7509.1251827466522
 31
0.0
  0
POLYLINE
  5
58F5A
  8
C-P15
 66
     1
 10
0.0
 20
0.0
 30
0.0
  0
VERTEX
  5
5951F
  8
C-P15
 10
16408.36734011332
 20
-7502.4251827466451
 30
0.0
  0
VERTEX
  5
59520
  8
C-P15
 10
16411.89734011333
 20
-7502.4251827466451
 30
0.0
  0
VERTEX
  5
59521
  8
C-P15
 10
16411.89734011333
 20
-7499.8451827466479
 30
0.0
  0
VERTEX
  5
59522
  8
C-P15
 10
16414.437340113331
 20
-7499.8451827466479
 30
0.0
  0
VERTEX
  5
59523
  8
C-P15
 10
16411.89734011333
 20
-7499.8451827466479
 30
0.0
  0
VERTEX
  5
59524
  8
C-P15
 10
16411.89734011333
 20
-7494.7251827466498
 30
0.0
  0
VERTEX
  5
59525
  8
C-P15
 10
16427.89734011333
 20
-7494.7251827466498
 30
0.0
  0
VERTEX
  5
59526
  8
C-P15
 10
16427.89734011333
 20
-7509.7251827466507
 30
0.0
  0
VERTEX
  5
59527
  8
C-P15
 10
16422.372340113328
 20
-7509.7251827466507
 30
0.0
  0
VERTEX
  5
59528
  8
C-P15
 10
16422.372340113328
 20
-7510.5501827466496
 30
0.0
  0
VERTEX
  5
59529
  8
C-P15
 10
16419.847340113341
 20
-7510.5501827466496
 30
0.0
  0
VERTEX
  5
5952A
  8
C-P15
 10
16419.847340113341
 20
-7511.3751827466504
 30
0.0
  0
VERTEX
  5
5952B
  8
C-P15
 10
16419.847340113341
 20
-7506.8751827466504
 30
0.0
  0
VERTEX
  5
5952C
  8
C-P15
 10
16404.347340113341
 20
-7506.8751827466504
 30
0.0
  0
VERTEX
  5
5952D
  8
C-P15
 10
16404.347340113341
 20
-7511.3751827466504
 30
0.0
  0
VERTEX
  5
5952E
  8
C-P15
 10
16404.347340113341
 20
-7509.1251827466504
 30
0.0
  0
VERTEX
  5
5952F
  8
C-P15
 10
16400.817340113332
 20
-7509.1251827466522
 30
0.0
  0
VERTEX
  5
59530
  8
C-P15
 10
16400.817340113332
 20
-7511.3751827466504
 30
0.0
  0
SEQEND
  5
59531
  8
C-P15
  0
LINE
  5
58F5B
  8
PROFILO
 10
16363.922340113329
 20
-7497.0251827466527
 30
0.0
 11
16336.18632338094
 21
-7497.0251827466527
 31
0.0
  0
POLYLINE
  5
58F5C
  8
PROFILO
 66
     1
 10
0.0
 20
0.0
 30
0.0
  0
VERTEX
  5
59532
  8
PROFILO
 10
16363.922340113329
 20
-7490.0251827466518
 30
0.0
  0
VERTEX
  5
59533
  8
PROFILO
 10
16358.509840113329
 20
-7490.0251827466518
 30
0.0
 42
0.4142135623730951
  0
VERTEX
  5
59534
  8
PROFILO
 10
16356.922340113329
 20
-7491.6126827466524
 30
0.0
  0
VERTEX
  5
59535
  8
PROFILO
 10
16356.922340113329
 20
-7502.4376827466522
 30
0.0
 42
0.4142135623730951
  0
VERTEX
  5
59536
  8
PROFILO
 10
16358.509840113329
 20
-7504.0251827466509
 30
0.0
  0
VERTEX
  5
59537
  8
PROFILO
 10
16363.922340113329
 20
-7504.0251827466509
 30
0.0
  0
SEQEND
  5
59538
  8
PROFILO
  0
POLYLINE
  5
58F5D
  8
C-P15
 66
     1
 10
0.0
 20
0.0
 30
0.0
  0
VERTEX
  5
59539
  8
C-P15
 10
16363.922340113329
 20
-7491.6126827466524
 30
0.0
  0
VERTEX
  5
5953A
  8
C-P15
 10
16358.509840113329
 20
-7491.6126827466524
 30
0.0
  0
VERTEX
  5
5953B
  8
C-P15
 10
16358.509840113329
 20
-7502.4376827466522
 30
0.0
  0
VERTEX
  5
5953C
  8
C-P15
 10
16363.922340113329
 20
-7502.4376827466522
 30
0.0
  0
VERTEX
  5
5953D
  8
C-P15
 10
16363.922340113329
 20
-7491.6126827466524
 30
0.0
  0
VERTEX
  5
5953E
  8
C-P15
 10
16361.922340113329
 20
-7491.6126827466524
 30
0.0
  0
VERTEX
  5
5953F
  8
C-P15
 10
16361.922340113329
 20
-7502.4376827466522
 30
0.0
  0
VERTEX
  5
59540
  8
C-P15
 10
16359.922340113329
 20
-7502.4376827466522
 30
0.0
  0
VERTEX
  5
59541
  8
C-P15
 10
16359.922340113329
 20
-7491.6126827466524
 30
0.0
  0
SEQEND
  5
59542
  8
C-P15
  0
POLYLINE
  5
58F5E
  8
V_P2_LATO_OPPOSTO
 66
     1
 10
0.0
 20
0.0
 30
0.0
  0
VERTEX
  5
59543
  8
V_P2_LATO_OPPOSTO
 10
16402.442081919718
 20
-7509.1251827466522
 30
0.0
  0
VERTEX
  5
59544
  8
V_P2_LATO_OPPOSTO
 10
16394.11259830694
 20
-7509.1251827466522
 30
0.0
  0
SEQEND
  5
59545
  8
V_P2_LATO_OPPOSTO
  0
POLYLINE
  5
58F5F
  8
PROFILO
 66
     1
 10
0.0
 20
0.0
 30
0.0
  0
VERTEX
  5
59546
  8
PROFILO
 10
16825.58086373032
 20
-7432.8501827466453
 30
0.0
  0
VERTEX
  5
59547
  8
PROFILO
 10
16830.993363730318
 20
-7432.8501827466453
 30
0.0
 42
-0.4142135623730951
  0
VERTEX
  5
59548
  8
PROFILO
 10
16832.58086373032
 20
-7434.437682746644
 30
0.0
  0
VERTEX
  5
59549
  8
PROFILO
 10
16832.58086373032
 20
-7445.2626827466456
 30
0.0
 42
-0.4142135623730951
  0
VERTEX
  5
5954A
  8
PROFILO
 10
16830.993363730318
 20
-7446.8501827466453
 30
0.0
  0
VERTEX
  5
5954B
  8
PROFILO
 10
16825.58086373032
 20
-7446.8501827466453
 30
0.0
  0
SEQEND
  5
5954C
  8
PROFILO
  0
POLYLINE
  5
58F60
  8
C-P15
 66
     1
 10
0.0
 20
0.0
 30
0.0
  0
VERTEX
  5
5954D
  8
C-P15
 10
16825.58086373032
 20
-7434.437682746644
 30
0.0
  0
VERTEX
  5
5954E
  8
C-P15
 10
16830.993363730318
 20
-7434.437682746644
 30
0.0
  0
VERTEX
  5
5954F
  8
C-P15
 10
16830.993363730318
 20
-7445.2626827466456
 30
0.0
  0
VERTEX
  5
59550
  8
C-P15
 10
16825.58086373032
 20
-7445.2626827466456
 30
0.0
  0
VERTEX
  5
59551
  8
C-P15
 10
16825.58086373032
 20
-7434.437682746644
 30
0.0
  0
VERTEX
  5
59552
  8
C-P15
 10
16827.58086373032
 20
-7434.437682746644
 30
0.0
  0
VERTEX
  5
59553
  8
C-P15
 10
16827.58086373032
 20
-7445.2626827466456
 30
0.0
  0
VERTEX
  5
59554
  8
C-P15
 10
16829.58086373032
 20
-7445.2626827466456
 30
0.0
  0
VERTEX
  5
59555
  8
C-P15
 10
16829.580863730331
 20
-7434.437682746644
 30
0.0
  0
SEQEND
  5
59556
  8
C-P15
  0
CIRCLE
  5
58F61
  8
PROFILO
 10
16826.905863730321
 20
-7466.8501827466462
 30
0.0
 40
2.25
  0
CIRCLE
  5
58F62
  8
C_P7_LATO_OPPOSTO
 10
16826.905863730321
 20
-7466.8501827466462
 30
0.0
 40
0.6625000000003638
  0
CIRCLE
  5
58F63
  8
PROFILO
 10
16826.905863730321
 20
-7412.8501827466453
 30
0.0
 40
2.25
  0
CIRCLE
  5
58F64
  8
C_P7_LATO_OPPOSTO
 10
16826.905863730321
 20
-7412.8501827466453
 30
0.0
 40
0.6625000000003638
  0
CIRCLE
  5
58F65
  8
PROFILO
 10
16680.405863730321
 20
-7439.8501827466462
 30
0.0
 40
5.0
  0
CIRCLE
  5
58F66
  8
V_P2_LATO_OPPOSTO
 10
16680.405863730321
 20
-7439.8501827466462
 30
0.0
 40
4.5
  0
CIRCLE
  5
58F67
  8
C_P7_LATO_OPPOSTO
 10
16680.405863730321
 20
-7439.8501827466462
 30
0.0
 40
3.4125000000000001
  0
CIRCLE
  5
58F68
  8
PROFILO
 10
16668.655863730321
 20
-7439.8501827466462
 30
0.0
 40
2.25
  0
CIRCLE
  5
58F69
  8
C_P7_LATO_OPPOSTO
 10
16668.655863730321
 20
-7439.8501827466462
 30
0.0
 40
0.6625000000003638
  0
POLYLINE
  5
58F6A
  8
PROFILO
 66
     1
 10
0.0
 20
0.0
 30
0.0
 70
     1
  0
VERTEX
  5
59557
  8
PROFILO
 10
16680.405863730321
 20
-7461.850182746648
 30
0.0
  0
VERTEX
  5
59558
  8
PROFILO
 10
16802.191777401538
 20
-7461.8501827466462
 30
0.0
 42
-0.2797252294881704
  0
VERTEX
  5
59559
  8
PROFILO
 10
16818.034902336891
 20
-7471.4660297930959
 30
0.0
 42
0.7848796439678036
  0
VERTEX
  5
5955A
  8
PROFILO
 10
16836.905863730321
 20
-7466.850182746648
 30
0.0
  0
VERTEX
  5
5955B
  8
PROFILO
 10
16836.905863730321
 20
-7412.8501827466453
 30
0.0
 42
0.7848796439676905
  0
VERTEX
  5
5955C
  8
PROFILO
 10
16818.034902336891
 20
-7408.2343357001992
 30
0.0
 42
-0.2797252294880603
  0
VERTEX
  5
5955D
  8
PROFILO
 10
16802.191777401538
 20
-7417.8501827466444
 30
0.0
  0
VERTEX
  5
5955E
  8
PROFILO
 10
16680.405863730321
 20
-7417.8501827466444
 30
0.0
 42
0.9999999999999998
  0
SEQEND
  5
5955F
  8
PROFILO
  0
POLYLINE
  5
58F6B
  8
C_P7_LATO_OPPOSTO_ESTERNO
 66
     1
 10
0.0
 20
0.0
 30
0.0
 70
     1
  0
VERTEX
  5
59560
  8
C_P7_LATO_OPPOSTO_ESTERNO
 10
16680.405863730321
 20
-7463.4376827466467
 30
0.0
  0
VERTEX
  5
59561
  8
C_P7_LATO_OPPOSTO_ESTERNO
 10
16802.191777401538
 20
-7463.4376827466449
 30
0.0
 42
-0.2797252294881715
  0
VERTEX
  5
59562
  8
C_P7_LATO_OPPOSTO_ESTERNO
 10
16816.626637215679
 20
-7472.1987955117202
 30
0.0
 42
0.7848796439678293
  0
VERTEX
  5
59563
  8
C_P7_LATO_OPPOSTO_ESTERNO
 10
16838.493363730318
 20
-7466.850182746648
 30
0.0
  0
VERTEX
  5
59564
  8
C_P7_LATO_OPPOSTO_ESTERNO
 10
16838.493363730318
 20
-7412.8501827466453
 30
0.0
 42
0.7848796439674693
  0
VERTEX
  5
59565
  8
C_P7_LATO_OPPOSTO_ESTERNO
 10
16816.626637215679
 20
-7407.5015699815749
 30
0.0
 42
-0.2797252294880506
  0
VERTEX
  5
59566
  8
C_P7_LATO_OPPOSTO_ESTERNO
 10
16802.191777401538
 20
-7416.2626827466438
 30
0.0
  0
VERTEX
  5
59567
  8
C_P7_LATO_OPPOSTO_ESTERNO
 10
16680.405863730321
 20
-7416.2626827466438
 30
0.0
 42
1.0
  0
SEQEND
  5
59568
  8
C_P7_LATO_OPPOSTO_ESTERNO
  0
POLYLINE
  5
58F6C
  8
V_P2_LATO_OPPOSTO
 66
     1
 10
0.0
 20
0.0
 30
0.0
 70
     1
  0
VERTEX
  5
59569
  8
V_P2_LATO_OPPOSTO
 10
16680.405863730321
 20
-7462.3501827466462
 30
0.0
  0
VERTEX
  5
5956A
  8
V_P2_LATO_OPPOSTO
 10
16802.191777401538
 20
-7462.3501827466462
 30
0.0
 42
-0.2797252294881667
  0
VERTEX
  5
5956B
  8
V_P2_LATO_OPPOSTO
 10
16817.591354267221
 20
-7471.6968221454181
 30
0.0
 42
0.784879643967842
  0
VERTEX
  5
5956C
  8
V_P2_LATO_OPPOSTO
 10
16837.405863730321
 20
-7466.850182746648
 30
0.0
  0
VERTEX
  5
5956D
  8
V_P2_LATO_OPPOSTO
 10
16837.405863730321
 20
-7412.8501827466453
 30
0.0
 42
0.7848796439677308
  0
VERTEX
  5
5956E
  8
V_P2_LATO_OPPOSTO
 10
16817.591354267221
 20
-7408.0035433478752
 30
0.0
 42
-0.2797252294880535
  0
VERTEX
  5
5956F
  8
V_P2_LATO_OPPOSTO
 10
16802.191777401538
 20
-7417.3501827466444
 30
0.0
  0
VERTEX
  5
59570
  8
V_P2_LATO_OPPOSTO
 10
16680.405863730321
 20
-7417.3501827466444
 30
0.0
 42
1.0
  0
SEQEND
  5
59571
  8
V_P2_LATO_OPPOSTO
  0
CIRCLE
  5
58F6D
  8
PROFILO
 10
16803.625863730322
 20
-7452.6001827466462
 30
0.0
 40
2.25
  0
CIRCLE
  5
58F6E
  8
C_P7_LATO_OPPOSTO
 10
16803.625863730322
 20
-7452.6001827466462
 30
0.0
 40
0.6625000000003638
  0
CIRCLE
  5
58F6F
  8
PROFILO
 10
16770.035863730322
 20
-7443.3501827466434
 30
0.0
 40
2.25
  0
CIRCLE
  5
58F70
  8
C_P7_LATO_OPPOSTO
 10
16770.035863730322
 20
-7443.3501827466434
 30
0.0
 40
0.6625000000003638
  0
POLYLINE
  5
58F71
  8
PROFILO
 66
     1
 10
0.0
 20
0.0
 30
0.0
  0
VERTEX
  5
59572
  8
PROFILO
 10
16770.693363730319
 20
-7431.7743698877448
 30
0.0
  0
VERTEX
  5
59573
  8
PROFILO
 10
16770.693363730319
 20
-7431.9159946781028
 30
0.0
 42
-0.4142135623730951
  0
VERTEX
  5
59574
  8
PROFILO
 10
16769.105863730321
 20
-7433.5034946781016
 30
0.0
  0
VERTEX
  5
59575
  8
PROFILO
 10
16696.105863730321
 20
-7433.5034946781016
 30
0.0
 42
-0.4142135623730951
  0
VERTEX
  5
59576
  8
PROFILO
 10
16694.51836373032
 20
-7431.9159946781028
 30
0.0
  0
VERTEX
  5
59577
  8
PROFILO
 10
16694.51836373032
 20
-7426.784370815184
 30
0.0
 42
-0.4142135623730951
  0
VERTEX
  5
59578
  8
PROFILO
 10
16696.105863730321
 20
-7425.1968708151844
 30
0.0
  0
VERTEX
  5
59579
  8
PROFILO
 10
16769.105863730321
 20
-7425.1968708151844
 30
0.0
 42
-0.4142135623730951
  0
VERTEX
  5
5957A
  8
PROFILO
 10
16770.693363730319
 20
-7426.784370815184
 30
0.0
  0
VERTEX
  5
5957B
  8
PROFILO
 10
16770.693363730319
 20
-7426.9259956055421
 30
0.0
  0
SEQEND
  5
5957C
  8
PROFILO
  0
POLYLINE
  5
58F72
  8
C-P35
 66
     1
 10
0.0
 20
0.0
 30
0.0
  0
VERTEX
  5
5957D
  8
C-P35
 10
16769.105863730321
 20
-7429.3501827466444
 30
0.0
  0
VERTEX
  5
5957E
  8
C-P35
 10
16696.105863730321
 20
-7429.3501827466444
 30
0.0
  0
VERTEX
  5
5957F
  8
C-P35
 10
16696.105863730321
 20
-7431.9159946781028
 30
0.0
  0
VERTEX
  5
59580
  8
C-P35
 10
16769.105863730321
 20
-7431.9159946781028
 30
0.0
  0
VERTEX
  5
59581
  8
C-P35
 10
16769.105863730321
 20
-7426.784370815184
 30
0.0
  0
VERTEX
  5
59582
  8
C-P35
 10
16696.105863730321
 20
-7426.784370815184
 30
0.0
  0
VERTEX
  5
59583
  8
C-P35
 10
16696.105863730321
 20
-7429.3501827466444
 30
0.0
  0
SEQEND
  5
59584
  8
C-P35
  0
POLYLINE
  5
58F73
  8
PROFILO
 66
     1
 10
0.0
 20
0.0
 30
0.0
  0
VERTEX
  5
59585
  8
PROFILO
 10
16770.693363730319
 20
-7431.589022174624
 30
0.0
  0
VERTEX
  5
59586
  8
PROFILO
 10
16770.693363730319
 20
-7432.8861581296233
 30
0.0
 42
-0.4142135623730951
  0
VERTEX
  5
59587
  8
PROFILO
 10
16769.105863730321
 20
-7434.4736581296229
 30
0.0
  0
VERTEX
  5
59588
  8
PROFILO
 10
16696.105863730321
 20
-7434.4736581296229
 30
0.0
 42
-0.4142135623730951
  0
VERTEX
  5
59589
  8
PROFILO
 10
16694.51836373032
 20
-7432.8861581296233
 30
0.0
  0
VERTEX
  5
5958A
  8
PROFILO
 10
16694.51836373032
 20
-7425.8142073636627
 30
0.0
 42
-0.4142135623730951
  0
VERTEX
  5
5958B
  8
PROFILO
 10
16696.105863730321
 20
-7424.226707363664
 30
0.0
  0
VERTEX
  5
5958C
  8
PROFILO
 10
16769.105863730321
 20
-7424.226707363664
 30
0.0
 42
-0.4142135623730951
  0
VERTEX
  5
5958D
  8
PROFILO
 10
16770.693363730319
 20
-7425.8142073636627
 30
0.0
  0
VERTEX
  5
5958E
  8
PROFILO
 10
16770.693363730319
 20
-7427.1113433186629
 30
0.0
  0
SEQEND
  5
5958F
  8
PROFILO
  0
POLYLINE
  5
58F74
  8
C-P2
 66
     1
 10
0.0
 20
0.0
 30
0.0
 70
     1
  0
VERTEX
  5
59590
  8
C-P2
 10
16769.105863730321
 20
-7429.8501827466444
 30
0.0
  0
VERTEX
  5
59591
  8
C-P2
 10
16769.105863730321
 20
-7432.8861581296233
 30
0.0
  0
VERTEX
  5
59592
  8
C-P2
 10
16696.105863730321
 20
-7432.8861581296233
 30
0.0
  0
VERTEX
  5
59593
  8
C-P2
 10
16696.105863730321
 20
-7425.8142073636627
 30
0.0
  0
VERTEX
  5
59594
  8
C-P2
 10
16769.105863730321
 20
-7425.8142073636627
 30
0.0
  0
SEQEND
  5
59595
  8
C-P2
  0
POLYLINE
  5
58F75
  8
PROFILO
 66
     1
 10
0.0
 20
0.0
 30
0.0
 70
     1
  0
VERTEX
  5
59596
  8
PROFILO
 10
16769.105863730321
 20
-7435.1164640439792
 30
0.0
  0
VERTEX
  5
59597
  8
PROFILO
 10
16696.105863730321
 20
-7435.1164640439792
 30
0.0
 42
-0.4142135623727593
  0
VERTEX
  5
59598
  8
PROFILO
 10
16694.518363730331
 20
-7433.5289640439787
 30
0.0
  0
VERTEX
  5
59599
  8
PROFILO
 10
16694.51836373032
 20
-7425.1714014493082
 30
0.0
 42
-0.4142135623734306
  0
VERTEX
  5
5959A
  8
PROFILO
 10
16696.105863730321
 20
-7423.5839014493076
 30
0.0
  0
VERTEX
  5
5959B
  8
PROFILO
 10
16769.105863730321
 20
-7423.5839014493076
 30
0.0
 42
-0.4142135623729608
  0
VERTEX
  5
5959C
  8
PROFILO
 10
16770.693363730319
 20
-7425.1714014493082
 30
0.0
  0
VERTEX
  5
5959D
  8
PROFILO
 10
16770.693363730319
 20
-7433.5289640439787
 30
0.0
 42
-0.4142135623730951
  0
SEQEND
  5
5959E
  8
PROFILO
  0
POLYLINE
  5
58F76
  8
C-P1
 66
     1
 10
0.0
 20
0.0
 30
0.0
 70
     1
  0
VERTEX
  5
5959F
  8
C-P1
 10
16769.105863730321
 20
-7433.5289640439787
 30
0.0
  0
VERTEX
  5
595A0
  8
C-P1
 10
16696.105863730321
 20
-7433.5289640439787
 30
0.0
  0
VERTEX
  5
595A1
  8
C-P1
 10
16696.105863730321
 20
-7425.1714014493082
 30
0.0
  0
VERTEX
  5
595A2
  8
C-P1
 10
16769.105863730321
 20
-7425.1714014493082
 30
0.0
  0
SEQEND
  5
595A3
  8
C-P1
  0
ARC
  5
58F77
  8
PROFILO
 10
16823.993363730318
 20
-7429.8501827466453
 30
0.0
 40
1.587499999999999
 50
0.0
 51
180.0
  0
ARC
  5
58F78
  8
PROFILO
 10
16823.993363730318
 20
-7449.8501827466453
 30
0.0
 40
1.587499999999999
 50
180.0
 51
0.0
  0
POLYLINE
  5
58F79
  8
PROFILO
 66
     1
 10
0.0
 20
0.0
 30
0.0
  0
VERTEX
  5
595A4
  8
PROFILO
 10
16825.58086373032
 20
-7449.8501827466453
 30
0.0
  0
VERTEX
  5
595A5
  8
PROFILO
 10
16825.58086373032
 20
-7429.8501827466453
 30
0.0
  0
SEQEND
  5
595A6
  8
PROFILO
  0
POLYLINE
  5
58F7A
  8
PROFILO
 66
     1
 10
0.0
 20
0.0
 30
0.0
  0
VERTEX
  5
595A7
  8
PROFILO
 10
16822.405863730321
 20
-7429.8501827466453
 30
0.0
  0
VERTEX
  5
595A8
  8
PROFILO
 10
16822.405863730321
 20
-7449.8501827466453
 30
0.0
  0
SEQEND
  5
595A9
  8
PROFILO
  0
POLYLINE
  5
58F7B
  8
C-P3
 66
     1
 10
0.0
 20
0.0
 30
0.0
  0
VERTEX
  5
595AA
  8
C-P3
 10
16823.993363730318
 20
-7449.8501827466453
 30
0.0
  0
VERTEX
  5
595AB
  8
C-P3
 10
16823.993363730318
 20
-7429.8501827466453
 30
0.0
  0
SEQEND
  5
595AC
  8
C-P3
  0
CIRCLE
  5
58F7C
  8
PROFILO
 10
16668.655863730321
 20
-7439.8501827466462
 30
0.0
 40
3.75
  0
CIRCLE
  5
58F7D
  8
C_P3_LATO_OPPOSTO
 10
16668.655863730321
 20
-7439.8501827466462
 30
0.0
 40
2.1625000000000001
  0
CIRCLE
  5
58F7E
  8
PROFILO
 10
16770.035863730322
 20
-7443.3501827466434
 30
0.0
 40
3.75
  0
CIRCLE
  5
58F7F
  8
C_P3_LATO_OPPOSTO
 10
16770.035863730322
 20
-7443.3501827466434
 30
0.0
 40
2.1625000000000001
  0
CIRCLE
  5
58F80
  8
PROFILO
 10
16803.625863730322
 20
-7452.6001827466462
 30
0.0
 40
3.75
  0
CIRCLE
  5
58F81
  8
C_P3_LATO_OPPOSTO
 10
16803.625863730322
 20
-7452.6001827466462
 30
0.0
 40
2.1625000000000001
  0
CIRCLE
  5
58F82
  8
PROFILO
 10
16826.905863730321
 20
-7466.8501827466462
 30
0.0
 40
3.75
  0
CIRCLE
  5
58F83
  8
C_P3_LATO_OPPOSTO
 10
16826.905863730321
 20
-7466.8501827466462
 30
0.0
 40
2.1625000000000001
  0
CIRCLE
  5
58F84
  8
PROFILO
 10
16826.905863730321
 20
-7412.8501827466453
 30
0.0
 40
3.75
  0
CIRCLE
  5
58F85
  8
C_P3_LATO_OPPOSTO
 10
16826.905863730321
 20
-7412.8501827466453
 30
0.0
 40
2.1625000000000001
  0
POLYLINE
  5
58F86
  8
C-P05
 66
     1
 10
0.0
 20
0.0
 30
0.0
  0
VERTEX
  5
595AD
  8
C-P05
 10
16788.08086373032
 20
-7428.8501827466416
 30
0.0
  0
VERTEX
  5
595AE
  8
C-P05
 10
16788.08086373032
 20
-7416.2626827466438
 30
0.0
  0
VERTEX
  5
595AF
  8
C-P05
 10
16789.668363730321
 20
-7416.2626827466438
 30
0.0
  0
VERTEX
  5
595B0
  8
C-P05
 10
16789.668363730321
 20
-7428.8501827466398
 30
0.0
  0
VERTEX
  5
595B1
  8
C-P05
 10
16786.493363730318
 20
-7428.8501827466398
 30
0.0
  0
VERTEX
  5
595B2
  8
C-P05
 10
16786.493363730318
 20
-7416.2626827466438
 30
0.0
  0
VERTEX
  5
595B3
  8
C-P05
 10
16791.01836373032
 20
-7416.2626827466438
 30
0.0
  0
VERTEX
  5
595B4
  8
C-P05
 10
16791.018363730331
 20
-7428.8501827466398
 30
0.0
  0
VERTEX
  5
595B5
  8
C-P05
 10
16789.668363730321
 20
-7428.8501827466398
 30
0.0
  0
SEQEND
  5
595B6
  8
C-P05
  0
POLYLINE
  5
58F87
  8
PROFILO
 66
     1
 10
0.0
 20
0.0
 30
0.0
  0
VERTEX
  5
595B7
  8
PROFILO
 10
16784.905863730321
 20
-7417.8501827466444
 30
0.0
  0
VERTEX
  5
595B8
  8
PROFILO
 10
16784.905863730321
 20
-7428.8501827466416
 30
0.0
 42
0.4142135623729608
  0
VERTEX
  5
595B9
  8
PROFILO
 10
16786.493363730318
 20
-7430.4376827466413
 30
0.0
  0
VERTEX
  5
595BA
  8
PROFILO
 10
16791.01836373032
 20
-7430.4376827466413
 30
0.0
 42
0.4142135623729608
  0
VERTEX
  5
595BB
  8
PROFILO
 10
16792.605863730321
 20
-7428.8501827466416
 30
0.0
  0
VERTEX
  5
595BC
  8
PROFILO
 10
16792.605863730321
 20
-7417.8501827466444
 30
0.0
  0
SEQEND
  5
595BD
  8
PROFILO
  0
POLYLINE
  5
58F88
  8
PROFILO
 66
     1
 10
0.0
 20
0.0
 30
0.0
  0
VERTEX
  5
595BE
  8
PROFILO
 10
16798.405863730321
 20
-7429.8501827466453
 30
0.0
 42
0.4142135623729608
  0
VERTEX
  5
595BF
  8
PROFILO
 10
16796.818363730319
 20
-7428.2626827466456
 30
0.0
  0
VERTEX
  5
595C0
  8
PROFILO
 10
16794.193363730319
 20
-7428.2626827466456
 30
0.0
 42
0.4142135623730951
  0
VERTEX
  5
595C1
  8
PROFILO
 10
16792.605863730321
 20
-7429.8501827466453
 30
0.0
  0
VERTEX
  5
595C2
  8
PROFILO
 10
16792.605863730321
 20
-7446.5626827466413
 30
0.0
 42
0.4142135623730951
  0
VERTEX
  5
595C3
  8
PROFILO
 10
16794.193363730319
 20
-7448.1501827466409
 30
0.0
  0
VERTEX
  5
595C4
  8
PROFILO
 10
16818.778363730318
 20
-7448.1501827466409
 30
0.0
 42
0.4142135623730951
  0
VERTEX
  5
595C5
  8
PROFILO
 10
16820.36586373032
 20
-7446.5626827466413
 30
0.0
  0
VERTEX
  5
595C6
  8
PROFILO
 10
16820.36586373032
 20
-7445.3176827466486
 30
0.0
 42
0.4142135623729608
  0
VERTEX
  5
595C7
  8
PROFILO
 10
16818.778363730318
 20
-7443.7301827466499
 30
0.0
  0
VERTEX
  5
595C8
  8
PROFILO
 10
16798.405863730321
 20
-7443.7301827466499
 30
0.0
  0
VERTEX
  5
595C9
  8
PROFILO
 10
16798.405863730321
 20
-7429.8501827466453
 30
0.0
  0
SEQEND
  5
595CA
  8
PROFILO
  0
POLYLINE
  5
58F89
  8
C-P3
 66
     1
 10
0.0
 20
0.0
 30
0.0
  0
VERTEX
  5
595CB
  8
C-P3
 10
16794.193363730319
 20
-7429.8501827466453
 30
0.0
  0
VERTEX
  5
595CC
  8
C-P3
 10
16794.193363730319
 20
-7446.5626827466413
 30
0.0
  0
VERTEX
  5
595CD
  8
C-P3
 10
16818.778363730318
 20
-7446.5626827466413
 30
0.0
  0
VERTEX
  5
595CE
  8
C-P3
 10
16818.778363730318
 20
-7445.3176827466486
 30
0.0
  0
VERTEX
  5
595CF
  8
C-P3
 10
16796.818363730319
 20
-7445.3176827466486
 30
0.0
  0
VERTEX
  5
595D0
  8
C-P3
 10
16796.818363730319
 20
-7429.8501827466453
 30
0.0
  0
VERTEX
  5
595D1
  8
C-P3
 10
16794.193363730319
 20
-7429.8501827466453
 30
0.0
  0
VERTEX
  5
595D2
  8
C-P3
 10
16795.505863730319
 20
-7429.8501827466453
 30
0.0
  0
VERTEX
  5
595D3
  8
C-P3
 10
16795.505863730319
 20
-7446.5626827466413
 30
0.0
  0
SEQEND
  5
595D4
  8
C-P3
  0
CIRCLE
  5
58F8A
  8
C-P3
 10
16760.005863730319
 20
-7449.9501827466438
 30
0.0
 40
2.4125000000000001
  0
CIRCLE
  5
58F8B
  8
C-P3
 10
16760.005863730319
 20
-7449.9501827466438
 30
0.0
 40
0.8250000000000001
  0
POLYLINE
  5
58F8C
  8
PROFILO
 66
     1
 10
0.0
 20
0.0
 30
0.0
 70
     1
  0
VERTEX
  5
595D5
  8
PROFILO
 10
16726.208363730319
 20
-7438.4787818729437
 30
0.0
  0
VERTEX
  5
595D6
  8
PROFILO
 10
16726.208363730319
 20
-7453.0215836203406
 30
0.0
 42
1.0
  0
VERTEX
  5
595D7
  8
PROFILO
 10
16730.383363730321
 20
-7453.0215836203406
 30
0.0
  0
VERTEX
  5
595D8
  8
PROFILO
 10
16730.383363730321
 20
-7438.4787818729437
 30
0.0
 42
1.0
  0
SEQEND
  5
595D9
  8
PROFILO
  0
LINE
  5
58F8D
  8
C_P7_LATO_OPPOSTO
 10
16728.29586373032
 20
-7453.0215836203406
 30
0.0
 11
16728.29586373032
 21
-7438.4787818729437
 31
0.0
  0
POLYLINE
  5
58F8E
  8
V-P0
 66
     1
 10
0.0
 20
0.0
 30
0.0
  0
VERTEX
  5
595DA
  8
V-P0
 10
16672.881420577149
 20
-7419.1769450893544
 30
0.0
  0
VERTEX
  5
595DB
  8
V-P0
 10
16680.405863730321
 20
-7439.8501827466462
 30
0.0
  0
VERTEX
  5
595DC
  8
V-P0
 10
16672.881420577149
 20
-7460.5234204039361
 30
0.0
  0
SEQEND
  5
595DD
  8
V-P0
  0
POLYLINE
  5
58F8F
  8
PROFILO
 66
     1
 10
0.0
 20
0.0
 30
0.0
  0
VERTEX
  5
595DE
  8
PROFILO
 10
16561.839101921829
 20
-7432.8501827466453
 30
0.0
  0
VERTEX
  5
595DF
  8
PROFILO
 10
16567.251601921831
 20
-7432.8501827466453
 30
0.0
 42
-0.4142135623730951
  0
VERTEX
  5
595E0
  8
PROFILO
 10
16568.839101921829
 20
-7434.437682746644
 30
0.0
  0
VERTEX
  5
595E1
  8
PROFILO
 10
16568.839101921829
 20
-7445.2626827466456
 30
0.0
 42
-0.4142135623730951
  0
VERTEX
  5
595E2
  8
PROFILO
 10
16567.251601921831
 20
-7446.8501827466453
 30
0.0
  0
VERTEX
  5
595E3
  8
PROFILO
 10
16561.839101921829
 20
-7446.8501827466453
 30
0.0
  0
SEQEND
  5
595E4
  8
PROFILO
  0
POLYLINE
  5
58F90
  8
C-P15
 66
     1
 10
0.0
 20
0.0
 30
0.0
  0
VERTEX
  5
595E5
  8
C-P15
 10
16561.839101921829
 20
-7434.437682746644
 30
0.0
  0
VERTEX
  5
595E6
  8
C-P15
 10
16567.251601921831
 20
-7434.437682746644
 30
0.0
  0
VERTEX
  5
595E7
  8
C-P15
 10
16567.251601921831
 20
-7445.2626827466456
 30
0.0
  0
VERTEX
  5
595E8
  8
C-P15
 10
16561.839101921829
 20
-7445.2626827466456
 30
0.0
  0
VERTEX
  5
595E9
  8
C-P15
 10
16561.839101921829
 20
-7434.437682746644
 30
0.0
  0
VERTEX
  5
595EA
  8
C-P15
 10
16563.839101921829
 20
-7434.437682746644
 30
0.0
  0
VERTEX
  5
595EB
  8
C-P15
 10
16563.839101921829
 20
-7445.2626827466456
 30
0.0
  0
VERTEX
  5
595EC
  8
C-P15
 10
16565.839101921829
 20
-7445.2626827466456
 30
0.0
  0
VERTEX
  5
595ED
  8
C-P15
 10
16565.839101921829
 20
-7434.437682746644
 30
0.0
  0
SEQEND
  5
595EE
  8
C-P15
  0
CIRCLE
  5
58F91
  8
PROFILO
 10
16563.16410192183
 20
-7466.8501827466462
 30
0.0
 40
2.25
  0
CIRCLE
  5
58F92
  8
C_P7_LATO_OPPOSTO
 10
16563.16410192183
 20
-7466.8501827466462
 30
0.0
 40
0.6625000000003638
  0
CIRCLE
  5
58F93
  8
PROFILO
 10
16563.16410192183
 20
-7412.8501827466453
 30
0.0
 40
2.25
  0
CIRCLE
  5
58F94
  8
C_P7_LATO_OPPOSTO
 10
16563.16410192183
 20
-7412.8501827466453
 30
0.0
 40
0.6625000000003638
  0
CIRCLE
  5
58F95
  8
PROFILO
 10
16416.66410192183
 20
-7439.8501827466462
 30
0.0
 40
5.0
  0
CIRCLE
  5
58F96
  8
V_P2_LATO_OPPOSTO
 10
16416.66410192183
 20
-7439.8501827466462
 30
0.0
 40
4.5
  0
CIRCLE
  5
58F97
  8
C_P7_LATO_OPPOSTO
 10
16416.66410192183
 20
-7439.8501827466462
 30
0.0
 40
3.4125000000000001
  0
CIRCLE
  5
58F98
  8
PROFILO
 10
16404.91410192183
 20
-7439.8501827466462
 30
0.0
 40
2.25
  0
CIRCLE
  5
58F99
  8
C_P7_LATO_OPPOSTO
 10
16404.91410192183
 20
-7439.8501827466462
 30
0.0
 40
0.6625000000003638
  0
POLYLINE
  5
58F9A
  8
PROFILO
 66
     1
 10
0.0
 20
0.0
 30
0.0
 70
     1
  0
VERTEX
  5
595EF
  8
PROFILO
 10
16416.66410192183
 20
-7461.850182746648
 30
0.0
  0
VERTEX
  5
595F0
  8
PROFILO
 10
16538.45001559304
 20
-7461.8501827466462
 30
0.0
 42
-0.2797252294881704
  0
VERTEX
  5
595F1
  8
PROFILO
 10
16554.293140528389
 20
-7471.4660297930959
 30
0.0
 42
0.7848796439678036
  0
VERTEX
  5
595F2
  8
PROFILO
 10
16573.16410192183
 20
-7466.850182746648
 30
0.0
  0
VERTEX
  5
595F3
  8
PROFILO
 10
16573.16410192183
 20
-7412.8501827466453
 30
0.0
 42
0.7848796439676905
  0
VERTEX
  5
595F4
  8
PROFILO
 10
16554.293140528389
 20
-7408.2343357001992
 30
0.0
 42
-0.2797252294880603
  0
VERTEX
  5
595F5
  8
PROFILO
 10
16538.450015593051
 20
-7417.8501827466444
 30
0.0
  0
VERTEX
  5
595F6
  8
PROFILO
 10
16416.66410192183
 20
-7417.8501827466444
 30
0.0
 42
0.9999999999999998
  0
SEQEND
  5
595F7
  8
PROFILO
  0
POLYLINE
  5
58F9B
  8
C_P7_LATO_OPPOSTO_ESTERNO
 66
     1
 10
0.0
 20
0.0
 30
0.0
 70
     1
  0
VERTEX
  5
595F8
  8
C_P7_LATO_OPPOSTO_ESTERNO
 10
16416.66410192183
 20
-7463.4376827466467
 30
0.0
  0
VERTEX
  5
595F9
  8
C_P7_LATO_OPPOSTO_ESTERNO
 10
16538.45001559304
 20
-7463.4376827466449
 30
0.0
 42
-0.2797252294881715
  0
VERTEX
  5
595FA
  8
C_P7_LATO_OPPOSTO_ESTERNO
 10
16552.884875407191
 20
-7472.1987955117202
 30
0.0
 42
0.7848796439678293
  0
VERTEX
  5
595FB
  8
C_P7_LATO_OPPOSTO_ESTERNO
 10
16574.751601921831
 20
-7466.850182746648
 30
0.0
  0
VERTEX
  5
595FC
  8
C_P7_LATO_OPPOSTO_ESTERNO
 10
16574.751601921831
 20
-7412.8501827466453
 30
0.0
 42
0.7848796439674693
  0
VERTEX
  5
595FD
  8
C_P7_LATO_OPPOSTO_ESTERNO
 10
16552.884875407191
 20
-7407.5015699815749
 30
0.0
 42
-0.2797252294880506
  0
VERTEX
  5
595FE
  8
C_P7_LATO_OPPOSTO_ESTERNO
 10
16538.450015593051
 20
-7416.2626827466438
 30
0.0
  0
VERTEX
  5
595FF
  8
C_P7_LATO_OPPOSTO_ESTERNO
 10
16416.66410192183
 20
-7416.2626827466438
 30
0.0
 42
1.0
  0
SEQEND
  5
59600
  8
C_P7_LATO_OPPOSTO_ESTERNO
  0
POLYLINE
  5
58F9C
  8
V_P2_LATO_OPPOSTO
 66
     1
 10
0.0
 20
0.0
 30
0.0
 70
     1
  0
VERTEX
  5
59601
  8
V_P2_LATO_OPPOSTO
 10
16416.66410192183
 20
-7462.3501827466462
 30
0.0
  0
VERTEX
  5
59602
  8
V_P2_LATO_OPPOSTO
 10
16538.45001559304
 20
-7462.3501827466462
 30
0.0
 42
-0.2797252294881667
  0
VERTEX
  5
59603
  8
V_P2_LATO_OPPOSTO
 10
16553.849592458719
 20
-7471.6968221454181
 30
0.0
 42
0.784879643967842
  0
VERTEX
  5
59604
  8
V_P2_LATO_OPPOSTO
 10
16573.66410192183
 20
-7466.850182746648
 30
0.0
  0
VERTEX
  5
59605
  8
V_P2_LATO_OPPOSTO
 10
16573.66410192183
 20
-7412.8501827466453
 30
0.0
 42
0.7848796439677308
  0
VERTEX
  5
59606
  8
V_P2_LATO_OPPOSTO
 10
16553.849592458719
 20
-7408.0035433478752
 30
0.0
 42
-0.2797252294880535
  0
VERTEX
  5
59607
  8
V_P2_LATO_OPPOSTO
 10
16538.450015593051
 20
-7417.3501827466444
 30
0.0
  0
VERTEX
  5
59608
  8
V_P2_LATO_OPPOSTO
 10
16416.66410192183
 20
-7417.3501827466444
 30
0.0
 42
1.0
  0
SEQEND
  5
59609
  8
V_P2_LATO_OPPOSTO
  0
CIRCLE
  5
58F9D
  8
PROFILO
 10
16539.88410192182
 20
-7452.6001827466462
 30
0.0
 40
2.25
  0
CIRCLE
  5
58F9E
  8
C_P7_LATO_OPPOSTO
 10
16539.88410192182
 20
-7452.6001827466462
 30
0.0
 40
0.6625000000003638
  0
CIRCLE
  5
58F9F
  8
PROFILO
 10
16506.29410192182
 20
-7443.3501827466434
 30
0.0
 40
2.25
  0
CIRCLE
  5
58FA0
  8
C_P7_LATO_OPPOSTO
 10
16506.29410192182
 20
-7443.3501827466434
 30
0.0
 40
0.6625000000003638
  0
POLYLINE
  5
58FA1
  8
PROFILO
 66
     1
 10
0.0
 20
0.0
 30
0.0
  0
VERTEX
  5
5960A
  8
PROFILO
 10
16506.951601921832
 20
-7431.7743698877448
 30
0.0
  0
VERTEX
  5
5960B
  8
PROFILO
 10
16506.951601921832
 20
-7431.9159946781028
 30
0.0
 42
-0.4142135623730951
  0
VERTEX
  5
5960C
  8
PROFILO
 10
16505.364101921819
 20
-7433.5034946781016
 30
0.0
  0
VERTEX
  5
5960D
  8
PROFILO
 10
16432.36410192183
 20
-7433.5034946781016
 30
0.0
 42
-0.4142135623730951
  0
VERTEX
  5
5960E
  8
PROFILO
 10
16430.776601921829
 20
-7431.9159946781028
 30
0.0
  0
VERTEX
  5
5960F
  8
PROFILO
 10
16430.776601921829
 20
-7426.784370815184
 30
0.0
 42
-0.4142135623730951
  0
VERTEX
  5
59610
  8
PROFILO
 10
16432.36410192183
 20
-7425.1968708151844
 30
0.0
  0
VERTEX
  5
59611
  8
PROFILO
 10
16505.364101921819
 20
-7425.1968708151844
 30
0.0
 42
-0.4142135623730951
  0
VERTEX
  5
59612
  8
PROFILO
 10
16506.951601921832
 20
-7426.784370815184
 30
0.0
  0
VERTEX
  5
59613
  8
PROFILO
 10
16506.951601921832
 20
-7426.9259956055421
 30
0.0
  0
SEQEND
  5
59614
  8
PROFILO
  0
POLYLINE
  5
58FA2
  8
C-P35
 66
     1
 10
0.0
 20
0.0
 30
0.0
  0
VERTEX
  5
59615
  8
C-P35
 10
16505.364101921819
 20
-7429.3501827466444
 30
0.0
  0
VERTEX
  5
59616
  8
C-P35
 10
16432.36410192183
 20
-7429.3501827466444
 30
0.0
  0
VERTEX
  5
59617
  8
C-P35
 10
16432.36410192183
 20
-7431.9159946781028
 30
0.0
  0
VERTEX
  5
59618
  8
C-P35
 10
16505.364101921819
 20
-7431.9159946781028
 30
0.0
  0
VERTEX
  5
59619
  8
C-P35
 10
16505.364101921819
 20
-7426.784370815184
 30
0.0
  0
VERTEX
  5
5961A
  8
C-P35
 10
16432.36410192183
 20
-7426.784370815184
 30
0.0
  0
VERTEX
  5
5961B
  8
C-P35
 10
16432.36410192183
 20
-7429.3501827466444
 30
0.0
  0
SEQEND
  5
5961C
  8
C-P35
  0
POLYLINE
  5
58FA3
  8
PROFILO
 66
     1
 10
0.0
 20
0.0
 30
0.0
  0
VERTEX
  5
5961D
  8
PROFILO
 10
16506.951601921832
 20
-7431.589022174624
 30
0.0
  0
VERTEX
  5
5961E
  8
PROFILO
 10
16506.951601921832
 20
-7432.8861581296233
 30
0.0
 42
-0.4142135623730951
  0
VERTEX
  5
5961F
  8
PROFILO
 10
16505.364101921819
 20
-7434.4736581296229
 30
0.0
  0
VERTEX
  5
59620
  8
PROFILO
 10
16432.36410192183
 20
-7434.4736581296229
 30
0.0
 42
-0.4142135623730951
  0
VERTEX
  5
59621
  8
PROFILO
 10
16430.776601921829
 20
-7432.8861581296233
 30
0.0
  0
VERTEX
  5
59622
  8
PROFILO
 10
16430.776601921829
 20
-7425.8142073636627
 30
0.0
 42
-0.4142135623730951
  0
VERTEX
  5
59623
  8
PROFILO
 10
16432.36410192183
 20
-7424.226707363664
 30
0.0
  0
VERTEX
  5
59624
  8
PROFILO
 10
16505.364101921819
 20
-7424.226707363664
 30
0.0
 42
-0.4142135623730951
  0
VERTEX
  5
59625
  8
PROFILO
 10
16506.951601921832
 20
-7425.8142073636627
 30
0.0
  0
VERTEX
  5
59626
  8
PROFILO
 10
16506.951601921832
 20
-7427.1113433186629
 30
0.0
  0
SEQEND
  5
59627
  8
PROFILO
  0
POLYLINE
  5
58FA4
  8
C-P2
 66
     1
 10
0.0
 20
0.0
 30
0.0
 70
     1
  0
VERTEX
  5
59628
  8
C-P2
 10
16505.364101921819
 20
-7429.8501827466444
 30
0.0
  0
VERTEX
  5
59629
  8
C-P2
 10
16505.364101921819
 20
-7432.8861581296233
 30
0.0
  0
VERTEX
  5
5962A
  8
C-P2
 10
16432.36410192183
 20
-7432.8861581296233
 30
0.0
  0
VERTEX
  5
5962B
  8
C-P2
 10
16432.36410192183
 20
-7425.8142073636627
 30
0.0
  0
VERTEX
  5
5962C
  8
C-P2
 10
16505.364101921819
 20
-7425.8142073636627
 30
0.0
  0
SEQEND
  5
5962D
  8
C-P2
  0
POLYLINE
  5
58FA5
  8
PROFILO
 66
     1
 10
0.0
 20
0.0
 30
0.0
 70
     1
  0
VERTEX
  5
5962E
  8
PROFILO
 10
16505.364101921819
 20
-7435.1164640439792
 30
0.0
  0
VERTEX
  5
5962F
  8
PROFILO
 10
16432.36410192183
 20
-7435.1164640439792
 30
0.0
 42
-0.4142135623727593
  0
VERTEX
  5
59630
  8
PROFILO
 10
16430.776601921829
 20
-7433.5289640439787
 30
0.0
  0
VERTEX
  5
59631
  8
PROFILO
 10
16430.776601921822
 20
-7425.1714014493082
 30
0.0
 42
-0.4142135623734306
  0
VERTEX
  5
59632
  8
PROFILO
 10
16432.36410192183
 20
-7423.5839014493076
 30
0.0
  0
VERTEX
  5
59633
  8
PROFILO
 10
16505.364101921819
 20
-7423.5839014493076
 30
0.0
 42
-0.4142135623729608
  0
VERTEX
  5
59634
  8
PROFILO
 10
16506.951601921832
 20
-7425.1714014493082
 30
0.0
  0
VERTEX
  5
59635
  8
PROFILO
 10
16506.951601921832
 20
-7433.5289640439787
 30
0.0
 42
-0.4142135623730951
  0
SEQEND
  5
59636
  8
PROFILO
  0
POLYLINE
  5
58FA6
  8
C-P1
 66
     1
 10
0.0
 20
0.0
 30
0.0
 70
     1
  0
VERTEX
  5
59637
  8
C-P1
 10
16505.364101921819
 20
-7433.5289640439787
 30
0.0
  0
VERTEX
  5
59638
  8
C-P1
 10
16432.36410192183
 20
-7433.5289640439787
 30
0.0
  0
VERTEX
  5
59639
  8
C-P1
 10
16432.36410192183
 20
-7425.1714014493082
 30
0.0
  0
VERTEX
  5
5963A
  8
C-P1
 10
16505.364101921819
 20
-7425.1714014493082
 30
0.0
  0
SEQEND
  5
5963B
  8
C-P1
  0
ARC
  5
58FA7
  8
PROFILO
 10
16560.251601921831
 20
-7429.8501827466453
 30
0.0
 40
1.587499999999999
 50
0.0
 51
180.0
  0
ARC
  5
58FA8
  8
PROFILO
 10
16560.251601921831
 20
-7449.8501827466453
 30
0.0
 40
1.587499999999999
 50
180.0
 51
0.0
  0
POLYLINE
  5
58FA9
  8
PROFILO
 66
     1
 10
0.0
 20
0.0
 30
0.0
  0
VERTEX
  5
5963C
  8
PROFILO
 10
16561.839101921829
 20
-7449.8501827466453
 30
0.0
  0
VERTEX
  5
5963D
  8
PROFILO
 10
16561.839101921829
 20
-7429.8501827466453
 30
0.0
  0
SEQEND
  5
5963E
  8
PROFILO
  0
POLYLINE
  5
58FAA
  8
PROFILO
 66
     1
 10
0.0
 20
0.0
 30
0.0
  0
VERTEX
  5
5963F
  8
PROFILO
 10
16558.66410192183
 20
-7429.8501827466453
 30
0.0
  0
VERTEX
  5
59640
  8
PROFILO
 10
16558.66410192183
 20
-7449.8501827466453
 30
0.0
  0
SEQEND
  5
59641
  8
PROFILO
  0
POLYLINE
  5
58FAB
  8
C-P3
 66
     1
 10
0.0
 20
0.0
 30
0.0
  0
VERTEX
  5
59642
  8
C-P3
 10
16560.251601921831
 20
-7449.8501827466453
 30
0.0
  0
VERTEX
  5
59643
  8
C-P3
 10
16560.251601921831
 20
-7429.8501827466453
 30
0.0
  0
SEQEND
  5
59644
  8
C-P3
  0
CIRCLE
  5
58FAC
  8
PROFILO
 10
16404.91410192183
 20
-7439.8501827466462
 30
0.0
 40
3.75
  0
CIRCLE
  5
58FAD
  8
C_P3_LATO_OPPOSTO
 10
16404.91410192183
 20
-7439.8501827466462
 30
0.0
 40
2.1625000000000001
  0
CIRCLE
  5
58FAE
  8
PROFILO
 10
16506.29410192182
 20
-7443.3501827466434
 30
0.0
 40
3.75
  0
CIRCLE
  5
58FAF
  8
C_P3_LATO_OPPOSTO
 10
16506.29410192182
 20
-7443.3501827466434
 30
0.0
 40
2.1625000000000001
  0
CIRCLE
  5
58FB0
  8
PROFILO
 10
16539.88410192182
 20
-7452.6001827466462
 30
0.0
 40
3.75
  0
CIRCLE
  5
58FB1
  8
C_P3_LATO_OPPOSTO
 10
16539.88410192182
 20
-7452.6001827466462
 30
0.0
 40
2.1625000000000001
  0
CIRCLE
  5
58FB2
  8
PROFILO
 10
16563.16410192183
 20
-7466.8501827466462
 30
0.0
 40
3.75
  0
CIRCLE
  5
58FB3
  8
C_P3_LATO_OPPOSTO
 10
16563.16410192183
 20
-7466.8501827466462
 30
0.0
 40
2.1625000000000001
  0
CIRCLE
  5
58FB4
  8
PROFILO
 10
16563.16410192183
 20
-7412.8501827466453
 30
0.0
 40
3.75
  0
CIRCLE
  5
58FB5
  8
C_P3_LATO_OPPOSTO
 10
16563.16410192183
 20
-7412.8501827466453
 30
0.0
 40
2.1625000000000001
  0
POLYLINE
  5
58FB6
  8
C-P05
 66
     1
 10
0.0
 20
0.0
 30
0.0
  0
VERTEX
  5
59645
  8
C-P05
 10
16524.339101921822
 20
-7428.8501827466416
 30
0.0
  0
VERTEX
  5
59646
  8
C-P05
 10
16524.339101921822
 20
-7416.2626827466438
 30
0.0
  0
VERTEX
  5
59647
  8
C-P05
 10
16525.926601921819
 20
-7416.2626827466438
 30
0.0
  0
VERTEX
  5
59648
  8
C-P05
 10
16525.926601921819
 20
-7428.8501827466398
 30
0.0
  0
VERTEX
  5
59649
  8
C-P05
 10
16522.751601921831
 20
-7428.8501827466398
 30
0.0
  0
VERTEX
  5
5964A
  8
C-P05
 10
16522.751601921831
 20
-7416.2626827466438
 30
0.0
  0
VERTEX
  5
5964B
  8
C-P05
 10
16527.276601921829
 20
-7416.2626827466438
 30
0.0
  0
VERTEX
  5
5964C
  8
C-P05
 10
16527.276601921829
 20
-7428.8501827466398
 30
0.0
  0
VERTEX
  5
5964D
  8
C-P05
 10
16525.926601921819
 20
-7428.8501827466398
 30
0.0
  0
SEQEND
  5
5964E
  8
C-P05
  0
POLYLINE
  5
58FB7
  8
PROFILO
 66
     1
 10
0.0
 20
0.0
 30
0.0
  0
VERTEX
  5
5964F
  8
PROFILO
 10
16521.16410192183
 20
-7417.8501827466444
 30
0.0
  0
VERTEX
  5
59650
  8
PROFILO
 10
16521.16410192183
 20
-7428.8501827466416
 30
0.0
 42
0.4142135623729608
  0
VERTEX
  5
59651
  8
PROFILO
 10
16522.751601921831
 20
-7430.4376827466413
 30
0.0
  0
VERTEX
  5
59652
  8
PROFILO
 10
16527.276601921829
 20
-7430.4376827466413
 30
0.0
 42
0.4142135623729608
  0
VERTEX
  5
59653
  8
PROFILO
 10
16528.864101921819
 20
-7428.8501827466416
 30
0.0
  0
VERTEX
  5
59654
  8
PROFILO
 10
16528.864101921819
 20
-7417.8501827466444
 30
0.0
  0
SEQEND
  5
59655
  8
PROFILO
  0
POLYLINE
  5
58FB8
  8
PROFILO
 66
     1
 10
0.0
 20
0.0
 30
0.0
  0
VERTEX
  5
59656
  8
PROFILO
 10
16534.66410192183
 20
-7429.8501827466453
 30
0.0
 42
0.4142135623729608
  0
VERTEX
  5
59657
  8
PROFILO
 10
16533.076601921832
 20
-7428.2626827466456
 30
0.0
  0
VERTEX
  5
59658
  8
PROFILO
 10
16530.451601921832
 20
-7428.2626827466456
 30
0.0
 42
0.4142135623730951
  0
VERTEX
  5
59659
  8
PROFILO
 10
16528.864101921819
 20
-7429.8501827466453
 30
0.0
  0
VERTEX
  5
5965A
  8
PROFILO
 10
16528.864101921819
 20
-7446.5626827466413
 30
0.0
 42
0.4142135623730951
  0
VERTEX
  5
5965B
  8
PROFILO
 10
16530.451601921832
 20
-7448.1501827466409
 30
0.0
  0
VERTEX
  5
5965C
  8
PROFILO
 10
16555.036601921831
 20
-7448.1501827466409
 30
0.0
 42
0.4142135623730951
  0
VERTEX
  5
5965D
  8
PROFILO
 10
16556.624101921829
 20
-7446.5626827466413
 30
0.0
  0
VERTEX
  5
5965E
  8
PROFILO
 10
16556.624101921829
 20
-7445.3176827466486
 30
0.0
 42
0.4142135623729608
  0
VERTEX
  5
5965F
  8
PROFILO
 10
16555.036601921831
 20
-7443.7301827466499
 30
0.0
  0
VERTEX
  5
59660
  8
PROFILO
 10
16534.66410192183
 20
-7443.7301827466499
 30
0.0
  0
VERTEX
  5
59661
  8
PROFILO
 10
16534.66410192183
 20
-7429.8501827466453
 30
0.0
  0
SEQEND
  5
59662
  8
PROFILO
  0
POLYLINE
  5
58FB9
  8
C-P3
 66
     1
 10
0.0
 20
0.0
 30
0.0
  0
VERTEX
  5
59663
  8
C-P3
 10
16530.451601921832
 20
-7429.8501827466453
 30
0.0
  0
VERTEX
  5
59664
  8
C-P3
 10
16530.451601921832
 20
-7446.5626827466413
 30
0.0
  0
VERTEX
  5
59665
  8
C-P3
 10
16555.036601921831
 20
-7446.5626827466413
 30
0.0
  0
VERTEX
  5
59666
  8
C-P3
 10
16555.036601921831
 20
-7445.3176827466486
 30
0.0
  0
VERTEX
  5
59667
  8
C-P3
 10
16533.076601921832
 20
-7445.3176827466486
 30
0.0
  0
VERTEX
  5
59668
  8
C-P3
 10
16533.076601921832
 20
-7429.8501827466453
 30
0.0
  0
VERTEX
  5
59669
  8
C-P3
 10
16530.451601921832
 20
-7429.8501827466453
 30
0.0
  0
VERTEX
  5
5966A
  8
C-P3
 10
16531.764101921832
 20
-7429.8501827466453
 30
0.0
  0
VERTEX
  5
5966B
  8
C-P3
 10
16531.764101921832
 20
-7446.5626827466413
 30
0.0
  0
SEQEND
  5
5966C
  8
C-P3
  0
CIRCLE
  5
58FBA
  8
C-P3
 10
16496.264101921821
 20
-7449.9501827466438
 30
0.0
 40
2.4125000000000001
  0
CIRCLE
  5
58FBB
  8
C-P3
 10
16496.264101921821
 20
-7449.9501827466438
 30
0.0
 40
0.8250000000000001
  0
POLYLINE
  5
58FBC
  8
PROFILO
 66
     1
 10
0.0
 20
0.0
 30
0.0
 70
     1
  0
VERTEX
  5
5966D
  8
PROFILO
 10
16462.466601921831
 20
-7438.4787818729437
 30
0.0
  0
VERTEX
  5
5966E
  8
PROFILO
 10
16462.466601921831
 20
-7453.0215836203406
 30
0.0
 42
1.0
  0
VERTEX
  5
5966F
  8
PROFILO
 10
16466.64160192182
 20
-7453.0215836203406
 30
0.0
  0
VERTEX
  5
59670
  8
PROFILO
 10
16466.64160192182
 20
-7438.4787818729437
 30
0.0
 42
1.0
  0
SEQEND
  5
59671
  8
PROFILO
  0
LINE
  5
58FBD
  8
C_P7_LATO_OPPOSTO
 10
16464.554101921829
 20
-7453.0215836203406
 30
0.0
 11
16464.554101921829
 21
-7438.4787818729437
 31
0.0
  0
POLYLINE
  5
58FBE
  8
V-P0
 66
     1
 10
0.0
 20
0.0
 30
0.0
  0
VERTEX
  5
59672
  8
V-P0
 10
16409.139658768661
 20
-7419.1769450893544
 30
0.0
  0
VERTEX
  5
59673
  8
V-P0
 10
16416.66410192183
 20
-7439.8501827466462
 30
0.0
  0
VERTEX
  5
59674
  8
V-P0
 10
16409.139658768661
 20
-7460.5234204039361
 30
0.0
  0
SEQEND
  5
59675
  8
V-P0
  0
VIEWPORT
  5
4ACC6
 67
     1
  8
0
 62
     3
 10
259.96552120716638
 20
133.48899176296001
 30
0.0
 40
861.09018228356751
 41
353.71836373239159
 68
     1
 69
     1
1001
ACAD
1000
MVIEW
1002
{
1070
    16
1010
0.0
1020
0.0
1030
0.0
1010
0.0
1020
0.0
1030
1.0
1040
0.0
1040
353.71836373239159
1040
259.96552120716638
1040
133.48899176296001
1040
50.0
1040
0.0
1040
0.0
1070
     0
1070
   100
1070
     1
1070
     1
1070
     0
1070
     0
1070
     0
1070
     0
1040
0.0
1040
0.0
1040
0.0
1040
0.5
1040
0.5
1040
0.5
1040
0.5
1070
     0
1002
{
1002
}
1002
}
  0
VIEWPORT
  5
4ACC8
 67
     1
  8
PROFILO
 62
     3
 10
102.41497728769031
 20
159.46885309450821
 30
0.0
 40
190.8021671199121
 41
126.93071602472639
 68
     2
 69
     2
1001
ACAD
1000
MVIEW
1002
{
1070
    16
1010
0.0
1020
0.0
1030
0.0
1010
0.0
1020
0.0
1030
1.0
1040
0.0
1040
126.9307394941558
1040
12469.59711861773
1040
-9642.2946880493218
1040
50.0
1040
0.0
1040
0.0
1070
     0
1070
   100
1070
     1
1070
     3
1070
     0
1070
     1
1070
     0
1070
     0
1040
0.0
1040
0.0
1040
0.0
1040
10.0
1040
10.0
1040
10.0
1040
10.0
1070
     0
1002
{
1002
}
1002
}
  0
ENDSEC
  0
EOF
