  0
SECTION
  2
HEADER
  9
$EXTMIN
 10
-0.000315
 20
0.002836
  9
$EXTMAX
 10
16.000051
 20
11.000880
  0
ENDSEC
  0
SECTION
  2
TABLES
  0
ENDSEC
  0
SECTION
  2
ENTITIES
  0
POLYLINE
  8
1
 66
1
 70
0
  0
VERTEX
  8
1
 10
0.000051
 20
5.530925
  0
VERTEX
  8
1
 10
16.000051
 20
5.530925
  0
SEQEND
  0
POLYLINE
  8
1
 66
1
 70
0
  0
VERTEX
  8
1
 10
7.499922
 20
11.000000
  0
VERTEX
  8
1
 10
7.999922
 20
10.0
  0
VERTEX
  8
1
 10
8.499922
 20
11.000000
  0
SEQEND
  0
POLYLINE
  8
1
 66
1
 70
0
  0
VERTEX
  8
1
 10
8.500000
 20
5.527874
  0
VERTEX
  8
1
 10
8.000000
 20
6.527874
  0
VERTEX
  8
1
 10
7.500000
 20
5.527874
  0
SEQEND
  0
POLYLINE
  8
1
 66
1
 70
0
  0
VERTEX
  8
1
 10
7.499991
 20
5.528071
  0
VERTEX
  8
1
 10
7.999991
 20
4.528071
  0
VERTEX
  8
1
 10
8.499991
 20
5.528071
  0
SEQEND
  0
POLYLINE
  8
1
 66
1
 70
0
  0
VERTEX
  8
1
 10
8.496250
 20
0.003717
  0
VERTEX
  8
1
 10
7.998095
 20
1.000028
  0
VERTEX
  8
1
 10
7.499939
 20
0.003717
  0
SEQEND
  0
POLYLINE
  8
1
 66
1
 70
0
  0
VERTEX
  8
1
 10
0.000000
 20
1.010833
  0
VERTEX
  8
1
 10
16.000000
 20
1.010833
  0
SEQEND
  0
POLYLINE
  8
1
 66
1
 70
0
  0
VERTEX
  8
1
 10
0.500000
 20
1.004313
  0
VERTEX
  8
1
 10
0.500000
 20
0.741180
  0
SEQEND
  0
POLYLINE
  8
1
 66
1
 70
0
  0
VERTEX
  8
1
 10
1.000000
 20
1.004315
  0
VERTEX
  8
1
 10
1.000000
 20
0.741182
  0
SEQEND
  0
POLYLINE
  8
1
 66
1
 70
0
  0
VERTEX
  8
1
 10
1.500000
 20
1.004315
  0
VERTEX
  8
1
 10
1.500000
 20
0.741182
  0
SEQEND
  0
POLYLINE
  8
1
 66
1
 70
0
  0
VERTEX
  8
1
 10
2.000000
 20
1.004315
  0
VERTEX
  8
1
 10
2.000000
 20
0.741182
  0
SEQEND
  0
POLYLINE
  8
1
 66
1
 70
0
  0
VERTEX
  8
1
 10
2.500000
 20
1.004315
  0
VERTEX
  8
1
 10
2.500000
 20
0.741182
  0
SEQEND
  0
POLYLINE
  8
1
 66
1
 70
0
  0
VERTEX
  8
1
 10
3.000000
 20
1.004315
  0
VERTEX
  8
1
 10
3.000000
 20
0.741182
  0
SEQEND
  0
POLYLINE
  8
1
 66
1
 70
0
  0
VERTEX
  8
1
 10
3.500000
 20
1.004315
  0
VERTEX
  8
1
 10
3.500000
 20
0.741182
  0
SEQEND
  0
POLYLINE
  8
1
 66
1
 70
0
  0
VERTEX
  8
1
 10
4.000000
 20
1.004315
  0
VERTEX
  8
1
 10
4.000000
 20
0.741182
  0
SEQEND
  0
POLYLINE
  8
1
 66
1
 70
0
  0
VERTEX
  8
1
 10
4.500000
 20
1.004315
  0
VERTEX
  8
1
 10
4.500000
 20
0.741182
  0
SEQEND
  0
POLYLINE
  8
1
 66
1
 70
0
  0
VERTEX
  8
1
 10
5.000000
 20
1.004315
  0
VERTEX
  8
1
 10
5.000000
 20
0.741182
  0
SEQEND
  0
POLYLINE
  8
1
 66
1
 70
0
  0
VERTEX
  8
1
 10
5.500000
 20
1.004315
  0
VERTEX
  8
1
 10
5.500000
 20
0.741182
  0
SEQEND
  0
POLYLINE
  8
1
 66
1
 70
0
  0
VERTEX
  8
1
 10
6.000000
 20
1.004315
  0
VERTEX
  8
1
 10
6.000000
 20
0.741182
  0
SEQEND
  0
POLYLINE
  8
1
 66
1
 70
0
  0
VERTEX
  8
1
 10
6.500000
 20
1.004315
  0
VERTEX
  8
1
 10
6.500000
 20
0.741182
  0
SEQEND
  0
POLYLINE
  8
1
 66
1
 70
0
  0
VERTEX
  8
1
 10
7.000000
 20
1.004315
  0
VERTEX
  8
1
 10
7.000000
 20
0.741182
  0
SEQEND
  0
POLYLINE
  8
1
 66
1
 70
0
  0
VERTEX
  8
1
 10
7.500000
 20
1.004315
  0
VERTEX
  8
1
 10
7.500000
 20
0.741182
  0
SEQEND
  0
POLYLINE
  8
1
 66
1
 70
0
  0
VERTEX
  8
1
 10
8.500000
 20
1.004315
  0
VERTEX
  8
1
 10
8.500000
 20
0.741182
  0
SEQEND
  0
POLYLINE
  8
1
 66
1
 70
0
  0
VERTEX
  8
1
 10
9.000000
 20
1.004315
  0
VERTEX
  8
1
 10
9.000000
 20
0.741182
  0
SEQEND
  0
POLYLINE
  8
1
 66
1
 70
0
  0
VERTEX
  8
1
 10
9.500000
 20
1.004315
  0
VERTEX
  8
1
 10
9.500000
 20
0.741182
  0
SEQEND
  0
POLYLINE
  8
1
 66
1
 70
0
  0
VERTEX
  8
1
 10
10.000000
 20
1.004315
  0
VERTEX
  8
1
 10
10.000000
 20
0.741182
  0
SEQEND
  0
POLYLINE
  8
1
 66
1
 70
0
  0
VERTEX
  8
1
 10
10.500000
 20
1.004315
  0
VERTEX
  8
1
 10
10.500000
 20
0.741182
  0
SEQEND
  0
POLYLINE
  8
1
 66
1
 70
0
  0
VERTEX
  8
1
 10
11.000000
 20
1.004315
  0
VERTEX
  8
1
 10
11.000000
 20
0.741182
  0
SEQEND
  0
POLYLINE
  8
1
 66
1
 70
0
  0
VERTEX
  8
1
 10
11.500000
 20
1.004315
  0
VERTEX
  8
1
 10
11.500000
 20
0.741182
  0
SEQEND
  0
POLYLINE
  8
1
 66
1
 70
0
  0
VERTEX
  8
1
 10
12.000000
 20
1.004315
  0
VERTEX
  8
1
 10
12.000000
 20
0.741182
  0
SEQEND
  0
POLYLINE
  8
1
 66
1
 70
0
  0
VERTEX
  8
1
 10
12.500000
 20
1.004315
  0
VERTEX
  8
1
 10
12.500000
 20
0.741182
  0
SEQEND
  0
POLYLINE
  8
1
 66
1
 70
0
  0
VERTEX
  8
1
 10
13.000000
 20
1.004315
  0
VERTEX
  8
1
 10
13.000000
 20
0.741182
  0
SEQEND
  0
POLYLINE
  8
1
 66
1
 70
0
  0
VERTEX
  8
1
 10
13.500000
 20
1.004315
  0
VERTEX
  8
1
 10
13.500000
 20
0.741182
  0
SEQEND
  0
POLYLINE
  8
1
 66
1
 70
0
  0
VERTEX
  8
1
 10
14.000000
 20
1.004315
  0
VERTEX
  8
1
 10
14.000000
 20
0.741182
  0
SEQEND
  0
POLYLINE
  8
1
 66
1
 70
0
  0
VERTEX
  8
1
 10
14.500000
 20
1.004315
  0
VERTEX
  8
1
 10
14.500000
 20
0.741182
  0
SEQEND
  0
POLYLINE
  8
1
 66
1
 70
0
  0
VERTEX
  8
1
 10
15.000000
 20
1.004315
  0
VERTEX
  8
1
 10
15.000000
 20
0.741182
  0
SEQEND
  0
POLYLINE
  8
1
 66
1
 70
0
  0
VERTEX
  8
1
 10
15.500000
 20
1.004315
  0
VERTEX
  8
1
 10
15.500000
 20
0.741182
  0
SEQEND
  0
POLYLINE
  8
1
 66
1
 70
0
  0
VERTEX
  8
1
 10
16.000039
 20
4.509995
  0
VERTEX
  8
1
 10
0.000039
 20
4.509995
  0
SEQEND
  0
POLYLINE
  8
1
 66
1
 70
0
  0
VERTEX
  8
1
 10
15.500039
 20
4.516515
  0
VERTEX
  8
1
 10
15.500039
 20
4.779648
  0
SEQEND
  0
POLYLINE
  8
1
 66
1
 70
0
  0
VERTEX
  8
1
 10
15.000039
 20
4.516512
  0
VERTEX
  8
1
 10
15.000039
 20
4.779646
  0
SEQEND
  0
POLYLINE
  8
1
 66
1
 70
0
  0
VERTEX
  8
1
 10
14.500039
 20
4.516512
  0
VERTEX
  8
1
 10
14.500039
 20
4.779646
  0
SEQEND
  0
POLYLINE
  8
1
 66
1
 70
0
  0
VERTEX
  8
1
 10
14.000039
 20
4.516512
  0
VERTEX
  8
1
 10
14.000039
 20
4.779646
  0
SEQEND
  0
POLYLINE
  8
1
 66
1
 70
0
  0
VERTEX
  8
1
 10
13.500039
 20
4.516512
  0
VERTEX
  8
1
 10
13.500039
 20
4.779646
  0
SEQEND
  0
POLYLINE
  8
1
 66
1
 70
0
  0
VERTEX
  8
1
 10
13.000039
 20
4.516512
  0
VERTEX
  8
1
 10
13.000039
 20
4.779646
  0
SEQEND
  0
POLYLINE
  8
1
 66
1
 70
0
  0
VERTEX
  8
1
 10
12.500039
 20
4.516512
  0
VERTEX
  8
1
 10
12.500039
 20
4.779646
  0
SEQEND
  0
POLYLINE
  8
1
 66
1
 70
0
  0
VERTEX
  8
1
 10
12.000039
 20
4.516512
  0
VERTEX
  8
1
 10
12.000039
 20
4.779646
  0
SEQEND
  0
POLYLINE
  8
1
 66
1
 70
0
  0
VERTEX
  8
1
 10
11.500039
 20
4.516512
  0
VERTEX
  8
1
 10
11.500039
 20
4.779646
  0
SEQEND
  0
POLYLINE
  8
1
 66
1
 70
0
  0
VERTEX
  8
1
 10
11.000039
 20
4.516512
  0
VERTEX
  8
1
 10
11.000039
 20
4.779646
  0
SEQEND
  0
POLYLINE
  8
1
 66
1
 70
0
  0
VERTEX
  8
1
 10
10.500039
 20
4.516512
  0
VERTEX
  8
1
 10
10.500039
 20
4.779646
  0
SEQEND
  0
POLYLINE
  8
1
 66
1
 70
0
  0
VERTEX
  8
1
 10
10.000039
 20
4.516512
  0
VERTEX
  8
1
 10
10.000039
 20
4.779646
  0
SEQEND
  0
POLYLINE
  8
1
 66
1
 70
0
  0
VERTEX
  8
1
 10
9.500039
 20
4.516512
  0
VERTEX
  8
1
 10
9.500039
 20
4.779646
  0
SEQEND
  0
POLYLINE
  8
1
 66
1
 70
0
  0
VERTEX
  8
1
 10
9.000039
 20
4.516512
  0
VERTEX
  8
1
 10
9.000039
 20
4.779646
  0
SEQEND
  0
POLYLINE
  8
1
 66
1
 70
0
  0
VERTEX
  8
1
 10
8.500039
 20
4.516512
  0
VERTEX
  8
1
 10
8.500039
 20
4.779646
  0
SEQEND
  0
POLYLINE
  8
1
 66
1
 70
0
  0
VERTEX
  8
1
 10
7.500039
 20
4.516512
  0
VERTEX
  8
1
 10
7.500039
 20
4.779646
  0
SEQEND
  0
POLYLINE
  8
1
 66
1
 70
0
  0
VERTEX
  8
1
 10
7.000039
 20
4.516512
  0
VERTEX
  8
1
 10
7.000039
 20
4.779646
  0
SEQEND
  0
POLYLINE
  8
1
 66
1
 70
0
  0
VERTEX
  8
1
 10
6.500039
 20
4.516512
  0
VERTEX
  8
1
 10
6.500039
 20
4.779646
  0
SEQEND
  0
POLYLINE
  8
1
 66
1
 70
0
  0
VERTEX
  8
1
 10
6.000039
 20
4.516512
  0
VERTEX
  8
1
 10
6.000039
 20
4.779646
  0
SEQEND
  0
POLYLINE
  8
1
 66
1
 70
0
  0
VERTEX
  8
1
 10
5.500039
 20
4.516512
  0
VERTEX
  8
1
 10
5.500039
 20
4.779646
  0
SEQEND
  0
POLYLINE
  8
1
 66
1
 70
0
  0
VERTEX
  8
1
 10
5.000039
 20
4.516512
  0
VERTEX
  8
1
 10
5.000039
 20
4.779646
  0
SEQEND
  0
POLYLINE
  8
1
 66
1
 70
0
  0
VERTEX
  8
1
 10
4.500039
 20
4.516512
  0
VERTEX
  8
1
 10
4.500039
 20
4.779646
  0
SEQEND
  0
POLYLINE
  8
1
 66
1
 70
0
  0
VERTEX
  8
1
 10
4.000039
 20
4.516512
  0
VERTEX
  8
1
 10
4.000039
 20
4.779646
  0
SEQEND
  0
POLYLINE
  8
1
 66
1
 70
0
  0
VERTEX
  8
1
 10
3.500039
 20
4.516512
  0
VERTEX
  8
1
 10
3.500039
 20
4.779646
  0
SEQEND
  0
POLYLINE
  8
1
 66
1
 70
0
  0
VERTEX
  8
1
 10
3.000039
 20
4.516512
  0
VERTEX
  8
1
 10
3.000039
 20
4.779646
  0
SEQEND
  0
POLYLINE
  8
1
 66
1
 70
0
  0
VERTEX
  8
1
 10
2.500039
 20
4.516512
  0
VERTEX
  8
1
 10
2.500039
 20
4.779646
  0
SEQEND
  0
POLYLINE
  8
1
 66
1
 70
0
  0
VERTEX
  8
1
 10
2.000039
 20
4.516512
  0
VERTEX
  8
1
 10
2.000039
 20
4.779646
  0
SEQEND
  0
POLYLINE
  8
1
 66
1
 70
0
  0
VERTEX
  8
1
 10
1.500039
 20
4.516512
  0
VERTEX
  8
1
 10
1.500039
 20
4.779646
  0
SEQEND
  0
POLYLINE
  8
1
 66
1
 70
0
  0
VERTEX
  8
1
 10
1.000039
 20
4.516512
  0
VERTEX
  8
1
 10
1.000039
 20
4.779646
  0
SEQEND
  0
POLYLINE
  8
1
 66
1
 70
0
  0
VERTEX
  8
1
 10
0.500039
 20
4.516512
  0
VERTEX
  8
1
 10
0.500039
 20
4.779646
  0
SEQEND
  0
POLYLINE
  8
1
 66
1
 70
0
  0
VERTEX
  8
1
 10
0.000000
 20
6.540910
  0
VERTEX
  8
1
 10
16.000000
 20
6.540910
  0
SEQEND
  0
POLYLINE
  8
1
 66
1
 70
0
  0
VERTEX
  8
1
 10
0.500000
 20
6.534390
  0
VERTEX
  8
1
 10
0.500000
 20
6.271258
  0
SEQEND
  0
POLYLINE
  8
1
 66
1
 70
0
  0
VERTEX
  8
1
 10
1.000000
 20
6.534393
  0
VERTEX
  8
1
 10
1.000000
 20
6.271260
  0
SEQEND
  0
POLYLINE
  8
1
 66
1
 70
0
  0
VERTEX
  8
1
 10
1.500000
 20
6.534393
  0
VERTEX
  8
1
 10
1.500000
 20
6.271260
  0
SEQEND
  0
POLYLINE
  8
1
 66
1
 70
0
  0
VERTEX
  8
1
 10
2.000000
 20
6.534393
  0
VERTEX
  8
1
 10
2.000000
 20
6.271260
  0
SEQEND
  0
POLYLINE
  8
1
 66
1
 70
0
  0
VERTEX
  8
1
 10
2.500000
 20
6.534393
  0
VERTEX
  8
1
 10
2.500000
 20
6.271260
  0
SEQEND
  0
POLYLINE
  8
1
 66
1
 70
0
  0
VERTEX
  8
1
 10
3.000000
 20
6.534393
  0
VERTEX
  8
1
 10
3.000000
 20
6.271260
  0
SEQEND
  0
POLYLINE
  8
1
 66
1
 70
0
  0
VERTEX
  8
1
 10
3.500000
 20
6.534393
  0
VERTEX
  8
1
 10
3.500000
 20
6.271260
  0
SEQEND
  0
POLYLINE
  8
1
 66
1
 70
0
  0
VERTEX
  8
1
 10
4.000000
 20
6.534393
  0
VERTEX
  8
1
 10
4.000000
 20
6.271260
  0
SEQEND
  0
POLYLINE
  8
1
 66
1
 70
0
  0
VERTEX
  8
1
 10
4.500000
 20
6.534393
  0
VERTEX
  8
1
 10
4.500000
 20
6.271260
  0
SEQEND
  0
POLYLINE
  8
1
 66
1
 70
0
  0
VERTEX
  8
1
 10
5.000000
 20
6.534393
  0
VERTEX
  8
1
 10
5.000000
 20
6.271260
  0
SEQEND
  0
POLYLINE
  8
1
 66
1
 70
0
  0
VERTEX
  8
1
 10
5.500000
 20
6.534393
  0
VERTEX
  8
1
 10
5.500000
 20
6.271260
  0
SEQEND
  0
POLYLINE
  8
1
 66
1
 70
0
  0
VERTEX
  8
1
 10
6.000000
 20
6.534393
  0
VERTEX
  8
1
 10
6.000000
 20
6.271260
  0
SEQEND
  0
POLYLINE
  8
1
 66
1
 70
0
  0
VERTEX
  8
1
 10
6.500000
 20
6.534393
  0
VERTEX
  8
1
 10
6.500000
 20
6.271260
  0
SEQEND
  0
POLYLINE
  8
1
 66
1
 70
0
  0
VERTEX
  8
1
 10
7.000000
 20
6.534393
  0
VERTEX
  8
1
 10
7.000000
 20
6.271260
  0
SEQEND
  0
POLYLINE
  8
1
 66
1
 70
0
  0
VERTEX
  8
1
 10
7.500000
 20
6.534393
  0
VERTEX
  8
1
 10
7.500000
 20
6.271260
  0
SEQEND
  0
POLYLINE
  8
1
 66
1
 70
0
  0
VERTEX
  8
1
 10
8.500000
 20
6.534393
  0
VERTEX
  8
1
 10
8.500000
 20
6.271260
  0
SEQEND
  0
POLYLINE
  8
1
 66
1
 70
0
  0
VERTEX
  8
1
 10
9.000000
 20
6.534393
  0
VERTEX
  8
1
 10
9.000000
 20
6.271260
  0
SEQEND
  0
POLYLINE
  8
1
 66
1
 70
0
  0
VERTEX
  8
1
 10
9.500000
 20
6.534393
  0
VERTEX
  8
1
 10
9.500000
 20
6.271260
  0
SEQEND
  0
POLYLINE
  8
1
 66
1
 70
0
  0
VERTEX
  8
1
 10
10.000000
 20
6.534393
  0
VERTEX
  8
1
 10
10.000000
 20
6.271260
  0
SEQEND
  0
POLYLINE
  8
1
 66
1
 70
0
  0
VERTEX
  8
1
 10
10.500000
 20
6.534393
  0
VERTEX
  8
1
 10
10.500000
 20
6.271260
  0
SEQEND
  0
POLYLINE
  8
1
 66
1
 70
0
  0
VERTEX
  8
1
 10
11.000000
 20
6.534393
  0
VERTEX
  8
1
 10
11.000000
 20
6.271260
  0
SEQEND
  0
POLYLINE
  8
1
 66
1
 70
0
  0
VERTEX
  8
1
 10
11.500000
 20
6.534393
  0
VERTEX
  8
1
 10
11.500000
 20
6.271260
  0
SEQEND
  0
POLYLINE
  8
1
 66
1
 70
0
  0
VERTEX
  8
1
 10
12.000000
 20
6.534393
  0
VERTEX
  8
1
 10
12.000000
 20
6.271260
  0
SEQEND
  0
POLYLINE
  8
1
 66
1
 70
0
  0
VERTEX
  8
1
 10
12.500000
 20
6.534393
  0
VERTEX
  8
1
 10
12.500000
 20
6.271260
  0
SEQEND
  0
POLYLINE
  8
1
 66
1
 70
0
  0
VERTEX
  8
1
 10
13.000000
 20
6.534393
  0
VERTEX
  8
1
 10
13.000000
 20
6.271260
  0
SEQEND
  0
POLYLINE
  8
1
 66
1
 70
0
  0
VERTEX
  8
1
 10
13.500000
 20
6.534393
  0
VERTEX
  8
1
 10
13.500000
 20
6.271260
  0
SEQEND
  0
POLYLINE
  8
1
 66
1
 70
0
  0
VERTEX
  8
1
 10
14.000000
 20
6.534393
  0
VERTEX
  8
1
 10
14.000000
 20
6.271260
  0
SEQEND
  0
POLYLINE
  8
1
 66
1
 70
0
  0
VERTEX
  8
1
 10
14.500000
 20
6.534393
  0
VERTEX
  8
1
 10
14.500000
 20
6.271260
  0
SEQEND
  0
POLYLINE
  8
1
 66
1
 70
0
  0
VERTEX
  8
1
 10
15.000000
 20
6.534393
  0
VERTEX
  8
1
 10
15.000000
 20
6.271260
  0
SEQEND
  0
POLYLINE
  8
1
 66
1
 70
0
  0
VERTEX
  8
1
 10
15.500000
 20
6.534393
  0
VERTEX
  8
1
 10
15.500000
 20
6.271260
  0
SEQEND
  0
POLYLINE
  8
1
 66
1
 70
0
  0
VERTEX
  8
1
 10
15.999685
 20
9.985586
  0
VERTEX
  8
1
 10
-0.000315
 20
9.985586
  0
SEQEND
  0
POLYLINE
  8
1
 66
1
 70
0
  0
VERTEX
  8
1
 10
15.499685
 20
9.992106
  0
VERTEX
  8
1
 10
15.499685
 20
10.255238
  0
SEQEND
  0
POLYLINE
  8
1
 66
1
 70
0
  0
VERTEX
  8
1
 10
14.999685
 20
9.992103
  0
VERTEX
  8
1
 10
14.999685
 20
10.255236
  0
SEQEND
  0
POLYLINE
  8
1
 66
1
 70
0
  0
VERTEX
  8
1
 10
14.499685
 20
9.992103
  0
VERTEX
  8
1
 10
14.499685
 20
10.255236
  0
SEQEND
  0
POLYLINE
  8
1
 66
1
 70
0
  0
VERTEX
  8
1
 10
13.999685
 20
9.992103
  0
VERTEX
  8
1
 10
13.999685
 20
10.255236
  0
SEQEND
  0
POLYLINE
  8
1
 66
1
 70
0
  0
VERTEX
  8
1
 10
13.499685
 20
9.992103
  0
VERTEX
  8
1
 10
13.499685
 20
10.255236
  0
SEQEND
  0
POLYLINE
  8
1
 66
1
 70
0
  0
VERTEX
  8
1
 10
12.999685
 20
9.992103
  0
VERTEX
  8
1
 10
12.999685
 20
10.255236
  0
SEQEND
  0
POLYLINE
  8
1
 66
1
 70
0
  0
VERTEX
  8
1
 10
12.499685
 20
9.992103
  0
VERTEX
  8
1
 10
12.499685
 20
10.255236
  0
SEQEND
  0
POLYLINE
  8
1
 66
1
 70
0
  0
VERTEX
  8
1
 10
11.999685
 20
9.992103
  0
VERTEX
  8
1
 10
11.999685
 20
10.255236
  0
SEQEND
  0
POLYLINE
  8
1
 66
1
 70
0
  0
VERTEX
  8
1
 10
11.499685
 20
9.992103
  0
VERTEX
  8
1
 10
11.499685
 20
10.255236
  0
SEQEND
  0
POLYLINE
  8
1
 66
1
 70
0
  0
VERTEX
  8
1
 10
10.999685
 20
9.992103
  0
VERTEX
  8
1
 10
10.999685
 20
10.255236
  0
SEQEND
  0
POLYLINE
  8
1
 66
1
 70
0
  0
VERTEX
  8
1
 10
10.499685
 20
9.992103
  0
VERTEX
  8
1
 10
10.499685
 20
10.255236
  0
SEQEND
  0
POLYLINE
  8
1
 66
1
 70
0
  0
VERTEX
  8
1
 10
9.999685
 20
9.992103
  0
VERTEX
  8
1
 10
9.999685
 20
10.255236
  0
SEQEND
  0
POLYLINE
  8
1
 66
1
 70
0
  0
VERTEX
  8
1
 10
9.499685
 20
9.992103
  0
VERTEX
  8
1
 10
9.499685
 20
10.255236
  0
SEQEND
  0
POLYLINE
  8
1
 66
1
 70
0
  0
VERTEX
  8
1
 10
8.999685
 20
9.992103
  0
VERTEX
  8
1
 10
8.999685
 20
10.255236
  0
SEQEND
  0
POLYLINE
  8
1
 66
1
 70
0
  0
VERTEX
  8
1
 10
8.499685
 20
9.992103
  0
VERTEX
  8
1
 10
8.499685
 20
10.255236
  0
SEQEND
  0
POLYLINE
  8
1
 66
1
 70
0
  0
VERTEX
  8
1
 10
7.499685
 20
9.992103
  0
VERTEX
  8
1
 10
7.499685
 20
10.255236
  0
SEQEND
  0
POLYLINE
  8
1
 66
1
 70
0
  0
VERTEX
  8
1
 10
6.999685
 20
9.992103
  0
VERTEX
  8
1
 10
6.999685
 20
10.255236
  0
SEQEND
  0
POLYLINE
  8
1
 66
1
 70
0
  0
VERTEX
  8
1
 10
6.499685
 20
9.992103
  0
VERTEX
  8
1
 10
6.499685
 20
10.255236
  0
SEQEND
  0
POLYLINE
  8
1
 66
1
 70
0
  0
VERTEX
  8
1
 10
5.999685
 20
9.992103
  0
VERTEX
  8
1
 10
5.999685
 20
10.255236
  0
SEQEND
  0
POLYLINE
  8
1
 66
1
 70
0
  0
VERTEX
  8
1
 10
5.499685
 20
9.992103
  0
VERTEX
  8
1
 10
5.499685
 20
10.255236
  0
SEQEND
  0
POLYLINE
  8
1
 66
1
 70
0
  0
VERTEX
  8
1
 10
4.999685
 20
9.992103
  0
VERTEX
  8
1
 10
4.999685
 20
10.255236
  0
SEQEND
  0
POLYLINE
  8
1
 66
1
 70
0
  0
VERTEX
  8
1
 10
4.499685
 20
9.992103
  0
VERTEX
  8
1
 10
4.499685
 20
10.255236
  0
SEQEND
  0
POLYLINE
  8
1
 66
1
 70
0
  0
VERTEX
  8
1
 10
3.999685
 20
9.992103
  0
VERTEX
  8
1
 10
3.999685
 20
10.255236
  0
SEQEND
  0
POLYLINE
  8
1
 66
1
 70
0
  0
VERTEX
  8
1
 10
3.499685
 20
9.992103
  0
VERTEX
  8
1
 10
3.499685
 20
10.255236
  0
SEQEND
  0
POLYLINE
  8
1
 66
1
 70
0
  0
VERTEX
  8
1
 10
2.999685
 20
9.992103
  0
VERTEX
  8
1
 10
2.999685
 20
10.255236
  0
SEQEND
  0
POLYLINE
  8
1
 66
1
 70
0
  0
VERTEX
  8
1
 10
2.499685
 20
9.992103
  0
VERTEX
  8
1
 10
2.499685
 20
10.255236
  0
SEQEND
  0
POLYLINE
  8
1
 66
1
 70
0
  0
VERTEX
  8
1
 10
1.999685
 20
9.992103
  0
VERTEX
  8
1
 10
1.999685
 20
10.255236
  0
SEQEND
  0
POLYLINE
  8
1
 66
1
 70
0
  0
VERTEX
  8
1
 10
1.499685
 20
9.992103
  0
VERTEX
  8
1
 10
1.499685
 20
10.255236
  0
SEQEND
  0
POLYLINE
  8
1
 66
1
 70
0
  0
VERTEX
  8
1
 10
0.999685
 20
9.992103
  0
VERTEX
  8
1
 10
0.999685
 20
10.255236
  0
SEQEND
  0
POLYLINE
  8
1
 66
1
 70
0
  0
VERTEX
  8
1
 10
0.499685
 20
9.992103
  0
VERTEX
  8
1
 10
0.499685
 20
10.255236
  0
SEQEND
  0
POLYLINE
  8
1
 66
1
 70
0
  0
VERTEX
  8
1
 10
7.500000
 20
10.021702
 42
0.221875
  0
VERTEX
  8
1
 10
6.750000
 20
8.271702
 42
0.209921
  0
VERTEX
  8
1
 10
7.500000
 20
6.521702
  0
SEQEND
  0
POLYLINE
  8
1
 66
1
 70
0
  0
VERTEX
  8
1
 10
8.494646
 20
6.525669
 42
0.221875
  0
VERTEX
  8
1
 10
9.244646
 20
8.275669
 42
0.209921
  0
VERTEX
  8
1
 10
8.494646
 20
10.025669
  0
SEQEND
  0
POLYLINE
  8
1
 66
1
 70
0
  0
VERTEX
  8
1
 10
7.492749
 20
4.514567
 42
0.221875
  0
VERTEX
  8
1
 10
6.742749
 20
2.764567
 42
0.209921
  0
VERTEX
  8
1
 10
7.492749
 20
1.014567
  0
SEQEND
  0
POLYLINE
  8
1
 66
1
 70
0
  0
VERTEX
  8
1
 10
8.497835
 20
1.011969
 42
0.221875
  0
VERTEX
  8
1
 10
9.247835
 20
2.761969
 42
0.209921
  0
VERTEX
  8
1
 10
8.497835
 20
4.511969
  0
SEQEND
  0
POLYLINE
  8
1
 66
1
 70
1
  0
VERTEX
  8
1
 10
0.500000
 20
10.438456
 42
-0.203606
  0
VERTEX
  8
1
 10
0.456492
 20
10.456478
 42
-0.429692
  0
VERTEX
  8
1
 10
0.456492
 20
10.543495
 42
-0.429692
  0
VERTEX
  8
1
 10
0.543509
 20
10.543495
 42
-0.429691
  0
VERTEX
  8
1
 10
0.543509
 20
10.456478
 42
-0.200593
  0
SEQEND
  0
POLYLINE
  8
1
 66
1
 70
1
  0
VERTEX
  8
1
 10
1.500000
 20
10.438470
 42
-0.203606
  0
VERTEX
  8
1
 10
1.456491
 20
10.456492
 42
-0.429692
  0
VERTEX
  8
1
 10
1.456491
 20
10.543509
 42
-0.429692
  0
VERTEX
  8
1
 10
1.543509
 20
10.543509
 42
-0.429691
  0
VERTEX
  8
1
 10
1.543509
 20
10.456492
 42
-0.200593
  0
SEQEND
  0
POLYLINE
  8
1
 66
1
 70
1
  0
VERTEX
  8
1
 10
2.500000
 20
10.438470
 42
-0.203606
  0
VERTEX
  8
1
 10
2.456491
 20
10.456492
 42
-0.429692
  0
VERTEX
  8
1
 10
2.456491
 20
10.543509
 42
-0.429692
  0
VERTEX
  8
1
 10
2.543509
 20
10.543509
 42
-0.429691
  0
VERTEX
  8
1
 10
2.543509
 20
10.456492
 42
-0.200593
  0
SEQEND
  0
POLYLINE
  8
1
 66
1
 70
1
  0
VERTEX
  8
1
 10
3.499996
 20
10.438470
 42
-0.203606
  0
VERTEX
  8
1
 10
3.456488
 20
10.456492
 42
-0.429692
  0
VERTEX
  8
1
 10
3.456488
 20
10.543509
 42
-0.429692
  0
VERTEX
  8
1
 10
3.543505
 20
10.543509
 42
-0.429691
  0
VERTEX
  8
1
 10
3.543505
 20
10.456492
 42
-0.200593
  0
SEQEND
  0
POLYLINE
  8
1
 66
1
 70
1
  0
VERTEX
  8
1
 10
4.500000
 20
10.438470
 42
-0.203606
  0
VERTEX
  8
1
 10
4.456491
 20
10.456492
 42
-0.429692
  0
VERTEX
  8
1
 10
4.456491
 20
10.543509
 42
-0.429692
  0
VERTEX
  8
1
 10
4.543509
 20
10.543509
 42
-0.429691
  0
VERTEX
  8
1
 10
4.543509
 20
10.456492
 42
-0.200593
  0
SEQEND
  0
POLYLINE
  8
1
 66
1
 70
1
  0
VERTEX
  8
1
 10
5.500000
 20
10.438470
 42
-0.203606
  0
VERTEX
  8
1
 10
5.456491
 20
10.456492
 42
-0.429692
  0
VERTEX
  8
1
 10
5.456491
 20
10.543509
 42
-0.429692
  0
VERTEX
  8
1
 10
5.543509
 20
10.543509
 42
-0.429691
  0
VERTEX
  8
1
 10
5.543509
 20
10.456492
 42
-0.200593
  0
SEQEND
  0
POLYLINE
  8
1
 66
1
 70
1
  0
VERTEX
  8
1
 10
6.500000
 20
10.438470
 42
-0.203606
  0
VERTEX
  8
1
 10
6.456491
 20
10.456492
 42
-0.429692
  0
VERTEX
  8
1
 10
6.456491
 20
10.543509
 42
-0.429692
  0
VERTEX
  8
1
 10
6.543509
 20
10.543509
 42
-0.429691
  0
VERTEX
  8
1
 10
6.543509
 20
10.456492
 42
-0.200593
  0
SEQEND
  0
POLYLINE
  8
1
 66
1
 70
1
  0
VERTEX
  8
1
 10
7.500000
 20
10.438470
 42
-0.203606
  0
VERTEX
  8
1
 10
7.456491
 20
10.456492
 42
-0.429692
  0
VERTEX
  8
1
 10
7.456491
 20
10.543509
 42
-0.429692
  0
VERTEX
  8
1
 10
7.543509
 20
10.543509
 42
-0.429691
  0
VERTEX
  8
1
 10
7.543509
 20
10.456492
 42
-0.200593
  0
SEQEND
  0
POLYLINE
  8
1
 66
1
 70
1
  0
VERTEX
  8
1
 10
8.500000
 20
10.438470
 42
-0.203606
  0
VERTEX
  8
1
 10
8.456491
 20
10.456492
 42
-0.429692
  0
VERTEX
  8
1
 10
8.456491
 20
10.543509
 42
-0.429692
  0
VERTEX
  8
1
 10
8.543509
 20
10.543509
 42
-0.429691
  0
VERTEX
  8
1
 10
8.543509
 20
10.456492
 42
-0.200593
  0
SEQEND
  0
POLYLINE
  8
1
 66
1
 70
1
  0
VERTEX
  8
1
 10
9.500000
 20
10.438470
 42
-0.203606
  0
VERTEX
  8
1
 10
9.456491
 20
10.456492
 42
-0.429692
  0
VERTEX
  8
1
 10
9.456491
 20
10.543509
 42
-0.429692
  0
VERTEX
  8
1
 10
9.543509
 20
10.543509
 42
-0.429691
  0
VERTEX
  8
1
 10
9.543509
 20
10.456492
 42
-0.200593
  0
SEQEND
  0
POLYLINE
  8
1
 66
1
 70
1
  0
VERTEX
  8
1
 10
10.500000
 20
10.438470
 42
-0.203606
  0
VERTEX
  8
1
 10
10.456491
 20
10.456492
 42
-0.429692
  0
VERTEX
  8
1
 10
10.456491
 20
10.543509
 42
-0.429692
  0
VERTEX
  8
1
 10
10.543509
 20
10.543509
 42
-0.429691
  0
VERTEX
  8
1
 10
10.543509
 20
10.456492
 42
-0.200593
  0
SEQEND
  0
POLYLINE
  8
1
 66
1
 70
1
  0
VERTEX
  8
1
 10
11.500000
 20
10.438470
 42
-0.203606
  0
VERTEX
  8
1
 10
11.456491
 20
10.456492
 42
-0.429692
  0
VERTEX
  8
1
 10
11.456491
 20
10.543509
 42
-0.429692
  0
VERTEX
  8
1
 10
11.543509
 20
10.543509
 42
-0.429691
  0
VERTEX
  8
1
 10
11.543509
 20
10.456492
 42
-0.200593
  0
SEQEND
  0
POLYLINE
  8
1
 66
1
 70
1
  0
VERTEX
  8
1
 10
12.500000
 20
10.438470
 42
-0.203606
  0
VERTEX
  8
1
 10
12.456491
 20
10.456492
 42
-0.429692
  0
VERTEX
  8
1
 10
12.456491
 20
10.543509
 42
-0.429692
  0
VERTEX
  8
1
 10
12.543509
 20
10.543509
 42
-0.429691
  0
VERTEX
  8
1
 10
12.543509
 20
10.456492
 42
-0.200593
  0
SEQEND
  0
POLYLINE
  8
1
 66
1
 70
1
  0
VERTEX
  8
1
 10
13.500000
 20
10.438470
 42
-0.203606
  0
VERTEX
  8
1
 10
13.456491
 20
10.456492
 42
-0.429692
  0
VERTEX
  8
1
 10
13.456491
 20
10.543509
 42
-0.429692
  0
VERTEX
  8
1
 10
13.543509
 20
10.543509
 42
-0.429691
  0
VERTEX
  8
1
 10
13.543509
 20
10.456492
 42
-0.200593
  0
SEQEND
  0
POLYLINE
  8
1
 66
1
 70
1
  0
VERTEX
  8
1
 10
14.500000
 20
10.438470
 42
-0.203606
  0
VERTEX
  8
1
 10
14.456491
 20
10.456492
 42
-0.429692
  0
VERTEX
  8
1
 10
14.456491
 20
10.543509
 42
-0.429692
  0
VERTEX
  8
1
 10
14.543509
 20
10.543509
 42
-0.429691
  0
VERTEX
  8
1
 10
14.543509
 20
10.456492
 42
-0.200593
  0
SEQEND
  0
POLYLINE
  8
1
 66
1
 70
1
  0
VERTEX
  8
1
 10
15.500000
 20
10.438470
 42
-0.203606
  0
VERTEX
  8
1
 10
15.456491
 20
10.456492
 42
-0.429692
  0
VERTEX
  8
1
 10
15.456491
 20
10.543509
 42
-0.429692
  0
VERTEX
  8
1
 10
15.543509
 20
10.543509
 42
-0.429691
  0
VERTEX
  8
1
 10
15.543509
 20
10.456492
 42
-0.200593
  0
SEQEND
  0
POLYLINE
  8
1
 66
1
 70
1
  0
VERTEX
  8
1
 10
0.500000
 20
5.938471
 42
-0.203606
  0
VERTEX
  8
1
 10
0.456492
 20
5.956494
 42
-0.429692
  0
VERTEX
  8
1
 10
0.456492
 20
6.043511
 42
-0.429692
  0
VERTEX
  8
1
 10
0.543509
 20
6.043511
 42
-0.429691
  0
VERTEX
  8
1
 10
0.543509
 20
5.956494
 42
-0.200593
  0
SEQEND
  0
POLYLINE
  8
1
 66
1
 70
1
  0
VERTEX
  8
1
 10
1.500000
 20
5.938470
 42
-0.203606
  0
VERTEX
  8
1
 10
1.456491
 20
5.956492
 42
-0.429692
  0
VERTEX
  8
1
 10
1.456491
 20
6.043509
 42
-0.429692
  0
VERTEX
  8
1
 10
1.543509
 20
6.043509
 42
-0.429691
  0
VERTEX
  8
1
 10
1.543509
 20
5.956492
 42
-0.200593
  0
SEQEND
  0
POLYLINE
  8
1
 66
1
 70
1
  0
VERTEX
  8
1
 10
2.499996
 20
5.938470
 42
-0.203606
  0
VERTEX
  8
1
 10
2.456488
 20
5.956492
 42
-0.429692
  0
VERTEX
  8
1
 10
2.456488
 20
6.043509
 42
-0.429692
  0
VERTEX
  8
1
 10
2.543505
 20
6.043509
 42
-0.429691
  0
VERTEX
  8
1
 10
2.543505
 20
5.956492
 42
-0.200593
  0
SEQEND
  0
POLYLINE
  8
1
 66
1
 70
1
  0
VERTEX
  8
1
 10
3.499996
 20
5.938470
 42
-0.203606
  0
VERTEX
  8
1
 10
3.456488
 20
5.956492
 42
-0.429692
  0
VERTEX
  8
1
 10
3.456488
 20
6.043509
 42
-0.429692
  0
VERTEX
  8
1
 10
3.543505
 20
6.043509
 42
-0.429691
  0
VERTEX
  8
1
 10
3.543505
 20
5.956492
 42
-0.200593
  0
SEQEND
  0
POLYLINE
  8
1
 66
1
 70
1
  0
VERTEX
  8
1
 10
4.500000
 20
5.938470
 42
-0.203606
  0
VERTEX
  8
1
 10
4.456491
 20
5.956492
 42
-0.429692
  0
VERTEX
  8
1
 10
4.456491
 20
6.043509
 42
-0.429692
  0
VERTEX
  8
1
 10
4.543509
 20
6.043509
 42
-0.429691
  0
VERTEX
  8
1
 10
4.543509
 20
5.956492
 42
-0.200593
  0
SEQEND
  0
POLYLINE
  8
1
 66
1
 70
1
  0
VERTEX
  8
1
 10
5.500000
 20
5.938470
 42
-0.203606
  0
VERTEX
  8
1
 10
5.456491
 20
5.956492
 42
-0.429692
  0
VERTEX
  8
1
 10
5.456491
 20
6.043509
 42
-0.429692
  0
VERTEX
  8
1
 10
5.543509
 20
6.043509
 42
-0.429691
  0
VERTEX
  8
1
 10
5.543509
 20
5.956492
 42
-0.200593
  0
SEQEND
  0
POLYLINE
  8
1
 66
1
 70
1
  0
VERTEX
  8
1
 10
6.500000
 20
5.938470
 42
-0.203606
  0
VERTEX
  8
1
 10
6.456491
 20
5.956492
 42
-0.429692
  0
VERTEX
  8
1
 10
6.456491
 20
6.043509
 42
-0.429692
  0
VERTEX
  8
1
 10
6.543509
 20
6.043509
 42
-0.429691
  0
VERTEX
  8
1
 10
6.543509
 20
5.956492
 42
-0.200593
  0
SEQEND
  0
POLYLINE
  8
1
 66
1
 70
1
  0
VERTEX
  8
1
 10
7.500000
 20
5.938470
 42
-0.203606
  0
VERTEX
  8
1
 10
7.456491
 20
5.956492
 42
-0.429692
  0
VERTEX
  8
1
 10
7.456491
 20
6.043509
 42
-0.429692
  0
VERTEX
  8
1
 10
7.543509
 20
6.043509
 42
-0.429691
  0
VERTEX
  8
1
 10
7.543509
 20
5.956492
 42
-0.200593
  0
SEQEND
  0
POLYLINE
  8
1
 66
1
 70
1
  0
VERTEX
  8
1
 10
8.500000
 20
5.938470
 42
-0.203606
  0
VERTEX
  8
1
 10
8.456491
 20
5.956492
 42
-0.429692
  0
VERTEX
  8
1
 10
8.456491
 20
6.043509
 42
-0.429692
  0
VERTEX
  8
1
 10
8.543509
 20
6.043509
 42
-0.429691
  0
VERTEX
  8
1
 10
8.543509
 20
5.956492
 42
-0.200593
  0
SEQEND
  0
POLYLINE
  8
1
 66
1
 70
1
  0
VERTEX
  8
1
 10
9.500000
 20
5.938470
 42
-0.203606
  0
VERTEX
  8
1
 10
9.456491
 20
5.956492
 42
-0.429692
  0
VERTEX
  8
1
 10
9.456491
 20
6.043509
 42
-0.429692
  0
VERTEX
  8
1
 10
9.543509
 20
6.043509
 42
-0.429691
  0
VERTEX
  8
1
 10
9.543509
 20
5.956492
 42
-0.200593
  0
SEQEND
  0
POLYLINE
  8
1
 66
1
 70
1
  0
VERTEX
  8
1
 10
10.500000
 20
5.938470
 42
-0.203606
  0
VERTEX
  8
1
 10
10.456491
 20
5.956492
 42
-0.429692
  0
VERTEX
  8
1
 10
10.456491
 20
6.043509
 42
-0.429692
  0
VERTEX
  8
1
 10
10.543509
 20
6.043509
 42
-0.429691
  0
VERTEX
  8
1
 10
10.543509
 20
5.956492
 42
-0.200593
  0
SEQEND
  0
POLYLINE
  8
1
 66
1
 70
1
  0
VERTEX
  8
1
 10
11.500000
 20
5.938470
 42
-0.203606
  0
VERTEX
  8
1
 10
11.456491
 20
5.956492
 42
-0.429692
  0
VERTEX
  8
1
 10
11.456491
 20
6.043509
 42
-0.429692
  0
VERTEX
  8
1
 10
11.543509
 20
6.043509
 42
-0.429691
  0
VERTEX
  8
1
 10
11.543509
 20
5.956492
 42
-0.200593
  0
SEQEND
  0
POLYLINE
  8
1
 66
1
 70
1
  0
VERTEX
  8
1
 10
12.500000
 20
5.938470
 42
-0.203606
  0
VERTEX
  8
1
 10
12.456491
 20
5.956492
 42
-0.429692
  0
VERTEX
  8
1
 10
12.456491
 20
6.043509
 42
-0.429692
  0
VERTEX
  8
1
 10
12.543509
 20
6.043509
 42
-0.429691
  0
VERTEX
  8
1
 10
12.543509
 20
5.956492
 42
-0.200593
  0
SEQEND
  0
POLYLINE
  8
1
 66
1
 70
1
  0
VERTEX
  8
1
 10
13.500000
 20
5.938470
 42
-0.203606
  0
VERTEX
  8
1
 10
13.456491
 20
5.956492
 42
-0.429692
  0
VERTEX
  8
1
 10
13.456491
 20
6.043509
 42
-0.429692
  0
VERTEX
  8
1
 10
13.543509
 20
6.043509
 42
-0.429691
  0
VERTEX
  8
1
 10
13.543509
 20
5.956492
 42
-0.200593
  0
SEQEND
  0
POLYLINE
  8
1
 66
1
 70
1
  0
VERTEX
  8
1
 10
14.500000
 20
5.938470
 42
-0.203606
  0
VERTEX
  8
1
 10
14.456491
 20
5.956492
 42
-0.429692
  0
VERTEX
  8
1
 10
14.456491
 20
6.043509
 42
-0.429692
  0
VERTEX
  8
1
 10
14.543509
 20
6.043509
 42
-0.429691
  0
VERTEX
  8
1
 10
14.543509
 20
5.956492
 42
-0.200593
  0
SEQEND
  0
POLYLINE
  8
1
 66
1
 70
1
  0
VERTEX
  8
1
 10
15.500000
 20
5.938470
 42
-0.203606
  0
VERTEX
  8
1
 10
15.456491
 20
5.956492
 42
-0.429692
  0
VERTEX
  8
1
 10
15.456491
 20
6.043509
 42
-0.429692
  0
VERTEX
  8
1
 10
15.543509
 20
6.043509
 42
-0.429691
  0
VERTEX
  8
1
 10
15.543509
 20
5.956492
 42
-0.200593
  0
SEQEND
  0
POLYLINE
  8
1
 66
1
 70
1
  0
VERTEX
  8
1
 10
0.500000
 20
4.938470
 42
-0.203606
  0
VERTEX
  8
1
 10
0.456492
 20
4.956492
 42
-0.429692
  0
VERTEX
  8
1
 10
0.456492
 20
5.043509
 42
-0.429692
  0
VERTEX
  8
1
 10
0.543509
 20
5.043509
 42
-0.429691
  0
VERTEX
  8
1
 10
0.543509
 20
4.956492
 42
-0.200593
  0
SEQEND
  0
POLYLINE
  8
1
 66
1
 70
1
  0
VERTEX
  8
1
 10
1.500000
 20
4.938470
 42
-0.203606
  0
VERTEX
  8
1
 10
1.456491
 20
4.956492
 42
-0.429692
  0
VERTEX
  8
1
 10
1.456491
 20
5.043509
 42
-0.429692
  0
VERTEX
  8
1
 10
1.543509
 20
5.043509
 42
-0.429691
  0
VERTEX
  8
1
 10
1.543509
 20
4.956492
 42
-0.200593
  0
SEQEND
  0
POLYLINE
  8
1
 66
1
 70
1
  0
VERTEX
  8
1
 10
2.499996
 20
4.938470
 42
-0.203606
  0
VERTEX
  8
1
 10
2.456488
 20
4.956492
 42
-0.429692
  0
VERTEX
  8
1
 10
2.456488
 20
5.043509
 42
-0.429692
  0
VERTEX
  8
1
 10
2.543505
 20
5.043509
 42
-0.429691
  0
VERTEX
  8
1
 10
2.543505
 20
4.956492
 42
-0.200593
  0
SEQEND
  0
POLYLINE
  8
1
 66
1
 70
1
  0
VERTEX
  8
1
 10
3.499996
 20
4.938470
 42
-0.203606
  0
VERTEX
  8
1
 10
3.456488
 20
4.956492
 42
-0.429692
  0
VERTEX
  8
1
 10
3.456488
 20
5.043509
 42
-0.429692
  0
VERTEX
  8
1
 10
3.543505
 20
5.043509
 42
-0.429691
  0
VERTEX
  8
1
 10
3.543505
 20
4.956492
 42
-0.200593
  0
SEQEND
  0
POLYLINE
  8
1
 66
1
 70
1
  0
VERTEX
  8
1
 10
4.500000
 20
4.938470
 42
-0.203606
  0
VERTEX
  8
1
 10
4.456491
 20
4.956492
 42
-0.429692
  0
VERTEX
  8
1
 10
4.456491
 20
5.043509
 42
-0.429692
  0
VERTEX
  8
1
 10
4.543509
 20
5.043509
 42
-0.429691
  0
VERTEX
  8
1
 10
4.543509
 20
4.956492
 42
-0.200593
  0
SEQEND
  0
POLYLINE
  8
1
 66
1
 70
1
  0
VERTEX
  8
1
 10
5.500000
 20
4.938470
 42
-0.203606
  0
VERTEX
  8
1
 10
5.456491
 20
4.956492
 42
-0.429692
  0
VERTEX
  8
1
 10
5.456491
 20
5.043509
 42
-0.429692
  0
VERTEX
  8
1
 10
5.543509
 20
5.043509
 42
-0.429691
  0
VERTEX
  8
1
 10
5.543509
 20
4.956492
 42
-0.200593
  0
SEQEND
  0
POLYLINE
  8
1
 66
1
 70
1
  0
VERTEX
  8
1
 10
6.500000
 20
4.938470
 42
-0.203606
  0
VERTEX
  8
1
 10
6.456491
 20
4.956492
 42
-0.429692
  0
VERTEX
  8
1
 10
6.456491
 20
5.043509
 42
-0.429692
  0
VERTEX
  8
1
 10
6.543509
 20
5.043509
 42
-0.429691
  0
VERTEX
  8
1
 10
6.543509
 20
4.956492
 42
-0.200593
  0
SEQEND
  0
POLYLINE
  8
1
 66
1
 70
1
  0
VERTEX
  8
1
 10
7.500000
 20
4.938470
 42
-0.203606
  0
VERTEX
  8
1
 10
7.456491
 20
4.956492
 42
-0.429692
  0
VERTEX
  8
1
 10
7.456491
 20
5.043509
 42
-0.429692
  0
VERTEX
  8
1
 10
7.543509
 20
5.043509
 42
-0.429691
  0
VERTEX
  8
1
 10
7.543509
 20
4.956492
 42
-0.200593
  0
SEQEND
  0
POLYLINE
  8
1
 66
1
 70
1
  0
VERTEX
  8
1
 10
8.500000
 20
4.938470
 42
-0.203606
  0
VERTEX
  8
1
 10
8.456491
 20
4.956492
 42
-0.429692
  0
VERTEX
  8
1
 10
8.456491
 20
5.043509
 42
-0.429692
  0
VERTEX
  8
1
 10
8.543509
 20
5.043509
 42
-0.429691
  0
VERTEX
  8
1
 10
8.543509
 20
4.956492
 42
-0.200593
  0
SEQEND
  0
POLYLINE
  8
1
 66
1
 70
1
  0
VERTEX
  8
1
 10
9.500000
 20
4.938470
 42
-0.203606
  0
VERTEX
  8
1
 10
9.456491
 20
4.956492
 42
-0.429692
  0
VERTEX
  8
1
 10
9.456491
 20
5.043509
 42
-0.429692
  0
VERTEX
  8
1
 10
9.543509
 20
5.043509
 42
-0.429691
  0
VERTEX
  8
1
 10
9.543509
 20
4.956492
 42
-0.200593
  0
SEQEND
  0
POLYLINE
  8
1
 66
1
 70
1
  0
VERTEX
  8
1
 10
10.500000
 20
4.938470
 42
-0.203606
  0
VERTEX
  8
1
 10
10.456491
 20
4.956492
 42
-0.429692
  0
VERTEX
  8
1
 10
10.456491
 20
5.043509
 42
-0.429692
  0
VERTEX
  8
1
 10
10.543509
 20
5.043509
 42
-0.429691
  0
VERTEX
  8
1
 10
10.543509
 20
4.956492
 42
-0.200593
  0
SEQEND
  0
POLYLINE
  8
1
 66
1
 70
1
  0
VERTEX
  8
1
 10
11.500000
 20
4.938470
 42
-0.203606
  0
VERTEX
  8
1
 10
11.456491
 20
4.956492
 42
-0.429692
  0
VERTEX
  8
1
 10
11.456491
 20
5.043509
 42
-0.429692
  0
VERTEX
  8
1
 10
11.543509
 20
5.043509
 42
-0.429691
  0
VERTEX
  8
1
 10
11.543509
 20
4.956492
 42
-0.200593
  0
SEQEND
  0
POLYLINE
  8
1
 66
1
 70
1
  0
VERTEX
  8
1
 10
12.500000
 20
4.938470
 42
-0.203606
  0
VERTEX
  8
1
 10
12.456491
 20
4.956492
 42
-0.429692
  0
VERTEX
  8
1
 10
12.456491
 20
5.043509
 42
-0.429692
  0
VERTEX
  8
1
 10
12.543509
 20
5.043509
 42
-0.429691
  0
VERTEX
  8
1
 10
12.543509
 20
4.956492
 42
-0.200593
  0
SEQEND
  0
POLYLINE
  8
1
 66
1
 70
1
  0
VERTEX
  8
1
 10
13.500000
 20
4.938470
 42
-0.203606
  0
VERTEX
  8
1
 10
13.456491
 20
4.956492
 42
-0.429692
  0
VERTEX
  8
1
 10
13.456491
 20
5.043509
 42
-0.429692
  0
VERTEX
  8
1
 10
13.543509
 20
5.043509
 42
-0.429691
  0
VERTEX
  8
1
 10
13.543509
 20
4.956492
 42
-0.200593
  0
SEQEND
  0
POLYLINE
  8
1
 66
1
 70
1
  0
VERTEX
  8
1
 10
14.500000
 20
4.938470
 42
-0.203606
  0
VERTEX
  8
1
 10
14.456491
 20
4.956492
 42
-0.429692
  0
VERTEX
  8
1
 10
14.456491
 20
5.043509
 42
-0.429692
  0
VERTEX
  8
1
 10
14.543509
 20
5.043509
 42
-0.429691
  0
VERTEX
  8
1
 10
14.543509
 20
4.956492
 42
-0.200593
  0
SEQEND
  0
POLYLINE
  8
1
 66
1
 70
1
  0
VERTEX
  8
1
 10
15.500000
 20
4.938470
 42
-0.203606
  0
VERTEX
  8
1
 10
15.456491
 20
4.956492
 42
-0.429692
  0
VERTEX
  8
1
 10
15.456491
 20
5.043509
 42
-0.429692
  0
VERTEX
  8
1
 10
15.543509
 20
5.043509
 42
-0.429691
  0
VERTEX
  8
1
 10
15.543509
 20
4.956492
 42
-0.200593
  0
SEQEND
  0
POLYLINE
  8
1
 66
1
 70
1
  0
VERTEX
  8
1
 10
0.500000
 20
0.438456
 42
-0.203606
  0
VERTEX
  8
1
 10
0.456492
 20
0.456478
 42
-0.429692
  0
VERTEX
  8
1
 10
0.456492
 20
0.543495
 42
-0.429692
  0
VERTEX
  8
1
 10
0.543509
 20
0.543495
 42
-0.429691
  0
VERTEX
  8
1
 10
0.543509
 20
0.456478
 42
-0.200593
  0
SEQEND
  0
POLYLINE
  8
1
 66
1
 70
1
  0
VERTEX
  8
1
 10
1.500000
 20
0.438470
 42
-0.203606
  0
VERTEX
  8
1
 10
1.456491
 20
0.456492
 42
-0.429692
  0
VERTEX
  8
1
 10
1.456491
 20
0.543509
 42
-0.429692
  0
VERTEX
  8
1
 10
1.543509
 20
0.543509
 42
-0.429691
  0
VERTEX
  8
1
 10
1.543509
 20
0.456492
 42
-0.200593
  0
SEQEND
  0
POLYLINE
  8
1
 66
1
 70
1
  0
VERTEX
  8
1
 10
2.499996
 20
0.438470
 42
-0.203606
  0
VERTEX
  8
1
 10
2.456488
 20
0.456492
 42
-0.429692
  0
VERTEX
  8
1
 10
2.456488
 20
0.543509
 42
-0.429692
  0
VERTEX
  8
1
 10
2.543505
 20
0.543509
 42
-0.429691
  0
VERTEX
  8
1
 10
2.543505
 20
0.456492
 42
-0.200593
  0
SEQEND
  0
POLYLINE
  8
1
 66
1
 70
1
  0
VERTEX
  8
1
 10
3.499996
 20
0.438470
 42
-0.203606
  0
VERTEX
  8
1
 10
3.456488
 20
0.456492
 42
-0.429692
  0
VERTEX
  8
1
 10
3.456488
 20
0.543509
 42
-0.429692
  0
VERTEX
  8
1
 10
3.543505
 20
0.543509
 42
-0.429691
  0
VERTEX
  8
1
 10
3.543505
 20
0.456492
 42
-0.200593
  0
SEQEND
  0
POLYLINE
  8
1
 66
1
 70
1
  0
VERTEX
  8
1
 10
4.500000
 20
0.438470
 42
-0.203606
  0
VERTEX
  8
1
 10
4.456491
 20
0.456492
 42
-0.429692
  0
VERTEX
  8
1
 10
4.456491
 20
0.543509
 42
-0.429692
  0
VERTEX
  8
1
 10
4.543509
 20
0.543509
 42
-0.429691
  0
VERTEX
  8
1
 10
4.543509
 20
0.456492
 42
-0.200593
  0
SEQEND
  0
POLYLINE
  8
1
 66
1
 70
1
  0
VERTEX
  8
1
 10
5.500000
 20
0.438470
 42
-0.203606
  0
VERTEX
  8
1
 10
5.456491
 20
0.456492
 42
-0.429692
  0
VERTEX
  8
1
 10
5.456491
 20
0.543509
 42
-0.429692
  0
VERTEX
  8
1
 10
5.543509
 20
0.543509
 42
-0.429691
  0
VERTEX
  8
1
 10
5.543509
 20
0.456492
 42
-0.200593
  0
SEQEND
  0
POLYLINE
  8
1
 66
1
 70
1
  0
VERTEX
  8
1
 10
6.500000
 20
0.438470
 42
-0.203606
  0
VERTEX
  8
1
 10
6.456491
 20
0.456492
 42
-0.429692
  0
VERTEX
  8
1
 10
6.456491
 20
0.543509
 42
-0.429692
  0
VERTEX
  8
1
 10
6.543509
 20
0.543509
 42
-0.429691
  0
VERTEX
  8
1
 10
6.543509
 20
0.456492
 42
-0.200593
  0
SEQEND
  0
POLYLINE
  8
1
 66
1
 70
1
  0
VERTEX
  8
1
 10
7.500000
 20
0.438470
 42
-0.203606
  0
VERTEX
  8
1
 10
7.456491
 20
0.456492
 42
-0.429692
  0
VERTEX
  8
1
 10
7.456491
 20
0.543509
 42
-0.429692
  0
VERTEX
  8
1
 10
7.543509
 20
0.543509
 42
-0.429691
  0
VERTEX
  8
1
 10
7.543509
 20
0.456492
 42
-0.200593
  0
SEQEND
  0
POLYLINE
  8
1
 66
1
 70
1
  0
VERTEX
  8
1
 10
8.500000
 20
0.438470
 42
-0.203606
  0
VERTEX
  8
1
 10
8.456491
 20
0.456492
 42
-0.429692
  0
VERTEX
  8
1
 10
8.456491
 20
0.543509
 42
-0.429692
  0
VERTEX
  8
1
 10
8.543509
 20
0.543509
 42
-0.429691
  0
VERTEX
  8
1
 10
8.543509
 20
0.456492
 42
-0.200593
  0
SEQEND
  0
POLYLINE
  8
1
 66
1
 70
1
  0
VERTEX
  8
1
 10
9.500000
 20
0.438470
 42
-0.203606
  0
VERTEX
  8
1
 10
9.456491
 20
0.456492
 42
-0.429692
  0
VERTEX
  8
1
 10
9.456491
 20
0.543509
 42
-0.429692
  0
VERTEX
  8
1
 10
9.543509
 20
0.543509
 42
-0.429691
  0
VERTEX
  8
1
 10
9.543509
 20
0.456492
 42
-0.200593
  0
SEQEND
  0
POLYLINE
  8
1
 66
1
 70
1
  0
VERTEX
  8
1
 10
10.500000
 20
0.438470
 42
-0.203606
  0
VERTEX
  8
1
 10
10.456491
 20
0.456492
 42
-0.429692
  0
VERTEX
  8
1
 10
10.456491
 20
0.543509
 42
-0.429692
  0
VERTEX
  8
1
 10
10.543509
 20
0.543509
 42
-0.429691
  0
VERTEX
  8
1
 10
10.543509
 20
0.456492
 42
-0.200593
  0
SEQEND
  0
POLYLINE
  8
1
 66
1
 70
1
  0
VERTEX
  8
1
 10
11.500000
 20
0.438470
 42
-0.203606
  0
VERTEX
  8
1
 10
11.456491
 20
0.456492
 42
-0.429692
  0
VERTEX
  8
1
 10
11.456491
 20
0.543509
 42
-0.429692
  0
VERTEX
  8
1
 10
11.543509
 20
0.543509
 42
-0.429691
  0
VERTEX
  8
1
 10
11.543509
 20
0.456492
 42
-0.200593
  0
SEQEND
  0
POLYLINE
  8
1
 66
1
 70
1
  0
VERTEX
  8
1
 10
12.500000
 20
0.438470
 42
-0.203606
  0
VERTEX
  8
1
 10
12.456491
 20
0.456492
 42
-0.429692
  0
VERTEX
  8
1
 10
12.456491
 20
0.543509
 42
-0.429692
  0
VERTEX
  8
1
 10
12.543509
 20
0.543509
 42
-0.429691
  0
VERTEX
  8
1
 10
12.543509
 20
0.456492
 42
-0.200593
  0
SEQEND
  0
POLYLINE
  8
1
 66
1
 70
1
  0
VERTEX
  8
1
 10
13.500000
 20
0.438470
 42
-0.203606
  0
VERTEX
  8
1
 10
13.456491
 20
0.456492
 42
-0.429692
  0
VERTEX
  8
1
 10
13.456491
 20
0.543509
 42
-0.429692
  0
VERTEX
  8
1
 10
13.543509
 20
0.543509
 42
-0.429691
  0
VERTEX
  8
1
 10
13.543509
 20
0.456492
 42
-0.200593
  0
SEQEND
  0
POLYLINE
  8
1
 66
1
 70
1
  0
VERTEX
  8
1
 10
14.500000
 20
0.438470
 42
-0.203606
  0
VERTEX
  8
1
 10
14.456491
 20
0.456492
 42
-0.429692
  0
VERTEX
  8
1
 10
14.456491
 20
0.543509
 42
-0.429692
  0
VERTEX
  8
1
 10
14.543509
 20
0.543509
 42
-0.429691
  0
VERTEX
  8
1
 10
14.543509
 20
0.456492
 42
-0.200593
  0
SEQEND
  0
POLYLINE
  8
1
 66
1
 70
1
  0
VERTEX
  8
1
 10
15.500000
 20
0.438470
 42
-0.203606
  0
VERTEX
  8
1
 10
15.456491
 20
0.456492
 42
-0.429692
  0
VERTEX
  8
1
 10
15.456491
 20
0.543509
 42
-0.429692
  0
VERTEX
  8
1
 10
15.543509
 20
0.543509
 42
-0.429691
  0
VERTEX
  8
1
 10
15.543509
 20
0.456492
 42
-0.200593
  0
SEQEND
  0
ENDSEC
   0
EOF
