  0
SECTION
  2
HEADER
  9
$ACADVER
  1
AC1009
  9
$DWGCODEPAGE
  3
ansi_1252
  9
$INSBASE
 10
0.0
 20
0.0
 30
0.0
  9
$EXTMIN
 10
3.99999999999989
 20
5.841791893898431
 30
0.0
  9
$EXTMAX
 10
189.1034408948391
 20
145.3378805429064
 30
0.0000000000000284
  9
$LIMMIN
 10
0.0
 20
0.0
  9
$LIMMAX
 10
12.0
 20
9.0
  9
$ORTHOMODE
 70
     0
  9
$REGENMODE
 70
     1
  9
$FILLMODE
 70
     1
  9
$QTEXTMODE
 70
     0
  9
$MIRRTEXT
 70
     1
  9
$DRAGMODE
 70
     2
  9
$LTSCALE
 40
1.0
  9
$OSMODE
 70
    37
  9
$ATTMODE
 70
     1
  9
$TEXTSIZE
 40
0.2
  9
$TRACEWID
 40
0.05
  9
$TEXTSTYLE
  7
STANDARD
  9
$CLAYER
  8
DEFAULT
  9
$CELTYPE
  6
BYLAYER
  9
$CECOLOR
 62
   256
  9
$DIMSCALE
 40
1.0
  9
$DIMASZ
 40
0.18
  9
$DIMEXO
 40
0.0625
  9
$DIMDLI
 40
0.38
  9
$DIMRND
 40
0.0
  9
$DIMDLE
 40
0.0
  9
$DIMEXE
 40
0.18
  9
$DIMTP
 40
0.0
  9
$DIMTM
 40
0.0
  9
$DIMTXT
 40
0.18
  9
$DIMCEN
 40
0.09
  9
$DIMTSZ
 40
0.0
  9
$DIMTOL
 70
     0
  9
$DIMLIM
 70
     0
  9
$DIMTIH
 70
     1
  9
$DIMTOH
 70
     1
  9
$DIMSE1
 70
     0
  9
$DIMSE2
 70
     0
  9
$DIMTAD
 70
     0
  9
$DIMZIN
 70
     0
  9
$DIMBLK
  1

  9
$DIMASO
 70
     1
  9
$DIMSHO
 70
     1
  9
$DIMPOST
  1

  9
$DIMAPOST
  1

  9
$DIMALT
 70
     0
  9
$DIMALTD
 70
     2
  9
$DIMALTF
 40
25.4
  9
$DIMLFAC
 40
1.0
  9
$DIMTOFL
 70
     0
  9
$DIMTVP
 40
0.0
  9
$DIMTIX
 70
     0
  9
$DIMSOXD
 70
     0
  9
$DIMSAH
 70
     0
  9
$DIMBLK1
  1

  9
$DIMBLK2
  1

  9
$DIMSTYLE
  2
STANDARD
  9
$DIMCLRD
 70
     0
  9
$DIMCLRE
 70
     0
  9
$DIMCLRT
 70
     0
  9
$DIMTFAC
 40
1.0
  9
$DIMGAP
 40
0.09
  9
$LUNITS
 70
     2
  9
$LUPREC
 70
     2
  9
$SKETCHINC
 40
0.1
  9
$FILLETRAD
 40
0.5
  9
$AUNITS
 70
     0
  9
$AUPREC
 70
     0
  9
$MENU
  1
.
  9
$ELEVATION
 40
0.0
  9
$PELEVATION
 40
0.0
  9
$THICKNESS
 40
0.0
  9
$LIMCHECK
 70
     0
  9
$CHAMFERA
 40
0.5
  9
$CHAMFERB
 40
0.5
  9
$SKPOLY
 70
     0
  9
$TDCREATE
 40
2456088.80362919
  9
$TDUPDATE
 40
2456088.803629201
  9
$TDINDWG
 40
0.0000000116
  9
$TDUSRTIMER
 40
0.0000000116
  9
$USRTIMER
 70
     1
  9
$ANGBASE
 50
0.0
  9
$ANGDIR
 70
     0
  9
$PDMODE
 70
     0
  9
$PDSIZE
 40
0.0
  9
$PLINEWID
 40
0.0
  9
$COORDS
 70
     1
  9
$SPLFRAME
 70
     0
  9
$SPLINETYPE
 70
     6
  9
$SPLINESEGS
 70
     8
  9
$ATTDIA
 70
     0
  9
$ATTREQ
 70
     1
  9
$HANDLING
 70
     1
  9
$HANDSEED
  5
399
  9
$SURFTAB1
 70
     6
  9
$SURFTAB2
 70
     6
  9
$SURFTYPE
 70
     6
  9
$SURFU
 70
     6
  9
$SURFV
 70
     6
  9
$UCSNAME
  2

  9
$UCSORG
 10
0.0
 20
0.0
 30
0.0
  9
$UCSXDIR
 10
1.0
 20
0.0
 30
0.0
  9
$UCSYDIR
 10
0.0
 20
1.0
 30
0.0
  9
$PUCSNAME
  2

  9
$PUCSORG
 10
0.0
 20
0.0
 30
0.0
  9
$PUCSXDIR
 10
1.0
 20
0.0
 30
0.0
  9
$PUCSYDIR
 10
0.0
 20
1.0
 30
0.0
  9
$USERI1
 70
     0
  9
$USERI2
 70
     0
  9
$USERI3
 70
     0
  9
$USERI4
 70
     0
  9
$USERI5
 70
     0
  9
$USERR1
 40
0.0
  9
$USERR2
 40
0.0
  9
$USERR3
 40
0.0
  9
$USERR4
 40
0.0
  9
$USERR5
 40
0.0
  9
$WORLDVIEW
 70
     1
  9
$SHADEDGE
 70
     3
  9
$SHADEDIF
 70
    70
  9
$TILEMODE
 70
     1
  9
$MAXACTVP
 70
    64
  9
$PLIMCHECK
 70
     0
  9
$PEXTMIN
 10
1.000000000000000E+20
 20
1.000000000000000E+20
 30
1.000000000000000E+20
  9
$PEXTMAX
 10
-1.000000000000000E+20
 20
-1.000000000000000E+20
 30
-1.000000000000000E+20
  9
$PLIMMIN
 10
0.0
 20
0.0
  9
$PLIMMAX
 10
12.0
 20
9.0
  9
$UNITMODE
 70
     0
  9
$VISRETAIN
 70
     1
  9
$PLINEGEN
 70
     0
  9
$PSLTSCALE
 70
     1
  0
ENDSEC
  0
SECTION
  2
TABLES
  0
TABLE
  2
VPORT
 70
     1
  0
VPORT
  2
*ACTIVE
 70
     0
 10
0.0
 20
0.0
 11
1.0
 21
1.0
 12
0.0
 22
0.0
 13
0.0
 23
0.0
 14
0.5
 24
0.5
 15
0.5
 25
0.5
 16
0.0
 26
0.0
 36
1.0
 17
96.55172044741948
 27
75.58983621840243
 37
0.0
 40
142.2860104219882
 41
1.326943591662887
 42
50.0
 43
0.0
 44
0.0
 50
0.0
 51
0.0
 71
     0
 72
   100
 73
     1
 74
     3
 75
     0
 76
     0
 77
     0
 78
     0
  0
ENDTAB
  0
TABLE
  2
LTYPE
 70
     1
  0
LTYPE
  2
CONTINUOUS
 70
     0
  3
Solid line
 72
    65
 73
     0
 40
0.0
  0
ENDTAB
  0
TABLE
  2
LAYER
 70
     2
  0
LAYER
  2
0
 70
     0
 62
     7
  6
CONTINUOUS
  0
LAYER
  2
DEFAULT
 70
     0
 62
     7
  6
CONTINUOUS
  0
ENDTAB
  0
TABLE
  2
STYLE
 70
     1
  0
STYLE
  2
STANDARD
 70
     0
 40
0.0
 41
1.0
 50
0.0
 71
     0
 42
0.2
  3
txt
  4

  0
ENDTAB
  0
TABLE
  2
VIEW
 70
     0
  0
ENDTAB
  0
TABLE
  2
UCS
 70
     0
  0
ENDTAB
  0
TABLE
  2
APPID
 70
     1
  0
APPID
  2
ACAD
 70
     0
  0
ENDTAB
  0
TABLE
  2
DIMSTYLE
 70
     1
  0
DIMSTYLE
  2
STANDARD
 70
     0
  3

  4

  5

  6

  7

 40
1.0
 41
0.18
 42
0.0625
 43
0.38
 44
0.18
 45
0.0
 46
0.0
 47
0.0
 48
0.0
140
0.18
141
0.09
142
0.0
143
25.4
144
1.0
145
0.0
146
1.0
147
0.09
 71
     0
 72
     0
 73
     1
 74
     1
 75
     0
 76
     0
 77
     0
 78
     0
170
     0
171
     2
172
     0
173
     0
174
     0
175
     0
176
     0
177
     0
178
     0
  0
ENDTAB
  0
ENDSEC
  0
SECTION
  2
BLOCKS
  0
BLOCK
  8
0
  2
$MODEL_SPACE
 70
     0
 10
0.0
 20
0.0
 30
0.0
  3
$MODEL_SPACE
  1

  0
ENDBLK
  5
21
  8
0
  0
BLOCK
 67
     1
  8
0
  2
$PAPER_SPACE
 70
     0
 10
0.0
 20
0.0
 30
0.0
  3
$PAPER_SPACE
  1

  0
ENDBLK
  5
1D
 67
     1
  8
0
  0
ENDSEC
  0
SECTION
  2
ENTITIES
  0
POLYLINE
  5
2B
  8
DEFAULT
 66
     1
 10
0.0
 20
0.0
 30
0.0
  0
VERTEX
  5
2D
  8
DEFAULT
 10
3.999999999999943
 20
137.3378805429064
 30
0.0
  0
VERTEX
  5
2E
  8
DEFAULT
 10
3.999999999999943
 20
128.2466568560641
 30
0.0
  0
VERTEX
  5
2F
  8
DEFAULT
 10
17.0460315519548
 20
128.2466568560641
 30
0.0
  0
VERTEX
  5
30
  8
DEFAULT
 10
17.04603155207559
 20
130.8966568554507
 30
0.0
  0
VERTEX
  5
31
  8
DEFAULT
 10
25.8460315520756
 20
130.8966568554507
 30
0.0
  0
VERTEX
  5
32
  8
DEFAULT
 10
25.84603155202592
 20
128.4466568557033
 30
0.0
  0
VERTEX
  5
33
  8
DEFAULT
 10
34.84603155202592
 20
128.4466568557033
 30
0.0
  0
VERTEX
  5
34
  8
DEFAULT
 10
34.8460315518837
 20
121.7466568502175
 30
0.0
  0
VERTEX
  5
35
  8
DEFAULT
 10
25.8460315518837
 20
121.7466568502175
 30
0.0
  0
VERTEX
  5
36
  8
DEFAULT
 10
25.84603155183413
 20
119.29665685047
 30
0.0
  0
VERTEX
  5
37
  8
DEFAULT
 10
17.04603155183389
 20
119.29665685047
 30
0.0
  0
VERTEX
  5
38
  8
DEFAULT
 10
17.0460315519548
 20
121.9466568498567
 30
0.0
  0
VERTEX
  5
39
  8
DEFAULT
 10
4.0
 20
121.9466568498566
 30
0.0
  0
VERTEX
  5
3A
  8
DEFAULT
 10
3.999999999999943
 20
49.48392617690624
 30
0.0
  0
VERTEX
  5
3B
  8
DEFAULT
 10
17.0460315519548
 20
49.48392617690624
 30
0.0
  0
VERTEX
  5
3C
  8
DEFAULT
 10
17.04603155207559
 20
52.13392617629282
 30
0.0
  0
VERTEX
  5
3D
  8
DEFAULT
 10
25.8460315520756
 20
52.13392617629282
 30
0.0
  0
VERTEX
  5
3E
  8
DEFAULT
 10
25.84603155202592
 20
49.68392617654544
 30
0.0
  0
VERTEX
  5
3F
  8
DEFAULT
 10
34.84603155202592
 20
49.68392617654544
 30
0.0
  0
VERTEX
  5
40
  8
DEFAULT
 10
34.8460315518837
 20
42.98392617105964
 30
0.0
  0
VERTEX
  5
41
  8
DEFAULT
 10
25.8460315518837
 20
42.98392617105964
 30
0.0
  0
VERTEX
  5
42
  8
DEFAULT
 10
25.84603155183413
 20
40.53392617131212
 30
0.0
  0
VERTEX
  5
43
  8
DEFAULT
 10
17.04603155183401
 20
40.53392617131212
 30
0.0
  0
VERTEX
  5
44
  8
DEFAULT
 10
17.0460315519548
 20
43.18392617069884
 30
0.0
  0
VERTEX
  5
45
  8
DEFAULT
 10
4.0
 20
43.18392617069884
 30
0.0
  0
VERTEX
  5
46
  8
DEFAULT
 10
4.0
 20
13.84179189389852
 30
0.0
 42
0.4142089080507868
  0
VERTEX
  5
47
  8
DEFAULT
 10
11.99999999999989
 20
5.841791893898517
 30
0.0
  0
VERTEX
  5
48
  8
DEFAULT
 10
33.39999999927841
 20
5.841791893898431
 30
0.0
  0
VERTEX
  5
49
  8
DEFAULT
 10
33.39999999927841
 20
17.53852656612723
 30
0.0
  0
VERTEX
  5
4A
  8
DEFAULT
 10
30.74999999989183
 20
17.53852656624792
 30
0.0
  0
VERTEX
  5
4B
  8
DEFAULT
 10
30.74999999989183
 20
26.33852656624794
 30
0.0
  0
VERTEX
  5
4C
  8
DEFAULT
 10
33.1999999996392
 20
26.33852656619823
 30
0.0
  0
VERTEX
  5
4D
  8
DEFAULT
 10
33.1999999996392
 20
35.33852656619834
 30
0.0
  0
VERTEX
  5
4E
  8
DEFAULT
 10
39.90000000512504
 20
35.33852656605612
 30
0.0
  0
VERTEX
  5
4F
  8
DEFAULT
 10
39.90000000512504
 20
26.33852656605612
 30
0.0
  0
VERTEX
  5
50
  8
DEFAULT
 10
42.35000000487253
 20
26.33852656600644
 30
0.0
  0
VERTEX
  5
51
  8
DEFAULT
 10
42.35000000487253
 20
17.53852656600642
 30
0.0
  0
VERTEX
  5
52
  8
DEFAULT
 10
39.70000000548583
 20
17.53852656612713
 30
0.0
  0
VERTEX
  5
53
  8
DEFAULT
 10
39.70000000548583
 20
5.841791893898531
 30
0.0
  0
VERTEX
  5
54
  8
DEFAULT
 10
103.6994647928278
 20
5.841791893898517
 30
0.0
 42
0.4142089080507909
  0
VERTEX
  5
55
  8
DEFAULT
 10
111.6994647928278
 20
13.84179189389852
 30
0.0
  0
VERTEX
  5
56
  8
DEFAULT
 10
111.6994647928278
 20
15.56675057203663
 30
0.0
  0
VERTEX
  5
57
  8
DEFAULT
 10
128.6994647928278
 20
15.56675057203663
 30
0.0
  0
VERTEX
  5
58
  8
DEFAULT
 10
128.6994647928278
 20
13.84179189389852
 30
0.0
 42
0.4142089080507826
  0
VERTEX
  5
59
  8
DEFAULT
 10
136.6994647928278
 20
5.841791893898517
 30
0.0
  0
VERTEX
  5
5A
  8
DEFAULT
 10
153.3999999992784
 20
5.841791893898531
 30
0.0
  0
VERTEX
  5
5B
  8
DEFAULT
 10
153.3999999992784
 20
17.53853928721173
 30
0.0
  0
VERTEX
  5
5C
  8
DEFAULT
 10
150.7499999998917
 20
17.53853928733253
 30
0.0
  0
VERTEX
  5
5D
  8
DEFAULT
 10
150.7499999998917
 20
26.33853928733254
 30
0.0
  0
VERTEX
  5
5E
  8
DEFAULT
 10
153.1999999996392
 20
26.33853928728283
 30
0.0
  0
VERTEX
  5
5F
  8
DEFAULT
 10
153.1999999996392
 20
35.33853928728294
 30
0.0
  0
VERTEX
  5
60
  8
DEFAULT
 10
159.900000005125
 20
35.33853928714072
 30
0.0
  0
VERTEX
  5
61
  8
DEFAULT
 10
159.900000005125
 20
26.33853928714063
 30
0.0
  0
VERTEX
  5
62
  8
DEFAULT
 10
162.3500000048725
 20
26.33853928709104
 30
0.0
  0
VERTEX
  5
63
  8
DEFAULT
 10
162.3500000048725
 20
17.53853928709103
 30
0.0
  0
VERTEX
  5
64
  8
DEFAULT
 10
159.7000000054858
 20
17.53853928721173
 30
0.0
  0
VERTEX
  5
65
  8
DEFAULT
 10
159.7000000054858
 20
5.84179189389863
 30
0.0
  0
VERTEX
  5
66
  8
DEFAULT
 10
181.1034408948391
 20
5.841791893898531
 30
0.0
 42
0.4142089080507987
  0
VERTEX
  5
67
  8
DEFAULT
 10
189.1034408948391
 20
13.84179189389853
 30
0.0
  0
VERTEX
  5
68
  8
DEFAULT
 10
189.1034408948391
 20
137.3378805429064
 30
0.0
 42
0.4142089080507981
  0
VERTEX
  5
69
  8
DEFAULT
 10
181.1034408948391
 20
145.3378805429064
 30
0.0
  0
VERTEX
  5
6A
  8
DEFAULT
 10
164.8237088798172
 20
145.3378805429064
 30
0.0
  0
VERTEX
  5
6B
  8
DEFAULT
 10
164.8237088798172
 20
137.3792638969531
 30
0.0
  0
VERTEX
  5
6C
  8
DEFAULT
 10
167.4737088792038
 20
137.3792638968324
 30
0.0
  0
VERTEX
  5
6D
  8
DEFAULT
 10
167.4737088792038
 20
128.5792638968324
 30
0.0
  0
VERTEX
  5
6E
  8
DEFAULT
 10
165.0237088794564
 20
128.5792638968821
 30
0.0
  0
VERTEX
  5
6F
  8
DEFAULT
 10
165.0237088794564
 20
119.579263896882
 30
0.0
  0
VERTEX
  5
70
  8
DEFAULT
 10
158.3237088739706
 20
119.5792638970242
 30
0.0
  0
VERTEX
  5
71
  8
DEFAULT
 10
158.3237088739706
 20
128.5792638970242
 30
0.0
  0
VERTEX
  5
72
  8
DEFAULT
 10
155.8737088742231
 20
128.5792638970739
 30
0.0
  0
VERTEX
  5
73
  8
DEFAULT
 10
155.8737088742231
 20
137.3792638970739
 30
0.0
  0
VERTEX
  5
74
  8
DEFAULT
 10
158.5237088736098
 20
137.3792638969531
 30
0.0
  0
VERTEX
  5
75
  8
DEFAULT
 10
158.5237088736097
 20
145.3378805429064
 30
0.0
  0
VERTEX
  5
76
  8
DEFAULT
 10
69.26389568348961
 20
145.3378805429064
 30
0.0
  0
VERTEX
  5
77
  8
DEFAULT
 10
69.26389568348961
 20
137.3792638969531
 30
0.0
  0
VERTEX
  5
78
  8
DEFAULT
 10
71.91389568287622
 20
137.3792638968324
 30
0.0
  0
VERTEX
  5
79
  8
DEFAULT
 10
71.91389568287622
 20
128.5792638968324
 30
0.0
  0
VERTEX
  5
7A
  8
DEFAULT
 10
69.46389568312881
 20
128.5792638968821
 30
0.0
  0
VERTEX
  5
7B
  8
DEFAULT
 10
69.46389568312881
 20
119.579263896882
 30
0.0
  0
VERTEX
  5
7C
  8
DEFAULT
 10
62.76389567764301
 20
119.5792638970242
 30
0.0
  0
VERTEX
  5
7D
  8
DEFAULT
 10
62.76389567764301
 20
128.5792638970242
 30
0.0
  0
VERTEX
  5
7E
  8
DEFAULT
 10
60.3138956778954
 20
128.5792638970739
 30
0.0
  0
VERTEX
  5
7F
  8
DEFAULT
 10
60.31389567789552
 20
137.3792638970739
 30
0.0
  0
VERTEX
  5
80
  8
DEFAULT
 10
62.96389567728212
 20
137.3792638969531
 30
0.0
  0
VERTEX
  5
81
  8
DEFAULT
 10
62.96389567728212
 20
145.3378805429064
 30
0.0
  0
VERTEX
  5
82
  8
DEFAULT
 10
12.00000000000002
 20
145.3378805429064
 30
0.0
 42
0.4142089080507899
  0
VERTEX
  5
83
  8
DEFAULT
 10
3.999999999999886
 20
137.3378805429065
 30
0.0
  0
SEQEND
  5
2C
  8
DEFAULT
  0
CIRCLE
  5
84
  8
DEFAULT
 10
172.0000000000001
 20
120.3378805429063
 30
0.0
 40
1.999999999999943
  0
CIRCLE
  5
85
  8
DEFAULT
 10
50.97322136382382
 20
85.18000000000012
 30
0.0
 40
19.00000000000011
  0
CIRCLE
  5
86
  8
DEFAULT
 10
167.0
 20
54.33788054290642
 30
0.0
 40
2.0
  0
CIRCLE
  5
87
  8
DEFAULT
 10
100.9999999999999
 20
140.3378805429063
 30
0.0
 40
2.0
  0
CIRCLE
  5
88
  8
DEFAULT
 10
113.4733873715599
 20
85.18052370006649
 30
0.0
 40
9.250000000000028
  0
CIRCLE
  5
89
  8
DEFAULT
 10
84.0
 20
26.33788054290642
 30
0.0
 40
1.999999999999972
  0
CIRCLE
  5
8A
  8
DEFAULT
 10
83.99999999999997
 20
138.3378805429064
 30
0.0
 40
2.000000000000028
  0
CIRCLE
  5
8B
  8
DEFAULT
 10
132.9999999999999
 20
26.33788054290636
 30
0.0
 40
2.000000000000028
  0
CIRCLE
  5
8C
  8
DEFAULT
 10
145.0
 20
138.3378805429063
 30
0.0
 40
2.0
  0
CIRCLE
  5
8D
  8
DEFAULT
 10
100.0
 20
26.33788054290636
 30
0.0
 40
2.0
  0
POLYLINE
  5
8E
  8
DEFAULT
 66
     1
 10
0.0
 20
0.0
 30
0.0
  0
VERTEX
  5
90
  8
DEFAULT
 10
52.9733114204106
 20
116.3106171869934
 30
0.0
  0
VERTEX
  5
91
  8
DEFAULT
 10
48.92448034413519
 20
116.3111591796675
 30
0.0
  0
VERTEX
  5
92
  8
DEFAULT
 10
48.87523488328367
 20
116.3128044122409
 30
0.0
  0
VERTEX
  5
93
  8
DEFAULT
 10
48.82560729375399
 20
116.3155810845639
 30
0.0
  0
VERTEX
  5
94
  8
DEFAULT
 10
48.77563165703566
 20
116.319516388045
 30
0.0
  0
VERTEX
  5
95
  8
DEFAULT
 10
48.72534385884614
 20
116.3246363800301
 30
0.0
  0
VERTEX
  5
96
  8
DEFAULT
 10
48.67478155850125
 20
116.3309658567232
 30
0.0
  0
VERTEX
  5
97
  8
DEFAULT
 10
48.62398414865567
 20
116.3385282253695
 30
0.0
  0
VERTEX
  5
98
  8
DEFAULT
 10
48.5729927051039
 20
116.3473453764769
 30
0.0
  0
VERTEX
  5
99
  8
DEFAULT
 10
48.52184992639826
 20
116.3574375569058
 30
0.0
  0
VERTEX
  5
9A
  8
DEFAULT
 10
48.47060006311636
 20
116.3688232446994
 30
0.0
  0
VERTEX
  5
9B
  8
DEFAULT
 10
48.41928883668385
 20
116.3815190265694
 30
0.0
  0
VERTEX
  5
9C
  8
DEFAULT
 10
48.36796334775079
 20
116.3955394789819
 30
0.0
  0
VERTEX
  5
9D
  8
DEFAULT
 10
48.31667197420938
 20
116.4108970538107
 30
0.0
  0
VERTEX
  5
9E
  8
DEFAULT
 10
48.26546425903695
 20
116.4276019695417
 30
0.0
  0
VERTEX
  5
9F
  8
DEFAULT
 10
48.21439078825256
 20
116.4456621090111
 30
0.0
  0
VERTEX
  5
A0
  8
DEFAULT
 10
48.16350305937448
 20
116.4650829246561
 30
0.0
  0
VERTEX
  5
A1
  8
DEFAULT
 10
48.11285334087529
 20
116.4858673522329
 30
0.0
  0
VERTEX
  5
A2
  8
DEFAULT
 10
48.06249452323385
 20
116.5080157339285
 30
0.0
  0
VERTEX
  5
A3
  8
DEFAULT
 10
48.01247996228796
 20
116.5315257517428
 30
0.0
  0
VERTEX
  5
A4
  8
DEFAULT
 10
47.9628633156874
 20
116.5563923719679
 30
0.0
  0
VERTEX
  5
A5
  8
DEFAULT
 10
47.91369837335088
 20
116.5826078015129
 30
0.0
  0
VERTEX
  5
A6
  8
DEFAULT
 10
47.86503888290849
 20
116.610161456749
 30
0.0
  0
VERTEX
  5
A7
  8
DEFAULT
 10
47.8169383711998
 20
116.6390399454511
 30
0.0
  0
VERTEX
  5
A8
  8
DEFAULT
 10
47.76944996296328
 20
116.6692270623124
 30
0.0
  0
VERTEX
  5
A9
  8
DEFAULT
 10
47.72262619791508
 20
116.700703798394
 30
0.0
  0
VERTEX
  5
AA
  8
DEFAULT
 10
47.67651884746039
 20
116.7334483647536
 30
0.0
  0
VERTEX
  5
AB
  8
DEFAULT
 10
47.63117873231505
 20
116.7674362303668
 30
0.0
  0
VERTEX
  5
AC
  8
DEFAULT
 10
47.58665554233227
 20
116.8026401743287
 30
0.0
  0
VERTEX
  5
AD
  8
DEFAULT
 10
47.54299765983637
 20
116.8390303521828
 30
0.0
  0
VERTEX
  5
AE
  8
DEFAULT
 10
47.50025198774779
 20
116.8765743760967
 30
0.0
  0
VERTEX
  5
AF
  8
DEFAULT
 10
47.45846378376245
 20
116.9152374084637
 30
0.0
  0
VERTEX
  5
B0
  8
DEFAULT
 10
47.41767650180014
 20
116.954982268383
 30
0.0
  0
VERTEX
  5
B1
  8
DEFAULT
 10
47.37793164188099
 20
116.9957695503453
 30
0.0
  0
VERTEX
  5
B2
  8
DEFAULT
 10
47.33926860951385
 20
117.0375577543306
 30
0.0
  0
VERTEX
  5
B3
  8
DEFAULT
 10
47.30172458560008
 20
117.0803034264191
 30
0.0
  0
VERTEX
  5
B4
  8
DEFAULT
 10
47.26533440774585
 20
117.1239613089151
 30
0.0
  0
VERTEX
  5
B5
  8
DEFAULT
 10
47.23013046378418
 20
117.1684844988977
 30
0.0
  0
VERTEX
  5
B6
  8
DEFAULT
 10
47.19614259817075
 20
117.2138246140432
 30
0.0
  0
VERTEX
  5
B7
  8
DEFAULT
 10
47.16339803181125
 20
117.2599319644978
 30
0.0
  0
VERTEX
  5
B8
  8
DEFAULT
 10
47.13192129572957
 20
117.3067557295461
 30
0.0
  0
VERTEX
  5
B9
  8
DEFAULT
 10
47.10173417886836
 20
117.3542441377825
 30
0.0
  0
VERTEX
  5
BA
  8
DEFAULT
 10
47.07285569016625
 20
117.4023446494912
 30
0.0
  0
VERTEX
  5
BB
  8
DEFAULT
 10
47.04530203493016
 20
117.4510041399336
 30
0.0
  0
VERTEX
  5
BC
  8
DEFAULT
 10
47.01908660538516
 20
117.5001690822701
 30
0.0
  0
VERTEX
  5
BD
  8
DEFAULT
 10
46.9942199851601
 20
117.5497857288706
 30
0.0
  0
VERTEX
  5
BE
  8
DEFAULT
 10
46.97070996734578
 20
117.5998002898167
 30
0.0
  0
VERTEX
  5
BF
  8
DEFAULT
 10
46.94856158565028
 20
117.6501591074579
 30
0.0
  0
VERTEX
  5
C0
  8
DEFAULT
 10
46.9277771580733
 20
117.7008088259572
 30
0.0
  0
VERTEX
  5
C1
  8
DEFAULT
 10
46.90835634242836
 20
117.7516965548354
 30
0.0
  0
VERTEX
  5
C2
  8
DEFAULT
 10
46.89029620295895
 20
117.8027700256197
 30
0.0
  0
VERTEX
  5
C3
  8
DEFAULT
 10
46.87359128722795
 20
117.853977740792
 30
0.0
  0
VERTEX
  5
C4
  8
DEFAULT
 10
46.85823371239917
 20
117.9052691143336
 30
0.0
  0
VERTEX
  5
C5
  8
DEFAULT
 10
46.84421325998665
 20
117.9565946032666
 30
0.0
  0
VERTEX
  5
C6
  8
DEFAULT
 10
46.83151747811655
 20
118.0079058296992
 30
0.0
  0
VERTEX
  5
C7
  8
DEFAULT
 10
46.82013179032299
 20
118.0591556929811
 30
0.0
  0
VERTEX
  5
C8
  8
DEFAULT
 10
46.81003960989415
 20
118.1102984716867
 30
0.0
  0
VERTEX
  5
C9
  8
DEFAULT
 10
46.80122245878675
 20
118.1612899152386
 30
0.0
  0
VERTEX
  5
CA
  8
DEFAULT
 10
46.79366009014046
 20
118.2120873250841
 30
0.0
  0
VERTEX
  5
CB
  8
DEFAULT
 10
46.78733061344735
 20
118.2626496254289
 30
0.0
  0
VERTEX
  5
CC
  8
DEFAULT
 10
46.7822106214623
 20
118.3129374236184
 30
0.0
  0
VERTEX
  5
CD
  8
DEFAULT
 10
46.77827531798118
 20
118.3629130603367
 30
0.0
  0
VERTEX
  5
CE
  8
DEFAULT
 10
46.77549864565816
 20
118.4125406498663
 30
0.0
  0
VERTEX
  5
CF
  8
DEFAULT
 10
46.77385341308485
 20
118.4617861107178
 30
0.0
  0
VERTEX
  5
D0
  8
DEFAULT
 10
46.77331142041055
 20
118.5106171869934
 30
0.0
  0
VERTEX
  5
D1
  8
DEFAULT
 10
46.77385341308485
 20
118.5594482632689
 30
0.0
  0
VERTEX
  5
D2
  8
DEFAULT
 10
46.77549864565816
 20
118.6086937241205
 30
0.0
  0
VERTEX
  5
D3
  8
DEFAULT
 10
46.77827531798118
 20
118.6583213136501
 30
0.0
  0
VERTEX
  5
D4
  8
DEFAULT
 10
46.7822106214623
 20
118.7082969503684
 30
0.0
  0
VERTEX
  5
D5
  8
DEFAULT
 10
46.78733061344735
 20
118.7585847485579
 30
0.0
  0
VERTEX
  5
D6
  8
DEFAULT
 10
46.79366009014046
 20
118.8091470489027
 30
0.0
  0
VERTEX
  5
D7
  8
DEFAULT
 10
46.8012224587867
 20
118.8599444587483
 30
0.0
  0
VERTEX
  5
D8
  8
DEFAULT
 10
46.81003960989409
 20
118.9109359023002
 30
0.0
  0
VERTEX
  5
D9
  8
DEFAULT
 10
46.82013179032305
 20
118.9620786810056
 30
0.0
  0
VERTEX
  5
DA
  8
DEFAULT
 10
46.83151747811655
 20
119.0133285442875
 30
0.0
  0
VERTEX
  5
DB
  8
DEFAULT
 10
46.84421325998665
 20
119.0646397707201
 30
0.0
  0
VERTEX
  5
DC
  8
DEFAULT
 10
46.85823371239906
 20
119.1159652596532
 30
0.0
  0
VERTEX
  5
DD
  8
DEFAULT
 10
46.87359128722795
 20
119.1672566331947
 30
0.0
  0
VERTEX
  5
DE
  8
DEFAULT
 10
46.89029620295889
 20
119.218464348367
 30
0.0
  0
VERTEX
  5
DF
  8
DEFAULT
 10
46.90835634242825
 20
119.2695378191514
 30
0.0
  0
VERTEX
  5
E0
  8
DEFAULT
 10
46.92777715807318
 20
119.3204255480296
 30
0.0
  0
VERTEX
  5
E1
  8
DEFAULT
 10
46.94856158565028
 20
119.3710752665288
 30
0.0
  0
VERTEX
  5
E2
  8
DEFAULT
 10
46.97070996734578
 20
119.4214340841701
 30
0.0
  0
VERTEX
  5
E3
  8
DEFAULT
 10
46.9942199851601
 20
119.4714486451161
 30
0.0
  0
VERTEX
  5
E4
  8
DEFAULT
 10
47.0190866053851
 20
119.5210652917167
 30
0.0
  0
VERTEX
  5
E5
  8
DEFAULT
 10
47.04530203493005
 20
119.5702302340533
 30
0.0
  0
VERTEX
  5
E6
  8
DEFAULT
 10
47.07285569016619
 20
119.6188897244956
 30
0.0
  0
VERTEX
  5
E7
  8
DEFAULT
 10
47.10173417886836
 20
119.6669902362043
 30
0.0
  0
VERTEX
  5
E8
  8
DEFAULT
 10
47.13192129572946
 20
119.7144786444408
 30
0.0
  0
VERTEX
  5
E9
  8
DEFAULT
 10
47.1633980318112
 20
119.7613024094889
 30
0.0
  0
VERTEX
  5
EA
  8
DEFAULT
 10
47.19614259817075
 20
119.8074097599436
 30
0.0
  0
VERTEX
  5
EB
  8
DEFAULT
 10
47.23013046378406
 20
119.852749875089
 30
0.0
  0
VERTEX
  5
EC
  8
DEFAULT
 10
47.26533440774585
 20
119.8972730650717
 30
0.0
  0
VERTEX
  5
ED
  8
DEFAULT
 10
47.30172458560008
 20
119.9409309475676
 30
0.0
  0
VERTEX
  5
EE
  8
DEFAULT
 10
47.33926860951385
 20
119.9836766196562
 30
0.0
  0
VERTEX
  5
EF
  8
DEFAULT
 10
47.37793164188088
 20
120.0254648236415
 30
0.0
  0
VERTEX
  5
F0
  8
DEFAULT
 10
47.41767650180014
 20
120.0662521056038
 30
0.0
  0
VERTEX
  5
F1
  8
DEFAULT
 10
47.4584637837624
 20
120.1059969655231
 30
0.0
  0
VERTEX
  5
F2
  8
DEFAULT
 10
47.50025198774767
 20
120.1446599978901
 30
0.0
  0
VERTEX
  5
F3
  8
DEFAULT
 10
47.54299765983626
 20
120.182204021804
 30
0.0
  0
VERTEX
  5
F4
  8
DEFAULT
 10
47.58665554233215
 20
120.2185941996581
 30
0.0
  0
VERTEX
  5
F5
  8
DEFAULT
 10
47.63117873231499
 20
120.2537981436199
 30
0.0
  0
VERTEX
  5
F6
  8
DEFAULT
 10
47.67651884746039
 20
120.2877860092333
 30
0.0
  0
VERTEX
  5
F7
  8
DEFAULT
 10
47.72262619791519
 20
120.3205305755928
 30
0.0
  0
VERTEX
  5
F8
  8
DEFAULT
 10
47.76944996296317
 20
120.3520073116745
 30
0.0
  0
VERTEX
  5
F9
  8
DEFAULT
 10
47.8169383711998
 20
120.3821944285357
 30
0.0
  0
VERTEX
  5
FA
  8
DEFAULT
 10
47.86503888290849
 20
120.4110729172378
 30
0.0
  0
VERTEX
  5
FB
  8
DEFAULT
 10
47.91369837335088
 20
120.4386265724739
 30
0.0
  0
VERTEX
  5
FC
  8
DEFAULT
 10
47.9628633156874
 20
120.4648420020189
 30
0.0
  0
VERTEX
  5
FD
  8
DEFAULT
 10
48.01247996228796
 20
120.489708622244
 30
0.0
  0
VERTEX
  5
FE
  8
DEFAULT
 10
48.06249452323385
 20
120.5132186400583
 30
0.0
  0
VERTEX
  5
FF
  8
DEFAULT
 10
48.11285334087529
 20
120.5353670217538
 30
0.0
  0
VERTEX
  5
100
  8
DEFAULT
 10
48.16350305937448
 20
120.5561514493308
 30
0.0
  0
VERTEX
  5
101
  8
DEFAULT
 10
48.21439078825267
 20
120.5755722649757
 30
0.0
  0
VERTEX
  5
102
  8
DEFAULT
 10
48.26546425903695
 20
120.5936324044451
 30
0.0
  0
VERTEX
  5
103
  8
DEFAULT
 10
48.31667197420938
 20
120.6103373201761
 30
0.0
  0
VERTEX
  5
104
  8
DEFAULT
 10
48.36796334775079
 20
120.6256948950049
 30
0.0
  0
VERTEX
  5
105
  8
DEFAULT
 10
48.41928883668385
 20
120.6397153474174
 30
0.0
  0
VERTEX
  5
106
  8
DEFAULT
 10
48.47060006311636
 20
120.6524111292874
 30
0.0
  0
VERTEX
  5
107
  8
DEFAULT
 10
48.52184992639826
 20
120.663796817081
 30
0.0
  0
VERTEX
  5
108
  8
DEFAULT
 10
48.5729927051039
 20
120.6738889975099
 30
0.0
  0
VERTEX
  5
109
  8
DEFAULT
 10
48.62398414865567
 20
120.6827061486173
 30
0.0
  0
VERTEX
  5
10A
  8
DEFAULT
 10
48.67478155850119
 20
120.6902685172636
 30
0.0
  0
VERTEX
  5
10B
  8
DEFAULT
 10
48.72534385884609
 20
120.6965979939567
 30
0.0
  0
VERTEX
  5
10C
  8
DEFAULT
 10
48.77563165703566
 20
120.7017179859418
 30
0.0
  0
VERTEX
  5
10D
  8
DEFAULT
 10
48.82560729375376
 20
120.7056532894229
 30
0.0
  0
VERTEX
  5
10E
  8
DEFAULT
 10
48.87523488328355
 20
120.7084299617458
 30
0.0
  0
VERTEX
  5
10F
  8
DEFAULT
 10
48.92448034413508
 20
120.7100751943192
 30
0.0
  0
VERTEX
  5
110
  8
DEFAULT
 10
52.9733114204106
 20
120.7106171869934
 30
0.0000000000000284
  0
VERTEX
  5
111
  8
DEFAULT
 10
53.02214249668617
 20
120.7100751943192
 30
0.0000000000000284
  0
VERTEX
  5
112
  8
DEFAULT
 10
53.0713879575377
 20
120.7084299617458
 30
0.0000000000000284
  0
VERTEX
  5
113
  8
DEFAULT
 10
53.12101554706726
 20
120.7056532894229
 30
0.0000000000000284
  0
VERTEX
  5
114
  8
DEFAULT
 10
53.17099118378559
 20
120.7017179859418
 30
0.0000000000000284
  0
VERTEX
  5
115
  8
DEFAULT
 10
53.22127898197516
 20
120.6965979939567
 30
0.0000000000000284
  0
VERTEX
  5
116
  8
DEFAULT
 10
53.27184128232
 20
120.6902685172636
 30
0.0000000000000284
  0
VERTEX
  5
117
  8
DEFAULT
 10
53.32263869216536
 20
120.6827061486174
 30
0.0000000000000284
  0
VERTEX
  5
118
  8
DEFAULT
 10
53.37363013571729
 20
120.6738889975099
 30
0.0000000000000284
  0
VERTEX
  5
119
  8
DEFAULT
 10
53.42477291442299
 20
120.6637968170811
 30
0.0000000000000284
  0
VERTEX
  5
11A
  8
DEFAULT
 10
53.47602277770477
 20
120.6524111292875
 30
0.0000000000000284
  0
VERTEX
  5
11B
  8
DEFAULT
 10
53.5273340041374
 20
120.6397153474175
 30
0.0000000000000284
  0
VERTEX
  5
11C
  8
DEFAULT
 10
53.57865949307035
 20
120.6256948950049
 30
0.0000000000000284
  0
VERTEX
  5
11D
  8
DEFAULT
 10
53.62995086661186
 20
120.6103373201761
 30
0.0000000000000284
  0
VERTEX
  5
11E
  8
DEFAULT
 10
53.68115858178425
 20
120.5936324044451
 30
0.0000000000000284
  0
VERTEX
  5
11F
  8
DEFAULT
 10
53.73223205256846
 20
120.5755722649758
 30
0.0000000000000284
  0
VERTEX
  5
120
  8
DEFAULT
 10
53.78311978144666
 20
120.5561514493308
 30
0.0000000000000284
  0
VERTEX
  5
121
  8
DEFAULT
 10
53.83376949994596
 20
120.5353670217538
 30
0.0000000000000284
  0
VERTEX
  5
122
  8
DEFAULT
 10
53.88412831758728
 20
120.5132186400583
 30
0.0000000000000284
  0
VERTEX
  5
123
  8
DEFAULT
 10
53.93414287853329
 20
120.4897086222439
 30
0.0000000000000284
  0
VERTEX
  5
124
  8
DEFAULT
 10
53.98375952513379
 20
120.4648420020189
 30
0.0000000000000284
  0
VERTEX
  5
125
  8
DEFAULT
 10
54.03292446747037
 20
120.4386265724739
 30
0.0000000000000284
  0
VERTEX
  5
126
  8
DEFAULT
 10
54.0815839579127
 20
120.4110729172378
 30
0.0000000000000284
  0
VERTEX
  5
127
  8
DEFAULT
 10
54.1296844696214
 20
120.3821944285357
 30
0.0000000000000284
  0
VERTEX
  5
128
  8
DEFAULT
 10
54.17717287785786
 20
120.3520073116745
 30
0.0000000000000284
  0
VERTEX
  5
129
  8
DEFAULT
 10
54.22399664290606
 20
120.3205305755928
 30
0.0000000000000284
  0
VERTEX
  5
12A
  8
DEFAULT
 10
54.27010399336069
 20
120.2877860092332
 30
0.0000000000000284
  0
VERTEX
  5
12B
  8
DEFAULT
 10
54.3154441085062
 20
120.2537981436199
 30
0.0000000000000284
  0
VERTEX
  5
12C
  8
DEFAULT
 10
54.35996729848887
 20
120.2185941996581
 30
0.0000000000000284
  0
VERTEX
  5
12D
  8
DEFAULT
 10
54.40362518098487
 20
120.182204021804
 30
0.0000000000000284
  0
VERTEX
  5
12E
  8
DEFAULT
 10
54.44637085307335
 20
120.1446599978901
 30
0.0000000000000284
  0
VERTEX
  5
12F
  8
DEFAULT
 10
54.48815905705879
 20
120.1059969655231
 30
0.0000000000000284
  0
VERTEX
  5
130
  8
DEFAULT
 10
54.52894633902099
 20
120.0662521056038
 30
0.0000000000000284
  0
VERTEX
  5
131
  8
DEFAULT
 10
54.56869119894026
 20
120.0254648236415
 30
0.0000000000000284
  0
VERTEX
  5
132
  8
DEFAULT
 10
54.60735423130728
 20
119.9836766196562
 30
0.0000000000000284
  0
VERTEX
  5
133
  8
DEFAULT
 10
54.64489825522105
 20
119.9409309475676
 30
0.0000000000000284
  0
VERTEX
  5
134
  8
DEFAULT
 10
54.68128843307528
 20
119.8972730650717
 30
0.0000000000000284
  0
VERTEX
  5
135
  8
DEFAULT
 10
54.71649237703718
 20
119.852749875089
 30
0.0000000000000284
  0
VERTEX
  5
136
  8
DEFAULT
 10
54.75048024265038
 20
119.8074097599436
 30
0.0000000000000284
  0
VERTEX
  5
137
  8
DEFAULT
 10
54.78322480900997
 20
119.7613024094889
 30
0.0000000000000284
  0
VERTEX
  5
138
  8
DEFAULT
 10
54.81470154509157
 20
119.7144786444407
 30
0.0000000000000284
  0
VERTEX
  5
139
  8
DEFAULT
 10
54.84488866195287
 20
119.6669902362042
 30
0.0000000000000284
  0
VERTEX
  5
13A
  8
DEFAULT
 10
54.87376715065497
 20
119.6188897244956
 30
0.0000000000000284
  0
VERTEX
  5
13B
  8
DEFAULT
 10
54.90132080589106
 20
119.5702302340532
 30
0.0000000000000284
  0
VERTEX
  5
13C
  8
DEFAULT
 10
54.92753623543607
 20
119.5210652917166
 30
0.0000000000000284
  0
VERTEX
  5
13D
  8
DEFAULT
 10
54.95240285566118
 20
119.471448645116
 30
0.0000000000000284
  0
VERTEX
  5
13E
  8
DEFAULT
 10
54.97591287347547
 20
119.4214340841701
 30
0.0000000000000284
  0
VERTEX
  5
13F
  8
DEFAULT
 10
54.99806125517097
 20
119.3710752665288
 30
0.0000000000000284
  0
VERTEX
  5
140
  8
DEFAULT
 10
55.01884568274787
 20
119.3204255480295
 30
0.0000000000000284
  0
VERTEX
  5
141
  8
DEFAULT
 10
55.03826649839297
 20
119.2695378191514
 30
0.0000000000000284
  0
VERTEX
  5
142
  8
DEFAULT
 10
55.05632663786238
 20
119.218464348367
 30
0.0000000000000284
  0
VERTEX
  5
143
  8
DEFAULT
 10
55.07303155359327
 20
119.1672566331947
 30
0.0000000000000284
  0
VERTEX
  5
144
  8
DEFAULT
 10
55.08838912842208
 20
119.1159652596532
 30
0.0000000000000284
  0
VERTEX
  5
145
  8
DEFAULT
 10
55.10240958083457
 20
119.0646397707201
 30
0.0000000000000284
  0
VERTEX
  5
146
  8
DEFAULT
 10
55.11510536270458
 20
119.0133285442876
 30
0.0000000000000284
  0
VERTEX
  5
147
  8
DEFAULT
 10
55.12649105049817
 20
118.9620786810057
 30
0.0000000000000284
  0
VERTEX
  5
148
  8
DEFAULT
 10
55.13658323092707
 20
118.9109359023001
 30
0.0000000000000284
  0
VERTEX
  5
149
  8
DEFAULT
 10
55.14540038203447
 20
118.8599444587483
 30
0.0000000000000284
  0
VERTEX
  5
14A
  8
DEFAULT
 10
55.15296275068079
 20
118.8091470489028
 30
0.0000000000000284
  0
VERTEX
  5
14B
  8
DEFAULT
 10
55.15929222737387
 20
118.7585847485579
 30
0.0000000000000284
  0
VERTEX
  5
14C
  8
DEFAULT
 10
55.16441221935898
 20
118.7082969503683
 30
0.0000000000000284
  0
VERTEX
  5
14D
  8
DEFAULT
 10
55.16834752283998
 20
118.6583213136501
 30
0.0000000000000284
  0
VERTEX
  5
14E
  8
DEFAULT
 10
55.17112419516306
 20
118.6086937241204
 30
0.0000000000000284
  0
VERTEX
  5
14F
  8
DEFAULT
 10
55.17276942773648
 20
118.5594482632689
 30
0.0000000000000284
  0
VERTEX
  5
150
  8
DEFAULT
 10
55.17331142041058
 20
118.5106171869934
 30
0.0000000000000284
  0
VERTEX
  5
151
  8
DEFAULT
 10
55.17276942773637
 20
118.4617861107179
 30
0.0000000000000284
  0
VERTEX
  5
152
  8
DEFAULT
 10
55.17112419516306
 20
118.4125406498664
 30
0.0000000000000284
  0
VERTEX
  5
153
  8
DEFAULT
 10
55.16834752283998
 20
118.3629130603367
 30
0.0000000000000284
  0
VERTEX
  5
154
  8
DEFAULT
 10
55.16441221935887
 20
118.3129374236185
 30
0.0000000000000284
  0
VERTEX
  5
155
  8
DEFAULT
 10
55.15929222737387
 20
118.2626496254289
 30
0.0000000000000284
  0
VERTEX
  5
156
  8
DEFAULT
 10
55.15296275068067
 20
118.2120873250841
 30
0.0000000000000284
  0
VERTEX
  5
157
  8
DEFAULT
 10
55.14540038203438
 20
118.1612899152386
 30
0.0000000000000284
  0
VERTEX
  5
158
  8
DEFAULT
 10
55.13658323092696
 20
118.1102984716867
 30
0.0000000000000284
  0
VERTEX
  5
159
  8
DEFAULT
 10
55.12649105049817
 20
118.0591556929811
 30
0.0000000000000284
  0
VERTEX
  5
15A
  8
DEFAULT
 10
55.11510536270467
 20
118.0079058296992
 30
0.0000000000000284
  0
VERTEX
  5
15B
  8
DEFAULT
 10
55.10240958083457
 20
117.9565946032666
 30
0.0000000000000284
  0
VERTEX
  5
15C
  8
DEFAULT
 10
55.08838912842208
 20
117.9052691143336
 30
0.0000000000000284
  0
VERTEX
  5
15D
  8
DEFAULT
 10
55.07303155359327
 20
117.8539777407921
 30
0.0000000000000284
  0
VERTEX
  5
15E
  8
DEFAULT
 10
55.05632663786227
 20
117.8027700256198
 30
0.0000000000000284
  0
VERTEX
  5
15F
  8
DEFAULT
 10
55.03826649839289
 20
117.7516965548354
 30
0.0000000000000284
  0
VERTEX
  5
160
  8
DEFAULT
 10
55.01884568274787
 20
117.7008088259573
 30
0.0000000000000284
  0
VERTEX
  5
161
  8
DEFAULT
 10
54.99806125517097
 20
117.650159107458
 30
0.0000000000000284
  0
VERTEX
  5
162
  8
DEFAULT
 10
54.97591287347547
 20
117.5998002898167
 30
0.0000000000000284
  0
VERTEX
  5
163
  8
DEFAULT
 10
54.95240285566106
 20
117.5497857288707
 30
0.0000000000000284
  0
VERTEX
  5
164
  8
DEFAULT
 10
54.92753623543607
 20
117.5001690822702
 30
0.0000000000000284
  0
VERTEX
  5
165
  8
DEFAULT
 10
54.90132080589106
 20
117.4510041399336
 30
0.0000000000000284
  0
VERTEX
  5
166
  8
DEFAULT
 10
54.87376715065497
 20
117.4023446494913
 30
0.0000000000000284
  0
VERTEX
  5
167
  8
DEFAULT
 10
54.84488866195287
 20
117.3542441377825
 30
0.0000000000000284
  0
VERTEX
  5
168
  8
DEFAULT
 10
54.81470154509157
 20
117.3067557295461
 30
0.0000000000000284
  0
VERTEX
  5
169
  8
DEFAULT
 10
54.78322480900997
 20
117.2599319644979
 30
0.0000000000000284
  0
VERTEX
  5
16A
  8
DEFAULT
 10
54.75048024265038
 20
117.2138246140432
 30
0.0000000000000284
  0
VERTEX
  5
16B
  8
DEFAULT
 10
54.71649237703707
 20
117.1684844988978
 30
0.0000000000000284
  0
VERTEX
  5
16C
  8
DEFAULT
 10
54.68128843307528
 20
117.1239613089151
 30
0.0000000000000284
  0
VERTEX
  5
16D
  8
DEFAULT
 10
54.64489825522116
 20
117.0803034264191
 30
0.0000000000000284
  0
VERTEX
  5
16E
  8
DEFAULT
 10
54.60735423130728
 20
117.0375577543306
 30
0.0000000000000284
  0
VERTEX
  5
16F
  8
DEFAULT
 10
54.56869119894026
 20
116.9957695503453
 30
0.0000000000000284
  0
VERTEX
  5
170
  8
DEFAULT
 10
54.52894633902099
 20
116.954982268383
 30
0.0000000000000284
  0
VERTEX
  5
171
  8
DEFAULT
 10
54.48815905705879
 20
116.9152374084637
 30
0.0000000000000284
  0
VERTEX
  5
172
  8
DEFAULT
 10
54.44637085307346
 20
116.8765743760968
 30
0.0000000000000284
  0
VERTEX
  5
173
  8
DEFAULT
 10
54.40362518098487
 20
116.8390303521828
 30
0.0000000000000284
  0
VERTEX
  5
174
  8
DEFAULT
 10
54.35996729848887
 20
116.8026401743288
 30
0.0000000000000284
  0
VERTEX
  5
175
  8
DEFAULT
 10
54.3154441085062
 20
116.7674362303669
 30
0.0
  0
VERTEX
  5
176
  8
DEFAULT
 10
54.27010399336075
 20
116.7334483647536
 30
0.0
  0
VERTEX
  5
177
  8
DEFAULT
 10
54.22399664290606
 20
116.700703798394
 30
0.0
  0
VERTEX
  5
178
  8
DEFAULT
 10
54.17717287785786
 20
116.6692270623124
 30
0.0
  0
VERTEX
  5
179
  8
DEFAULT
 10
54.12968446962145
 20
116.6390399454511
 30
0.0
  0
VERTEX
  5
17A
  8
DEFAULT
 10
54.08158395791276
 20
116.6101614567491
 30
0.0
  0
VERTEX
  5
17B
  8
DEFAULT
 10
54.03292446747037
 20
116.5826078015129
 30
0.0
  0
VERTEX
  5
17C
  8
DEFAULT
 10
53.98375952513385
 20
116.5563923719679
 30
0.0
  0
VERTEX
  5
17D
  8
DEFAULT
 10
53.93414287853329
 20
116.5315257517428
 30
0.0
  0
VERTEX
  5
17E
  8
DEFAULT
 10
53.88412831758728
 20
116.5080157339286
 30
0.0
  0
VERTEX
  5
17F
  8
DEFAULT
 10
53.83376949994596
 20
116.485867352233
 30
0.0
  0
VERTEX
  5
180
  8
DEFAULT
 10
53.78311978144677
 20
116.465082924656
 30
0.0
  0
VERTEX
  5
181
  8
DEFAULT
 10
53.73223205256869
 20
116.445662109011
 30
0.0
  0
VERTEX
  5
182
  8
DEFAULT
 10
53.68115858178425
 20
116.4276019695417
 30
0.0
  0
VERTEX
  5
183
  8
DEFAULT
 10
53.62995086661186
 20
116.4108970538107
 30
0.0
  0
VERTEX
  5
184
  8
DEFAULT
 10
53.57865949307035
 20
116.3955394789819
 30
0.0
  0
VERTEX
  5
185
  8
DEFAULT
 10
53.5273340041374
 20
116.3815190265694
 30
0.0
  0
VERTEX
  5
186
  8
DEFAULT
 10
53.47602277770477
 20
116.3688232446994
 30
0.0
  0
VERTEX
  5
187
  8
DEFAULT
 10
53.42477291442287
 20
116.3574375569058
 30
0.0
  0
VERTEX
  5
188
  8
DEFAULT
 10
53.37363013571735
 20
116.347345376477
 30
0.0
  0
VERTEX
  5
189
  8
DEFAULT
 10
53.32263869216547
 20
116.3385282253695
 30
0.0
  0
VERTEX
  5
18A
  8
DEFAULT
 10
53.27184128232
 20
116.3309658567233
 30
0.0
  0
VERTEX
  5
18B
  8
DEFAULT
 10
53.22127898197505
 20
116.3246363800301
 30
0.0
  0
VERTEX
  5
18C
  8
DEFAULT
 10
53.17099118378559
 20
116.3195163880451
 30
0.0
  0
VERTEX
  5
18D
  8
DEFAULT
 10
53.12101554706726
 20
116.315581084564
 30
0.0
  0
VERTEX
  5
18E
  8
DEFAULT
 10
53.0713879575377
 20
116.3128044122409
 30
0.0
  0
VERTEX
  5
18F
  8
DEFAULT
 10
53.02214249668617
 20
116.3111591796675
 30
0.0
  0
VERTEX
  5
190
  8
DEFAULT
 10
52.9733114204106
 20
116.3106171869934
 30
0.0
  0
SEQEND
  5
8F
  8
DEFAULT
  0
CIRCLE
  5
191
  8
DEFAULT
 10
177.9999999999999
 20
26.33788054290639
 30
0.0
 40
2.0
  0
POLYLINE
  5
192
  8
DEFAULT
 66
     1
 10
0.0
 20
0.0
 30
0.0
  0
VERTEX
  5
194
  8
DEFAULT
 10
52.97465306558223
 20
49.64707490412007
 30
0.0
  0
VERTEX
  5
195
  8
DEFAULT
 10
48.9258219893066
 20
49.64761689679426
 30
0.0
  0
VERTEX
  5
196
  8
DEFAULT
 10
48.87657652845513
 20
49.64926212936757
 30
0.0
  0
VERTEX
  5
197
  8
DEFAULT
 10
48.8269489389254
 20
49.65203880169068
 30
0.0
  0
VERTEX
  5
198
  8
DEFAULT
 10
48.77697330220724
 20
49.65597410517177
 30
0.0
  0
VERTEX
  5
199
  8
DEFAULT
 10
48.72668550401772
 20
49.66109409715676
 30
0.0
  0
VERTEX
  5
19A
  8
DEFAULT
 10
48.67612320367283
 20
49.66742357384996
 30
0.0
  0
VERTEX
  5
19B
  8
DEFAULT
 10
48.6253257938273
 20
49.67498594249616
 30
0.0
  0
VERTEX
  5
19C
  8
DEFAULT
 10
48.57433435027554
 20
49.68380309360359
 30
0.0
  0
VERTEX
  5
19D
  8
DEFAULT
 10
48.52319157156984
 20
49.69389527403249
 30
0.0
  0
VERTEX
  5
19E
  8
DEFAULT
 10
48.471941708288
 20
49.70528096182608
 30
0.0
  0
VERTEX
  5
19F
  8
DEFAULT
 10
48.42063048185543
 20
49.71797674369617
 30
0.0
  0
VERTEX
  5
1A0
  8
DEFAULT
 10
48.36930499292231
 20
49.73199719610858
 30
0.0
  0
VERTEX
  5
1A1
  8
DEFAULT
 10
48.31801361938091
 20
49.74735477093748
 30
0.0
  0
VERTEX
  5
1A2
  8
DEFAULT
 10
48.26680590420864
 20
49.76405968666836
 30
0.0
  0
VERTEX
  5
1A3
  8
DEFAULT
 10
48.21573243342419
 20
49.78211982613777
 30
0.0
  0
VERTEX
  5
1A4
  8
DEFAULT
 10
48.164844704546
 20
49.80154064178276
 30
0.0
  0
VERTEX
  5
1A5
  8
DEFAULT
 10
48.1141949860467
 20
49.82232506935966
 30
0.0
  0
VERTEX
  5
1A6
  8
DEFAULT
 10
48.06383616840543
 20
49.84447345105528
 30
0.0
  0
VERTEX
  5
1A7
  8
DEFAULT
 10
48.01382160745953
 20
49.86798346886957
 30
0.0
  0
VERTEX
  5
1A8
  8
DEFAULT
 10
47.96420496085892
 20
49.89285008909468
 30
0.0
  0
VERTEX
  5
1A9
  8
DEFAULT
 10
47.91504001852229
 20
49.91906551863968
 30
0.0
  0
VERTEX
  5
1AA
  8
DEFAULT
 10
47.86638052808001
 20
49.94661917387566
 30
0.0
  0
VERTEX
  5
1AB
  8
DEFAULT
 10
47.81828001637132
 20
49.97549766257788
 30
0.0
  0
VERTEX
  5
1AC
  8
DEFAULT
 10
47.7707916081348
 20
50.00568477943906
 30
0.0
  0
VERTEX
  5
1AD
  8
DEFAULT
 10
47.7239678430866
 20
50.03716151552067
 30
0.0
  0
VERTEX
  5
1AE
  8
DEFAULT
 10
47.67786049263202
 20
50.06990608188016
 30
0.0
  0
VERTEX
  5
1AF
  8
DEFAULT
 10
47.63252037748651
 20
50.10389394749356
 30
0.0
  0
VERTEX
  5
1B0
  8
DEFAULT
 10
47.58799718750379
 20
50.13909789145546
 30
0.0
  0
VERTEX
  5
1B1
  8
DEFAULT
 10
47.5443393050079
 20
50.17548806930958
 30
0.0
  0
VERTEX
  5
1B2
  8
DEFAULT
 10
47.50159363291931
 20
50.21303209322338
 30
0.0
  0
VERTEX
  5
1B3
  8
DEFAULT
 10
47.45980542893403
 20
50.25169512559037
 30
0.0
  0
VERTEX
  5
1B4
  8
DEFAULT
 10
47.41901814697184
 20
50.29143998550967
 30
0.0
  0
VERTEX
  5
1B5
  8
DEFAULT
 10
47.3792732870524
 20
50.33222726747186
 30
0.0
  0
VERTEX
  5
1B6
  8
DEFAULT
 10
47.34061025468554
 20
50.37401547145717
 30
0.0
  0
VERTEX
  5
1B7
  8
DEFAULT
 10
47.30306623077161
 20
50.41676114354578
 30
0.0
  0
VERTEX
  5
1B8
  8
DEFAULT
 10
47.26667605291749
 20
50.46041902604176
 30
0.0
  0
VERTEX
  5
1B9
  8
DEFAULT
 10
47.23147210895564
 20
50.50494221602446
 30
0.0
  0
VERTEX
  5
1BA
  8
DEFAULT
 10
47.19748424334233
 20
50.55028233116988
 30
0.0
  0
VERTEX
  5
1BB
  8
DEFAULT
 10
47.16473967698272
 20
50.59638968162446
 30
0.0
  0
VERTEX
  5
1BC
  8
DEFAULT
 10
47.13326294090109
 20
50.64321344667266
 30
0.0
  0
VERTEX
  5
1BD
  8
DEFAULT
 10
47.10307582403993
 20
50.69070185490926
 30
0.0
  0
VERTEX
  5
1BE
  8
DEFAULT
 10
47.07419733533783
 20
50.73880236661788
 30
0.0
  0
VERTEX
  5
1BF
  8
DEFAULT
 10
47.04664368010174
 20
50.78746185706026
 30
0.0
  0
VERTEX
  5
1C0
  8
DEFAULT
 10
47.02042825055673
 20
50.83662679939687
 30
0.0
  0
VERTEX
  5
1C1
  8
DEFAULT
 10
46.99556163033162
 20
50.88624344599748
 30
0.0
  0
VERTEX
  5
1C2
  8
DEFAULT
 10
46.9720516125173
 20
50.93625800694338
 30
0.0
  0
VERTEX
  5
1C3
  8
DEFAULT
 10
46.94990323082169
 20
50.98661682458467
 30
0.0
  0
VERTEX
  5
1C4
  8
DEFAULT
 10
46.92911880324471
 20
51.03726654308397
 30
0.0
  0
VERTEX
  5
1C5
  8
DEFAULT
 10
46.90969798759983
 20
51.08815427196208
 30
0.0
  0
VERTEX
  5
1C6
  8
DEFAULT
 10
46.8916378481303
 20
51.13922774274639
 30
0.0
  0
VERTEX
  5
1C7
  8
DEFAULT
 10
46.87493293239953
 20
51.19043545791877
 30
0.0
  0
VERTEX
  5
1C8
  8
DEFAULT
 10
46.85957535757063
 20
51.24172683146028
 30
0.0
  0
VERTEX
  5
1C9
  8
DEFAULT
 10
46.84555490515822
 20
51.29305232039329
 30
0.0
  0
VERTEX
  5
1CA
  8
DEFAULT
 10
46.83285912328813
 20
51.34436354682586
 30
0.0
  0
VERTEX
  5
1CB
  8
DEFAULT
 10
46.82147343549451
 20
51.39561341010767
 30
0.0
  0
VERTEX
  5
1CC
  8
DEFAULT
 10
46.81138125506561
 20
51.44675618881337
 30
0.0
  0
VERTEX
  5
1CD
  8
DEFAULT
 10
46.80256410395822
 20
51.49774763236516
 30
0.0
  0
VERTEX
  5
1CE
  8
DEFAULT
 10
46.79500173531204
 20
51.54854504221066
 30
0.0
  0
VERTEX
  5
1CF
  8
DEFAULT
 10
46.78867225861893
 20
51.59910734255558
 30
0.0
  0
VERTEX
  5
1D0
  8
DEFAULT
 10
46.78355226663371
 20
51.64939514074518
 30
0.0
  0
VERTEX
  5
1D1
  8
DEFAULT
 10
46.77961696315271
 20
51.69937077746337
 30
0.0
  0
VERTEX
  5
1D2
  8
DEFAULT
 10
46.77684029082963
 20
51.74899836699296
 30
0.0
  0
VERTEX
  5
1D3
  8
DEFAULT
 10
46.77519505825632
 20
51.79824382784446
 30
0.0
  0
VERTEX
  5
1D4
  8
DEFAULT
 10
46.77465306558213
 20
51.84707490412006
 30
0.0
  0
VERTEX
  5
1D5
  8
DEFAULT
 10
46.7751950582562
 20
51.89590598039558
 30
0.0
  0
VERTEX
  5
1D6
  8
DEFAULT
 10
46.77684029082963
 20
51.94515144124708
 30
0.0
  0
VERTEX
  5
1D7
  8
DEFAULT
 10
46.77961696315259
 20
51.99477903077678
 30
0.0
  0
VERTEX
  5
1D8
  8
DEFAULT
 10
46.78355226663371
 20
52.04475466749508
 30
0.0
  0
VERTEX
  5
1D9
  8
DEFAULT
 10
46.78867225861893
 20
52.09504246568457
 30
0.0
  0
VERTEX
  5
1DA
  8
DEFAULT
 10
46.79500173531204
 20
52.14560476602946
 30
0.0
  0
VERTEX
  5
1DB
  8
DEFAULT
 10
46.80256410395822
 20
52.19640217587497
 30
0.0
  0
VERTEX
  5
1DC
  8
DEFAULT
 10
46.81138125506561
 20
52.24739361942676
 30
0.0
  0
VERTEX
  5
1DD
  8
DEFAULT
 10
46.82147343549462
 20
52.29853639813237
 30
0.0
  0
VERTEX
  5
1DE
  8
DEFAULT
 10
46.83285912328813
 20
52.34978626141427
 30
0.0
  0
VERTEX
  5
1DF
  8
DEFAULT
 10
46.84555490515822
 20
52.40109748784678
 30
0.0
  0
VERTEX
  5
1E0
  8
DEFAULT
 10
46.85957535757063
 20
52.45242297677987
 30
0.0
  0
VERTEX
  5
1E1
  8
DEFAULT
 10
46.87493293239953
 20
52.50371435032127
 30
0.0
  0
VERTEX
  5
1E2
  8
DEFAULT
 10
46.8916378481303
 20
52.55492206549368
 30
0.0
  0
VERTEX
  5
1E3
  8
DEFAULT
 10
46.90969798759983
 20
52.60599553627796
 30
0.0
  0
VERTEX
  5
1E4
  8
DEFAULT
 10
46.92911880324471
 20
52.65688326515618
 30
0.0
  0
VERTEX
  5
1E5
  8
DEFAULT
 10
46.94990323082169
 20
52.70753298365548
 30
0.0
  0
VERTEX
  5
1E6
  8
DEFAULT
 10
46.9720516125173
 20
52.75789180129667
 30
0.0
  0
VERTEX
  5
1E7
  8
DEFAULT
 10
46.99556163033174
 20
52.80790636224268
 30
0.0
  0
VERTEX
  5
1E8
  8
DEFAULT
 10
47.02042825055673
 20
52.85752300884326
 30
0.0
  0
VERTEX
  5
1E9
  8
DEFAULT
 10
47.04664368010174
 20
52.90668795117986
 30
0.0
  0
VERTEX
  5
1EA
  8
DEFAULT
 10
47.07419733533783
 20
52.95534744162217
 30
0.0
  0
VERTEX
  5
1EB
  8
DEFAULT
 10
47.10307582403993
 20
53.00344795333086
 30
0.0
  0
VERTEX
  5
1EC
  8
DEFAULT
 10
47.13326294090109
 20
53.05093636156738
 30
0.0
  0
VERTEX
  5
1ED
  8
DEFAULT
 10
47.16473967698272
 20
53.09776012661558
 30
0.0
  0
VERTEX
  5
1EE
  8
DEFAULT
 10
47.19748424334233
 20
53.14386747707027
 30
0.0
  0
VERTEX
  5
1EF
  8
DEFAULT
 10
47.23147210895564
 20
53.18920759221567
 30
0.0
  0
VERTEX
  5
1F0
  8
DEFAULT
 10
47.26667605291749
 20
53.23373078219836
 30
0.0
  0
VERTEX
  5
1F1
  8
DEFAULT
 10
47.30306623077161
 20
53.27738866469429
 30
0.0
  0
VERTEX
  5
1F2
  8
DEFAULT
 10
47.34061025468554
 20
53.32013433678287
 30
0.0
  0
VERTEX
  5
1F3
  8
DEFAULT
 10
47.3792732870524
 20
53.36192254076818
 30
0.0
  0
VERTEX
  5
1F4
  8
DEFAULT
 10
47.41901814697184
 20
53.40270982273049
 30
0.0
  0
VERTEX
  5
1F5
  8
DEFAULT
 10
47.45980542893403
 20
53.44245468264978
 30
0.0
  0
VERTEX
  5
1F6
  8
DEFAULT
 10
47.50159363291931
 20
53.48111771501678
 30
0.0
  0
VERTEX
  5
1F7
  8
DEFAULT
 10
47.5443393050079
 20
53.51866173893066
 30
0.0
  0
VERTEX
  5
1F8
  8
DEFAULT
 10
47.58799718750379
 20
53.55505191678478
 30
0.0
  0
VERTEX
  5
1F9
  8
DEFAULT
 10
47.63252037748663
 20
53.59025586074657
 30
0.0
  0
VERTEX
  5
1FA
  8
DEFAULT
 10
47.67786049263191
 20
53.62424372635988
 30
0.0
  0
VERTEX
  5
1FB
  8
DEFAULT
 10
47.7239678430866
 20
53.65698829271946
 30
0.0
  0
VERTEX
  5
1FC
  8
DEFAULT
 10
47.7707916081348
 20
53.68846502880106
 30
0.0
  0
VERTEX
  5
1FD
  8
DEFAULT
 10
47.81828001637143
 20
53.71865214566228
 30
0.0
  0
VERTEX
  5
1FE
  8
DEFAULT
 10
47.86638052808013
 20
53.74753063436438
 30
0.0
  0
VERTEX
  5
1FF
  8
DEFAULT
 10
47.9150400185224
 20
53.77508428960047
 30
0.0
  0
VERTEX
  5
200
  8
DEFAULT
 10
47.96420496085904
 20
53.80129971914548
 30
0.0
  0
VERTEX
  5
201
  8
DEFAULT
 10
48.01382160745953
 20
53.82616633937056
 30
0.0
  0
VERTEX
  5
202
  8
DEFAULT
 10
48.06383616840554
 20
53.84967635718488
 30
0.0
  0
VERTEX
  5
203
  8
DEFAULT
 10
48.1141949860467
 20
53.87182473888038
 30
0.0
  0
VERTEX
  5
204
  8
DEFAULT
 10
48.164844704546
 20
53.89260916645736
 30
0.0
  0
VERTEX
  5
205
  8
DEFAULT
 10
48.21573243342419
 20
53.91202998210238
 30
0.0
  0
VERTEX
  5
206
  8
DEFAULT
 10
48.26680590420852
 20
53.93009012157177
 30
0.0
  0
VERTEX
  5
207
  8
DEFAULT
 10
48.31801361938091
 20
53.94679503730256
 30
0.0
  0
VERTEX
  5
208
  8
DEFAULT
 10
48.36930499292231
 20
53.96215261213146
 30
0.0
  0
VERTEX
  5
209
  8
DEFAULT
 10
48.42063048185543
 20
53.97617306454399
 30
0.0
  0
VERTEX
  5
20A
  8
DEFAULT
 10
48.471941708288
 20
53.98886884641408
 30
0.0
  0
VERTEX
  5
20B
  8
DEFAULT
 10
48.52319157156984
 20
54.00025453420767
 30
0.0
  0
VERTEX
  5
20C
  8
DEFAULT
 10
48.57433435027542
 20
54.01034671463657
 30
0.0
  0
VERTEX
  5
20D
  8
DEFAULT
 10
48.6253257938273
 20
54.01916386574396
 30
0.0
  0
VERTEX
  5
20E
  8
DEFAULT
 10
48.67612320367283
 20
54.02672623439017
 30
0.0
  0
VERTEX
  5
20F
  8
DEFAULT
 10
48.72668550401772
 20
54.03305571108328
 30
0.0
  0
VERTEX
  5
210
  8
DEFAULT
 10
48.77697330220724
 20
54.03817570306836
 30
0.0
  0
VERTEX
  5
211
  8
DEFAULT
 10
48.82694893892551
 20
54.04211100654948
 30
0.0
  0
VERTEX
  5
212
  8
DEFAULT
 10
48.87657652845513
 20
54.04488767887258
 30
0.0
  0
VERTEX
  5
213
  8
DEFAULT
 10
48.9258219893066
 20
54.04653291144587
 30
0.0
  0
VERTEX
  5
214
  8
DEFAULT
 10
52.97465306558223
 20
54.04707490412008
 30
0.0
  0
VERTEX
  5
215
  8
DEFAULT
 10
53.02348414185769
 20
54.04653291144587
 30
0.0
  0
VERTEX
  5
216
  8
DEFAULT
 10
53.07272960270922
 20
54.04488767887258
 30
0.0
  0
VERTEX
  5
217
  8
DEFAULT
 10
53.12235719223884
 20
54.04211100654948
 30
0.0
  0
VERTEX
  5
218
  8
DEFAULT
 10
53.172332828957
 20
54.03817570306836
 30
0.0
  0
VERTEX
  5
219
  8
DEFAULT
 10
53.22262062714674
 20
54.03305571108336
 30
0.0
  0
VERTEX
  5
21A
  8
DEFAULT
 10
53.27318292749152
 20
54.02672623439028
 30
0.0
  0
VERTEX
  5
21B
  8
DEFAULT
 10
53.32398033733693
 20
54.01916386574396
 30
0.0
  0
VERTEX
  5
21C
  8
DEFAULT
 10
53.37497178088881
 20
54.01034671463657
 30
0.0
  0
VERTEX
  5
21D
  8
DEFAULT
 10
53.4261145595944
 20
54.00025453420767
 30
0.0
  0
VERTEX
  5
21E
  8
DEFAULT
 10
53.47736442287629
 20
53.98886884641408
 30
0.0
  0
VERTEX
  5
21F
  8
DEFAULT
 10
53.52867564930892
 20
53.97617306454407
 30
0.0
  0
VERTEX
  5
220
  8
DEFAULT
 10
53.58000113824193
 20
53.96215261213146
 30
0.0
  0
VERTEX
  5
221
  8
DEFAULT
 10
53.63129251178344
 20
53.94679503730268
 30
0.0
  0
VERTEX
  5
222
  8
DEFAULT
 10
53.68250022695571
 20
53.93009012157177
 30
0.0
  0
VERTEX
  5
223
  8
DEFAULT
 10
53.7335736977401
 20
53.91202998210238
 30
0.0
  0
VERTEX
  5
224
  8
DEFAULT
 10
53.78446142661824
 20
53.89260916645736
 30
0.0
  0
VERTEX
  5
225
  8
DEFAULT
 10
53.83511114511754
 20
53.87182473888038
 30
0.0
  0
VERTEX
  5
226
  8
DEFAULT
 10
53.8854699627588
 20
53.84967635718488
 30
0.0
  0
VERTEX
  5
227
  8
DEFAULT
 10
53.93548452370482
 20
53.82616633937056
 30
0.0
  0
VERTEX
  5
228
  8
DEFAULT
 10
53.98510117030543
 20
53.80129971914548
 30
0.0
  0
VERTEX
  5
229
  8
DEFAULT
 10
54.03426611264194
 20
53.77508428960047
 30
0.0
  0
VERTEX
  5
22A
  8
DEFAULT
 10
54.08292560308433
 20
53.74753063436438
 30
0.0
  0
VERTEX
  5
22B
  8
DEFAULT
 10
54.13102611479303
 20
53.71865214566228
 30
0.0
  0
VERTEX
  5
22C
  8
DEFAULT
 10
54.17851452302943
 20
53.68846502880106
 30
0.0
  0
VERTEX
  5
22D
  8
DEFAULT
 10
54.22533828807764
 20
53.65698829271946
 30
0.0
  0
VERTEX
  5
22E
  8
DEFAULT
 10
54.27144563853233
 20
53.62424372635988
 30
0.0
  0
VERTEX
  5
22F
  8
DEFAULT
 10
54.31678575367772
 20
53.59025586074657
 30
0.0
  0
VERTEX
  5
230
  8
DEFAULT
 10
54.36130894366039
 20
53.55505191678466
 30
0.0
  0
VERTEX
  5
231
  8
DEFAULT
 10
54.4049668261564
 20
53.51866173893058
 30
0.0
  0
VERTEX
  5
232
  8
DEFAULT
 10
54.44771249824493
 20
53.48111771501667
 30
0.0
  0
VERTEX
  5
233
  8
DEFAULT
 10
54.4895007022302
 20
53.44245468264978
 30
0.0
  0
VERTEX
  5
234
  8
DEFAULT
 10
54.53028798419251
 20
53.40270982273049
 30
0.0
  0
VERTEX
  5
235
  8
DEFAULT
 10
54.57003284411184
 20
53.36192254076818
 30
0.0
  0
VERTEX
  5
236
  8
DEFAULT
 10
54.60869587647881
 20
53.32013433678287
 30
0.0
  0
VERTEX
  5
237
  8
DEFAULT
 10
54.64623990039274
 20
53.27738866469429
 30
0.0
  0
VERTEX
  5
238
  8
DEFAULT
 10
54.6826300782468
 20
53.23373078219836
 30
0.0
  0
VERTEX
  5
239
  8
DEFAULT
 10
54.71783402220871
 20
53.18920759221558
 30
0.0
  0
VERTEX
  5
23A
  8
DEFAULT
 10
54.75182188782202
 20
53.14386747707016
 30
0.0
  0
VERTEX
  5
23B
  8
DEFAULT
 10
54.78456645418163
 20
53.09776012661558
 30
0.0
  0
VERTEX
  5
23C
  8
DEFAULT
 10
54.81604319026323
 20
53.05093636156738
 30
0.0
  0
VERTEX
  5
23D
  8
DEFAULT
 10
54.84623030712442
 20
53.00344795333086
 30
0.0
  0
VERTEX
  5
23E
  8
DEFAULT
 10
54.87510879582652
 20
52.95534744162217
 30
0.0
  0
VERTEX
  5
23F
  8
DEFAULT
 10
54.90266245106261
 20
52.90668795117978
 30
0.0
  0
VERTEX
  5
240
  8
DEFAULT
 10
54.92887788060762
 20
52.85752300884326
 30
0.0
  0
VERTEX
  5
241
  8
DEFAULT
 10
54.95374450083273
 20
52.80790636224268
 30
0.0
  0
VERTEX
  5
242
  8
DEFAULT
 10
54.97725451864702
 20
52.75789180129667
 30
0.0
  0
VERTEX
  5
243
  8
DEFAULT
 10
54.9994029003426
 20
52.70753298365548
 30
0.0
  0
VERTEX
  5
244
  8
DEFAULT
 10
55.02018732791953
 20
52.65688326515618
 30
0.0
  0
VERTEX
  5
245
  8
DEFAULT
 10
55.03960814356452
 20
52.60599553627796
 30
0.0
  0
VERTEX
  5
246
  8
DEFAULT
 10
55.05766828303391
 20
52.55492206549368
 30
0.0
  0
VERTEX
  5
247
  8
DEFAULT
 10
55.07437319876482
 20
52.50371435032127
 30
0.0
  0
VERTEX
  5
248
  8
DEFAULT
 10
55.08973077359363
 20
52.45242297677987
 30
0.0
  0
VERTEX
  5
249
  8
DEFAULT
 10
55.10375122600612
 20
52.40109748784678
 30
0.0
  0
VERTEX
  5
24A
  8
DEFAULT
 10
55.11644700787622
 20
52.34978626141427
 30
0.0
  0
VERTEX
  5
24B
  8
DEFAULT
 10
55.12783269566981
 20
52.29853639813237
 30
0.0
  0
VERTEX
  5
24C
  8
DEFAULT
 10
55.13792487609862
 20
52.24739361942676
 30
0.0
  0
VERTEX
  5
24D
  8
DEFAULT
 10
55.14674202720602
 20
52.19640217587488
 30
0.0
  0
VERTEX
  5
24E
  8
DEFAULT
 10
55.15430439585222
 20
52.14560476602946
 30
0.0
  0
VERTEX
  5
24F
  8
DEFAULT
 10
55.16063387254542
 20
52.09504246568457
 30
0.0
  0
VERTEX
  5
250
  8
DEFAULT
 10
55.16575386453053
 20
52.04475466749497
 30
0.0
  0
VERTEX
  5
251
  8
DEFAULT
 10
55.16968916801162
 20
51.99477903077678
 30
0.0
  0
VERTEX
  5
252
  8
DEFAULT
 10
55.17246584033472
 20
51.94515144124708
 30
0.0
  0
VERTEX
  5
253
  8
DEFAULT
 10
55.174111072908
 20
51.89590598039558
 30
0.0
  0
VERTEX
  5
254
  8
DEFAULT
 10
55.17465306558211
 20
51.84707490412006
 30
0.0
  0
VERTEX
  5
255
  8
DEFAULT
 10
55.174111072908
 20
51.79824382784446
 30
0.0
  0
VERTEX
  5
256
  8
DEFAULT
 10
55.17246584033461
 20
51.74899836699296
 30
0.0
  0
VERTEX
  5
257
  8
DEFAULT
 10
55.16968916801162
 20
51.69937077746337
 30
0.0
  0
VERTEX
  5
258
  8
DEFAULT
 10
55.16575386453042
 20
51.64939514074518
 30
0.0
  0
VERTEX
  5
259
  8
DEFAULT
 10
55.16063387254542
 20
51.59910734255558
 30
0.0
  0
VERTEX
  5
25A
  8
DEFAULT
 10
55.15430439585231
 20
51.54854504221066
 30
0.0
  0
VERTEX
  5
25B
  8
DEFAULT
 10
55.14674202720602
 20
51.49774763236528
 30
0.0
  0
VERTEX
  5
25C
  8
DEFAULT
 10
55.13792487609862
 20
51.44675618881337
 30
0.0
  0
VERTEX
  5
25D
  8
DEFAULT
 10
55.12783269566972
 20
51.39561341010779
 30
0.0
  0
VERTEX
  5
25E
  8
DEFAULT
 10
55.1164470078761
 20
51.34436354682586
 30
0.0
  0
VERTEX
  5
25F
  8
DEFAULT
 10
55.10375122600612
 20
51.29305232039337
 30
0.0
  0
VERTEX
  5
260
  8
DEFAULT
 10
55.08973077359363
 20
51.24172683146028
 30
0.0
  0
VERTEX
  5
261
  8
DEFAULT
 10
55.07437319876482
 20
51.19043545791877
 30
0.0
  0
VERTEX
  5
262
  8
DEFAULT
 10
55.05766828303391
 20
51.13922774274639
 30
0.0
  0
VERTEX
  5
263
  8
DEFAULT
 10
55.03960814356452
 20
51.08815427196208
 30
0.0
  0
VERTEX
  5
264
  8
DEFAULT
 10
55.02018732791953
 20
51.03726654308397
 30
0.0
  0
VERTEX
  5
265
  8
DEFAULT
 10
54.9994029003426
 20
50.98661682458467
 30
0.0
  0
VERTEX
  5
266
  8
DEFAULT
 10
54.97725451864702
 20
50.93625800694338
 30
0.0
  0
VERTEX
  5
267
  8
DEFAULT
 10
54.95374450083273
 20
50.88624344599748
 30
0.0
  0
VERTEX
  5
268
  8
DEFAULT
 10
54.92887788060762
 20
50.83662679939687
 30
0.0
  0
VERTEX
  5
269
  8
DEFAULT
 10
54.90266245106261
 20
50.78746185706026
 30
0.0
  0
VERTEX
  5
26A
  8
DEFAULT
 10
54.87510879582641
 20
50.73880236661796
 30
0.0
  0
VERTEX
  5
26B
  8
DEFAULT
 10
54.84623030712442
 20
50.69070185490926
 30
0.0
  0
VERTEX
  5
26C
  8
DEFAULT
 10
54.81604319026323
 20
50.64321344667266
 30
0.0
  0
VERTEX
  5
26D
  8
DEFAULT
 10
54.78456645418163
 20
50.59638968162446
 30
0.0
  0
VERTEX
  5
26E
  8
DEFAULT
 10
54.7518218878219
 20
50.55028233116988
 30
0.0
  0
VERTEX
  5
26F
  8
DEFAULT
 10
54.71783402220871
 20
50.50494221602446
 30
0.0
  0
VERTEX
  5
270
  8
DEFAULT
 10
54.6826300782468
 20
50.46041902604176
 30
0.0
  0
VERTEX
  5
271
  8
DEFAULT
 10
54.64623990039274
 20
50.41676114354587
 30
0.0
  0
VERTEX
  5
272
  8
DEFAULT
 10
54.60869587647881
 20
50.37401547145728
 30
0.0
  0
VERTEX
  5
273
  8
DEFAULT
 10
54.57003284411189
 20
50.33222726747198
 30
0.0
  0
VERTEX
  5
274
  8
DEFAULT
 10
54.53028798419251
 20
50.29143998550967
 30
0.0
  0
VERTEX
  5
275
  8
DEFAULT
 10
54.48950070223032
 20
50.25169512559037
 30
0.0
  0
VERTEX
  5
276
  8
DEFAULT
 10
54.44771249824493
 20
50.21303209322346
 30
0.0
  0
VERTEX
  5
277
  8
DEFAULT
 10
54.40496682615634
 20
50.17548806930958
 30
0.0
  0
VERTEX
  5
278
  8
DEFAULT
 10
54.36130894366039
 20
50.13909789145546
 30
0.0
  0
VERTEX
  5
279
  8
DEFAULT
 10
54.31678575367772
 20
50.10389394749367
 30
0.0
  0
VERTEX
  5
27A
  8
DEFAULT
 10
54.27144563853233
 20
50.06990608188028
 30
0.0
  0
VERTEX
  5
27B
  8
DEFAULT
 10
54.22533828807764
 20
50.03716151552067
 30
0.0
  0
VERTEX
  5
27C
  8
DEFAULT
 10
54.17851452302943
 20
50.00568477943906
 30
0.0
  0
VERTEX
  5
27D
  8
DEFAULT
 10
54.13102611479292
 20
49.97549766257788
 30
0.0
  0
VERTEX
  5
27E
  8
DEFAULT
 10
54.08292560308433
 20
49.94661917387577
 30
0.0
  0
VERTEX
  5
27F
  8
DEFAULT
 10
54.03426611264194
 20
49.91906551863968
 30
0.0
  0
VERTEX
  5
280
  8
DEFAULT
 10
53.98510117030543
 20
49.89285008909468
 30
0.0
  0
VERTEX
  5
281
  8
DEFAULT
 10
53.93548452370482
 20
49.86798346886957
 30
0.0
  0
VERTEX
  5
282
  8
DEFAULT
 10
53.8854699627588
 20
49.84447345105528
 30
0.0
  0
VERTEX
  5
283
  8
DEFAULT
 10
53.83511114511754
 20
49.82232506935966
 30
0.0
  0
VERTEX
  5
284
  8
DEFAULT
 10
53.78446142661824
 20
49.80154064178276
 30
0.0
  0
VERTEX
  5
285
  8
DEFAULT
 10
53.7335736977401
 20
49.78211982613777
 30
0.0
  0
VERTEX
  5
286
  8
DEFAULT
 10
53.68250022695571
 20
49.76405968666836
 30
0.0
  0
VERTEX
  5
287
  8
DEFAULT
 10
53.63129251178344
 20
49.74735477093748
 30
0.0
  0
VERTEX
  5
288
  8
DEFAULT
 10
53.58000113824193
 20
49.73199719610867
 30
0.0
  0
VERTEX
  5
289
  8
DEFAULT
 10
53.52867564930881
 20
49.71797674369617
 30
0.0
  0
VERTEX
  5
28A
  8
DEFAULT
 10
53.47736442287629
 20
49.70528096182608
 30
0.0
  0
VERTEX
  5
28B
  8
DEFAULT
 10
53.4261145595944
 20
49.69389527403249
 30
0.0
  0
VERTEX
  5
28C
  8
DEFAULT
 10
53.37497178088893
 20
49.68380309360359
 30
0.0
  0
VERTEX
  5
28D
  8
DEFAULT
 10
53.32398033733699
 20
49.67498594249616
 30
0.0
  0
VERTEX
  5
28E
  8
DEFAULT
 10
53.27318292749152
 20
49.66742357384996
 30
0.0
  0
VERTEX
  5
28F
  8
DEFAULT
 10
53.22262062714674
 20
49.66109409715688
 30
0.0
  0
VERTEX
  5
290
  8
DEFAULT
 10
53.17233282895722
 20
49.65597410517177
 30
0.0
  0
VERTEX
  5
291
  8
DEFAULT
 10
53.12235719223884
 20
49.65203880169068
 30
0.0
  0
VERTEX
  5
292
  8
DEFAULT
 10
53.07272960270922
 20
49.64926212936757
 30
0.0
  0
VERTEX
  5
293
  8
DEFAULT
 10
53.02348414185769
 20
49.64761689679426
 30
0.0
  0
VERTEX
  5
294
  8
DEFAULT
 10
52.97465306558223
 20
49.64707490412007
 30
0.0
  0
SEQEND
  5
193
  8
DEFAULT
  0
POLYLINE
  5
295
  8
DEFAULT
 66
     1
 10
0.0
 20
0.0
 30
0.0
  0
VERTEX
  5
297
  8
DEFAULT
 10
19.64011926852123
 20
82.9814315626736
 30
0.0
  0
VERTEX
  5
298
  8
DEFAULT
 10
15.59128819224571
 20
82.98197355534771
 30
0.0
  0
VERTEX
  5
299
  8
DEFAULT
 10
15.54204273139413
 20
82.9836187879211
 30
0.0
  0
VERTEX
  5
29A
  8
DEFAULT
 10
15.4924151418644
 20
82.98639546024421
 30
0.0
  0
VERTEX
  5
29B
  8
DEFAULT
 10
15.44243950514624
 20
82.99033076372521
 30
0.0
  0
VERTEX
  5
29C
  8
DEFAULT
 10
15.39215170695672
 20
82.9954507557103
 30
0.0
  0
VERTEX
  5
29D
  8
DEFAULT
 10
15.34158940661183
 20
83.00178023240349
 30
0.0
  0
VERTEX
  5
29E
  8
DEFAULT
 10
15.29079199676619
 20
83.0093426010497
 30
0.0
  0
VERTEX
  5
29F
  8
DEFAULT
 10
15.23980055321442
 20
83.01815975215709
 30
0.0
  0
VERTEX
  5
2A0
  8
DEFAULT
 10
15.1886577745089
 20
83.02825193258599
 30
0.0
  0
VERTEX
  5
2A1
  8
DEFAULT
 10
15.137407911227
 20
83.03963762037961
 30
0.0
  0
VERTEX
  5
2A2
  8
DEFAULT
 10
15.08609668479443
 20
83.05233340224959
 30
0.0
  0
VERTEX
  5
2A3
  8
DEFAULT
 10
15.03477119586142
 20
83.06635385466211
 30
0.0
  0
VERTEX
  5
2A4
  8
DEFAULT
 10
14.98347982231991
 20
83.08171142949101
 30
0.0
  0
VERTEX
  5
2A5
  8
DEFAULT
 10
14.93227210714764
 20
83.09841634522189
 30
0.0
  0
VERTEX
  5
2A6
  8
DEFAULT
 10
14.88119863636319
 20
83.1164764846913
 30
0.0
  0
VERTEX
  5
2A7
  8
DEFAULT
 10
14.83031090748511
 20
83.1358973003363
 30
0.0
  0
VERTEX
  5
2A8
  8
DEFAULT
 10
14.77966118898593
 20
83.15668172791311
 30
0.0
  0
VERTEX
  5
2A9
  8
DEFAULT
 10
14.7293023713446
 20
83.1788301096087
 30
0.0
  0
VERTEX
  5
2AA
  8
DEFAULT
 10
14.67928781039853
 20
83.20234012742301
 30
0.0
  0
VERTEX
  5
2AB
  8
DEFAULT
 10
14.62967116379804
 20
83.22720674764821
 30
0.0
  0
VERTEX
  5
2AC
  8
DEFAULT
 10
14.58050622146141
 20
83.2534221771931
 30
0.0
  0
VERTEX
  5
2AD
  8
DEFAULT
 10
14.53184673101913
 20
83.28097583242919
 30
0.0
  0
VERTEX
  5
2AE
  8
DEFAULT
 10
14.48374621931032
 20
83.30985432113141
 30
0.0
  0
VERTEX
  5
2AF
  8
DEFAULT
 10
14.4362578110738
 20
83.3400414379926
 30
0.0
  0
VERTEX
  5
2B0
  8
DEFAULT
 10
14.38943404602571
 20
83.3715181740742
 30
0.0
  0
VERTEX
  5
2B1
  8
DEFAULT
 10
14.34332669557102
 20
83.40426274043381
 30
0.0
  0
VERTEX
  5
2B2
  8
DEFAULT
 10
14.29798658042563
 20
83.43825060604709
 30
0.0
  0
VERTEX
  5
2B3
  8
DEFAULT
 10
14.25346339044279
 20
83.473454550009
 30
0.0
  0
VERTEX
  5
2B4
  8
DEFAULT
 10
14.20980550794701
 20
83.509844727863
 30
0.0
  0
VERTEX
  5
2B5
  8
DEFAULT
 10
14.16705983585842
 20
83.54738875177699
 30
0.0
  0
VERTEX
  5
2B6
  8
DEFAULT
 10
14.12527163187309
 20
83.5860517841439
 30
0.0
  0
VERTEX
  5
2B7
  8
DEFAULT
 10
14.08448434991084
 20
83.6257966440632
 30
0.0
  0
VERTEX
  5
2B8
  8
DEFAULT
 10
14.04473948999151
 20
83.66658392602551
 30
0.0
  0
VERTEX
  5
2B9
  8
DEFAULT
 10
14.00607645762454
 20
83.70837213001082
 30
0.0
  0
VERTEX
  5
2BA
  8
DEFAULT
 10
13.96853243371061
 20
83.7511178020994
 30
0.0
  0
VERTEX
  5
2BB
  8
DEFAULT
 10
13.93214225585649
 20
83.7947756845953
 30
0.0
  0
VERTEX
  5
2BC
  8
DEFAULT
 10
13.8969383118947
 20
83.83929887457799
 30
0.0
  0
VERTEX
  5
2BD
  8
DEFAULT
 10
13.86295044628139
 20
83.8846389897235
 30
0.0
  0
VERTEX
  5
2BE
  8
DEFAULT
 10
13.83020587992183
 20
83.9307463401781
 30
0.0
  0
VERTEX
  5
2BF
  8
DEFAULT
 10
13.79872914384021
 20
83.9775701052263
 30
0.0
  0
VERTEX
  5
2C0
  8
DEFAULT
 10
13.76854202697893
 20
84.0250585134628
 30
0.0
  0
VERTEX
  5
2C1
  8
DEFAULT
 10
13.73966353827694
 20
84.07315902517149
 30
0.0
  0
VERTEX
  5
2C2
  8
DEFAULT
 10
13.71210988304074
 20
84.12181851561391
 30
0.0
  0
VERTEX
  5
2C3
  8
DEFAULT
 10
13.68589445349573
 20
84.1709834579504
 30
0.0
  0
VERTEX
  5
2C4
  8
DEFAULT
 10
13.66102783327062
 20
84.2206001045509
 30
0.0
  0
VERTEX
  5
2C5
  8
DEFAULT
 10
13.63751781545631
 20
84.27061466549691
 30
0.0
  0
VERTEX
  5
2C6
  8
DEFAULT
 10
13.6153694337608
 20
84.3209734831382
 30
0.0
  0
VERTEX
  5
2C7
  8
DEFAULT
 10
13.59458500618393
 20
84.3716232016375
 30
0.0
  0
VERTEX
  5
2C8
  8
DEFAULT
 10
13.57516419053894
 20
84.42251093051561
 30
0.0
  0
VERTEX
  5
2C9
  8
DEFAULT
 10
13.55710405106953
 20
84.4735844013
 30
0.0
  0
VERTEX
  5
2CA
  8
DEFAULT
 10
13.54039913533859
 20
84.5247921164723
 30
0.0
  0
VERTEX
  5
2CB
  8
DEFAULT
 10
13.52504156050969
 20
84.57608349001381
 30
0.0
  0
VERTEX
  5
2CC
  8
DEFAULT
 10
13.51102110809734
 20
84.62740897894679
 30
0.0
  0
VERTEX
  5
2CD
  8
DEFAULT
 10
13.49832532622719
 20
84.67872020537939
 30
0.0
  0
VERTEX
  5
2CE
  8
DEFAULT
 10
13.48693963843374
 20
84.72997006866129
 30
0.0
  0
VERTEX
  5
2CF
  8
DEFAULT
 10
13.47684745800473
 20
84.78111284736701
 30
0.0
  0
VERTEX
  5
2D0
  8
DEFAULT
 10
13.46803030689722
 20
84.83210429091869
 30
0.0
  0
VERTEX
  5
2D1
  8
DEFAULT
 10
13.4604679382511
 20
84.8829017007642
 30
0.0
  0
VERTEX
  5
2D2
  8
DEFAULT
 10
13.45413846155793
 20
84.93346400110909
 30
0.0
  0
VERTEX
  5
2D3
  8
DEFAULT
 10
13.44901846957293
 20
84.98375179929869
 30
0.0
  0
VERTEX
  5
2D4
  8
DEFAULT
 10
13.44508316609171
 20
85.03372743601679
 30
0.0
  0
VERTEX
  5
2D5
  8
DEFAULT
 10
13.44230649376874
 20
85.08335502554661
 30
0.0
  0
VERTEX
  5
2D6
  8
DEFAULT
 10
13.44066126119543
 20
85.13260048639799
 30
0.0
  0
VERTEX
  5
2D7
  8
DEFAULT
 10
13.44011926852124
 20
85.1814315626736
 30
0.0
  0
VERTEX
  5
2D8
  8
DEFAULT
 10
13.44066126119543
 20
85.2302626389492
 30
0.0
  0
VERTEX
  5
2D9
  8
DEFAULT
 10
13.4423064937688
 20
85.2795080998007
 30
0.0
  0
VERTEX
  5
2DA
  8
DEFAULT
 10
13.44508316609171
 20
85.3291356893304
 30
0.0
  0
VERTEX
  5
2DB
  8
DEFAULT
 10
13.44901846957293
 20
85.37911132604859
 30
0.0
  0
VERTEX
  5
2DC
  8
DEFAULT
 10
13.45413846155799
 20
85.4293991242381
 30
0.0
  0
VERTEX
  5
2DD
  8
DEFAULT
 10
13.46046793825104
 20
85.479961424583
 30
0.0
  0
VERTEX
  5
2DE
  8
DEFAULT
 10
13.46803030689733
 20
85.5307588344285
 30
0.0
  0
VERTEX
  5
2DF
  8
DEFAULT
 10
13.47684745800473
 20
85.58175027798029
 30
0.0
  0
VERTEX
  5
2E0
  8
DEFAULT
 10
13.48693963843363
 20
85.6328930566859
 30
0.0
  0
VERTEX
  5
2E1
  8
DEFAULT
 10
13.49832532622713
 20
85.68414291996791
 30
0.0
  0
VERTEX
  5
2E2
  8
DEFAULT
 10
13.51102110809722
 20
85.7354541464004
 30
0.0
  0
VERTEX
  5
2E3
  8
DEFAULT
 10
13.52504156050969
 20
85.78677963533349
 30
0.0
  0
VERTEX
  5
2E4
  8
DEFAULT
 10
13.54039913533859
 20
85.83807100887489
 30
0.0
  0
VERTEX
  5
2E5
  8
DEFAULT
 10
13.55710405106964
 20
85.8892787240473
 30
0.0
  0
VERTEX
  5
2E6
  8
DEFAULT
 10
13.57516419053883
 20
85.9403521948316
 30
0.0
  0
VERTEX
  5
2E7
  8
DEFAULT
 10
13.59458500618393
 20
85.9912399237098
 30
0.0
  0
VERTEX
  5
2E8
  8
DEFAULT
 10
13.6153694337608
 20
86.04188964220901
 30
0.0
  0
VERTEX
  5
2E9
  8
DEFAULT
 10
13.63751781545631
 20
86.09224845985031
 30
0.0
  0
VERTEX
  5
2EA
  8
DEFAULT
 10
13.66102783327074
 20
86.14226302079629
 30
0.0
  0
VERTEX
  5
2EB
  8
DEFAULT
 10
13.68589445349573
 20
86.19187966739679
 30
0.0
  0
VERTEX
  5
2EC
  8
DEFAULT
 10
13.71210988304074
 20
86.2410446097334
 30
0.0
  0
VERTEX
  5
2ED
  8
DEFAULT
 10
13.73966353827694
 20
86.28970410017581
 30
0.0
  0
VERTEX
  5
2EE
  8
DEFAULT
 10
13.76854202697899
 20
86.3378046118844
 30
0.0
  0
VERTEX
  5
2EF
  8
DEFAULT
 10
13.79872914384009
 20
86.385293020121
 30
0.0
  0
VERTEX
  5
2F0
  8
DEFAULT
 10
13.83020587992183
 20
86.4321167851692
 30
0.0
  0
VERTEX
  5
2F1
  8
DEFAULT
 10
13.86295044628133
 20
86.4782241356238
 30
0.0
  0
VERTEX
  5
2F2
  8
DEFAULT
 10
13.8969383118947
 20
86.52356425076931
 30
0.0
  0
VERTEX
  5
2F3
  8
DEFAULT
 10
13.93214225585649
 20
86.56808744075201
 30
0.0
  0
VERTEX
  5
2F4
  8
DEFAULT
 10
13.96853243371061
 20
86.6117453232479
 30
0.0
  0
VERTEX
  5
2F5
  8
DEFAULT
 10
14.00607645762454
 20
86.65449099533649
 30
0.0
  0
VERTEX
  5
2F6
  8
DEFAULT
 10
14.0447394899914
 20
86.6962791993218
 30
0.0
  0
VERTEX
  5
2F7
  8
DEFAULT
 10
14.08448434991084
 20
86.73706648128399
 30
0.0
  0
VERTEX
  5
2F8
  8
DEFAULT
 10
14.12527163187309
 20
86.7768113412034
 30
0.0
  0
VERTEX
  5
2F9
  8
DEFAULT
 10
14.16705983585842
 20
86.81547437357031
 30
0.0
  0
VERTEX
  5
2FA
  8
DEFAULT
 10
14.20980550794701
 20
86.85301839748419
 30
0.0
  0
VERTEX
  5
2FB
  8
DEFAULT
 10
14.2534633904429
 20
86.88940857533831
 30
0.0
  0
VERTEX
  5
2FC
  8
DEFAULT
 10
14.29798658042574
 20
86.9246125193001
 30
0.0
  0
VERTEX
  5
2FD
  8
DEFAULT
 10
14.34332669557114
 20
86.9586003849135
 30
0.0
  0
VERTEX
  5
2FE
  8
DEFAULT
 10
14.38943404602583
 20
86.99134495127299
 30
0.0
  0
VERTEX
  5
2FF
  8
DEFAULT
 10
14.43625781107403
 20
87.0228216873547
 30
0.0
  0
VERTEX
  5
300
  8
DEFAULT
 10
14.48374621931043
 20
87.05300880421589
 30
0.0
  0
VERTEX
  5
301
  8
DEFAULT
 10
14.53184673101913
 20
87.081887292918
 30
0.0
  0
VERTEX
  5
302
  8
DEFAULT
 10
14.58050622146141
 20
87.10944094815409
 30
0.0
  0
VERTEX
  5
303
  8
DEFAULT
 10
14.62967116379804
 20
87.13565637769909
 30
0.0
  0
VERTEX
  5
304
  8
DEFAULT
 10
14.67928781039859
 20
87.16052299792409
 30
0.0
  0
VERTEX
  5
305
  8
DEFAULT
 10
14.7293023713446
 20
87.18403301573849
 30
0.0
  0
VERTEX
  5
306
  8
DEFAULT
 10
14.77966118898593
 20
87.206181397434
 30
0.0
  0
VERTEX
  5
307
  8
DEFAULT
 10
14.83031090748523
 20
87.2269658250109
 30
0.0
  0
VERTEX
  5
308
  8
DEFAULT
 10
14.88119863636331
 20
87.24638664065591
 30
0.0
  0
VERTEX
  5
309
  8
DEFAULT
 10
14.9322721071477
 20
87.2644467801253
 30
0.0
  0
VERTEX
  5
30A
  8
DEFAULT
 10
14.98347982231991
 20
87.28115169585621
 30
0.0
  0
VERTEX
  5
30B
  8
DEFAULT
 10
15.03477119586142
 20
87.296509270685
 30
0.0
  0
VERTEX
  5
30C
  8
DEFAULT
 10
15.08609668479443
 20
87.31052972309749
 30
0.0
  0
VERTEX
  5
30D
  8
DEFAULT
 10
15.13740791122711
 20
87.32322550496761
 30
0.0
  0
VERTEX
  5
30E
  8
DEFAULT
 10
15.1886577745089
 20
87.3346111927612
 30
0.0
  0
VERTEX
  5
30F
  8
DEFAULT
 10
15.23980055321442
 20
87.3447033731901
 30
0.0
  0
VERTEX
  5
310
  8
DEFAULT
 10
15.2907919967663
 20
87.3535205242975
 30
0.0
  0
VERTEX
  5
311
  8
DEFAULT
 10
15.34158940661183
 20
87.36108289294381
 30
0.0
  0
VERTEX
  5
312
  8
DEFAULT
 10
15.39215170695672
 20
87.3674123696369
 30
0.0
  0
VERTEX
  5
313
  8
DEFAULT
 10
15.44243950514624
 20
87.3725323616219
 30
0.0
  0
VERTEX
  5
314
  8
DEFAULT
 10
15.4924151418644
 20
87.37646766510309
 30
0.0
  0
VERTEX
  5
315
  8
DEFAULT
 10
15.54204273139413
 20
87.37924433742609
 30
0.0
  0
VERTEX
  5
316
  8
DEFAULT
 10
15.59128819224571
 20
87.38088956999951
 30
0.0
  0
VERTEX
  5
317
  8
DEFAULT
 10
19.64011926852123
 20
87.38143156267361
 30
0.0
  0
VERTEX
  5
318
  8
DEFAULT
 10
19.68895034479669
 20
87.38088956999951
 30
0.0
  0
VERTEX
  5
319
  8
DEFAULT
 10
19.73819580564833
 20
87.37924433742609
 30
0.0
  0
VERTEX
  5
31A
  8
DEFAULT
 10
19.78782339517784
 20
87.37646766510309
 30
0.0
  0
VERTEX
  5
31B
  8
DEFAULT
 10
19.83779903189611
 20
87.3725323616219
 30
0.0
  0
VERTEX
  5
31C
  8
DEFAULT
 10
19.88808683008574
 20
87.3674123696369
 30
0.0
  0
VERTEX
  5
31D
  8
DEFAULT
 10
19.93864913043063
 20
87.36108289294381
 30
0.0
  0
VERTEX
  5
31E
  8
DEFAULT
 10
19.98944654027599
 20
87.3535205242975
 30
0.0
  0
VERTEX
  5
31F
  8
DEFAULT
 10
20.04043798382793
 20
87.3447033731901
 30
0.0
  0
VERTEX
  5
320
  8
DEFAULT
 10
20.09158076253351
 20
87.3346111927612
 30
0.0
  0
VERTEX
  5
321
  8
DEFAULT
 10
20.14283062581529
 20
87.3232255049677
 30
0.0
  0
VERTEX
  5
322
  8
DEFAULT
 10
20.19414185224792
 20
87.3105297230976
 30
0.0
  0
VERTEX
  5
323
  8
DEFAULT
 10
20.24546734118093
 20
87.2965092706851
 30
0.0
  0
VERTEX
  5
324
  8
DEFAULT
 10
20.29675871472244
 20
87.2811516958563
 30
0.0
  0
VERTEX
  5
325
  8
DEFAULT
 10
20.34796642989483
 20
87.2644467801253
 30
0.0
  0
VERTEX
  5
326
  8
DEFAULT
 10
20.3990399006791
 20
87.246386640656
 30
0.0
  0
VERTEX
  5
327
  8
DEFAULT
 10
20.44992762955724
 20
87.226965825011
 30
0.0
  0
VERTEX
  5
328
  8
DEFAULT
 10
20.50057734805654
 20
87.206181397434
 30
0.0
  0
VERTEX
  5
329
  8
DEFAULT
 10
20.55093616569781
 20
87.18403301573849
 30
0.0
  0
VERTEX
  5
32A
  8
DEFAULT
 10
20.60095072664393
 20
87.16052299792409
 30
0.0
  0
VERTEX
  5
32B
  8
DEFAULT
 10
20.65056737324443
 20
87.13565637769909
 30
0.0
  0
VERTEX
  5
32C
  8
DEFAULT
 10
20.69973231558089
 20
87.10944094815409
 30
0.0
  0
VERTEX
  5
32D
  8
DEFAULT
 10
20.74839180602333
 20
87.081887292918
 30
0.0
  0
VERTEX
  5
32E
  8
DEFAULT
 10
20.79649231773203
 20
87.05300880421589
 30
0.0
  0
VERTEX
  5
32F
  8
DEFAULT
 10
20.84398072596849
 20
87.0228216873546
 30
0.0
  0
VERTEX
  5
330
  8
DEFAULT
 10
20.8908044910167
 20
86.99134495127299
 30
0.0
  0
VERTEX
  5
331
  8
DEFAULT
 10
20.93691184147133
 20
86.9586003849135
 30
0.0
  0
VERTEX
  5
332
  8
DEFAULT
 10
20.98225195661684
 20
86.92461251930021
 30
0.0
  0
VERTEX
  5
333
  8
DEFAULT
 10
21.0267751465995
 20
86.88940857533831
 30
0.0
  0
VERTEX
  5
334
  8
DEFAULT
 10
21.0704330290954
 20
86.85301839748419
 30
0.0
  0
VERTEX
  5
335
  8
DEFAULT
 10
21.11317870118404
 20
86.81547437357031
 30
0.0
  0
VERTEX
  5
336
  8
DEFAULT
 10
21.15496690516943
 20
86.7768113412034
 30
0.0
  0
VERTEX
  5
337
  8
DEFAULT
 10
21.19575418713163
 20
86.73706648128399
 30
0.0
  0
VERTEX
  5
338
  8
DEFAULT
 10
21.23549904705089
 20
86.6962791993218
 30
0.0
  0
VERTEX
  5
339
  8
DEFAULT
 10
21.27416207941781
 20
86.65449099533649
 30
0.0
  0
VERTEX
  5
33A
  8
DEFAULT
 10
21.31170610333174
 20
86.6117453232479
 30
0.0
  0
VERTEX
  5
33B
  8
DEFAULT
 10
21.3480962811858
 20
86.56808744075201
 30
0.0
  0
VERTEX
  5
33C
  8
DEFAULT
 10
21.38330022514771
 20
86.52356425076931
 30
0.0
  0
VERTEX
  5
33D
  8
DEFAULT
 10
21.41728809076102
 20
86.4782241356238
 30
0.0
  0
VERTEX
  5
33E
  8
DEFAULT
 10
21.45003265712074
 20
86.4321167851692
 30
0.0
  0
VERTEX
  5
33F
  8
DEFAULT
 10
21.4815093932022
 20
86.385293020121
 30
0.0
  0
VERTEX
  5
340
  8
DEFAULT
 10
21.51169651006353
 20
86.3378046118844
 30
0.0
  0
VERTEX
  5
341
  8
DEFAULT
 10
21.54057499876563
 20
86.28970410017581
 30
0.0
  0
VERTEX
  5
342
  8
DEFAULT
 10
21.56812865400173
 20
86.2410446097334
 30
0.0
  0
VERTEX
  5
343
  8
DEFAULT
 10
21.59434408354673
 20
86.1918796673969
 30
0.0
  0
VERTEX
  5
344
  8
DEFAULT
 10
21.61921070377184
 20
86.14226302079629
 30
0.0
  0
VERTEX
  5
345
  8
DEFAULT
 10
21.6427207215861
 20
86.09224845985031
 30
0.0
  0
VERTEX
  5
346
  8
DEFAULT
 10
21.6648691032816
 20
86.04188964220901
 30
0.0
  0
VERTEX
  5
347
  8
DEFAULT
 10
21.68565353085864
 20
85.99123992370971
 30
0.0
  0
VERTEX
  5
348
  8
DEFAULT
 10
21.70507434650364
 20
85.94035219483149
 30
0.0
  0
VERTEX
  5
349
  8
DEFAULT
 10
21.72313448597299
 20
85.88927872404719
 30
0.0
  0
VERTEX
  5
34A
  8
DEFAULT
 10
21.73983940170393
 20
85.83807100887489
 30
0.0
  0
VERTEX
  5
34B
  8
DEFAULT
 10
21.75519697653283
 20
85.7867796353334
 30
0.0
  0
VERTEX
  5
34C
  8
DEFAULT
 10
21.7692174289453
 20
85.73545414640031
 30
0.0
  0
VERTEX
  5
34D
  8
DEFAULT
 10
21.78191321081539
 20
85.6841429199678
 30
0.0
  0
VERTEX
  5
34E
  8
DEFAULT
 10
21.7932988986089
 20
85.6328930566859
 30
0.0
  0
VERTEX
  5
34F
  8
DEFAULT
 10
21.80339107903774
 20
85.58175027798029
 30
0.0
  0
VERTEX
  5
350
  8
DEFAULT
 10
21.81220823014519
 20
85.53075883442841
 30
0.0
  0
VERTEX
  5
351
  8
DEFAULT
 10
21.81977059879142
 20
85.479961424583
 30
0.0
  0
VERTEX
  5
352
  8
DEFAULT
 10
21.82610007548453
 20
85.4293991242381
 30
0.0
  0
VERTEX
  5
353
  8
DEFAULT
 10
21.83122006746964
 20
85.37911132604859
 30
0.0
  0
VERTEX
  5
354
  8
DEFAULT
 10
21.83515537095059
 20
85.3291356893304
 30
0.0
  0
VERTEX
  5
355
  8
DEFAULT
 10
21.83793204327372
 20
85.2795080998007
 30
0.0
  0
VERTEX
  5
356
  8
DEFAULT
 10
21.83957727584709
 20
85.2302626389492
 30
0.0
  0
VERTEX
  5
357
  8
DEFAULT
 10
21.84011926852122
 20
85.1814315626736
 30
0.0
  0
VERTEX
  5
358
  8
DEFAULT
 10
21.83957727584709
 20
85.13260048639799
 30
0.0
  0
VERTEX
  5
359
  8
DEFAULT
 10
21.83793204327372
 20
85.08335502554661
 30
0.0
  0
VERTEX
  5
35A
  8
DEFAULT
 10
21.83515537095059
 20
85.0337274360169
 30
0.0
  0
VERTEX
  5
35B
  8
DEFAULT
 10
21.83122006746953
 20
84.98375179929869
 30
0.0
  0
VERTEX
  5
35C
  8
DEFAULT
 10
21.82610007548442
 20
84.93346400110909
 30
0.0
  0
VERTEX
  5
35D
  8
DEFAULT
 10
21.81977059879131
 20
84.8829017007642
 30
0.0
  0
VERTEX
  5
35E
  8
DEFAULT
 10
21.81220823014513
 20
84.83210429091869
 30
0.0
  0
VERTEX
  5
35F
  8
DEFAULT
 10
21.80339107903762
 20
84.7811128473669
 30
0.0
  0
VERTEX
  5
360
  8
DEFAULT
 10
21.79329889860884
 20
84.72997006866129
 30
0.0
  0
VERTEX
  5
361
  8
DEFAULT
 10
21.78191321081533
 20
84.67872020537939
 30
0.0
  0
VERTEX
  5
362
  8
DEFAULT
 10
21.76921742894524
 20
84.62740897894679
 30
0.0
  0
VERTEX
  5
363
  8
DEFAULT
 10
21.7551969765326
 20
84.5760834900137
 30
0.0
  0
VERTEX
  5
364
  8
DEFAULT
 10
21.73983940170393
 20
84.52479211647221
 30
0.0
  0
VERTEX
  5
365
  8
DEFAULT
 10
21.72313448597293
 20
84.47358440129989
 30
0.0
  0
VERTEX
  5
366
  8
DEFAULT
 10
21.70507434650352
 20
84.42251093051561
 30
0.0
  0
VERTEX
  5
367
  8
DEFAULT
 10
21.68565353085864
 20
84.3716232016375
 30
0.0
  0
VERTEX
  5
368
  8
DEFAULT
 10
21.6648691032816
 20
84.3209734831382
 30
0.0
  0
VERTEX
  5
369
  8
DEFAULT
 10
21.64272072158599
 20
84.27061466549691
 30
0.0
  0
VERTEX
  5
36A
  8
DEFAULT
 10
21.61921070377173
 20
84.2206001045509
 30
0.0
  0
VERTEX
  5
36B
  8
DEFAULT
 10
21.59434408354662
 20
84.1709834579504
 30
0.0
  0
VERTEX
  5
36C
  8
DEFAULT
 10
21.56812865400173
 20
84.1218185156138
 30
0.0
  0
VERTEX
  5
36D
  8
DEFAULT
 10
21.54057499876563
 20
84.0731590251714
 30
0.0
  0
VERTEX
  5
36E
  8
DEFAULT
 10
21.51169651006353
 20
84.0250585134628
 30
0.0
  0
VERTEX
  5
36F
  8
DEFAULT
 10
21.4815093932022
 20
83.9775701052263
 30
0.0
  0
VERTEX
  5
370
  8
DEFAULT
 10
21.45003265712063
 20
83.9307463401781
 30
0.0
  0
VERTEX
  5
371
  8
DEFAULT
 10
21.41728809076102
 20
83.88463898972341
 30
0.0
  0
VERTEX
  5
372
  8
DEFAULT
 10
21.38330022514771
 20
83.83929887457799
 30
0.0
  0
VERTEX
  5
373
  8
DEFAULT
 10
21.3480962811858
 20
83.7947756845953
 30
0.0
  0
VERTEX
  5
374
  8
DEFAULT
 10
21.3117061033318
 20
83.75111780209929
 30
0.0
  0
VERTEX
  5
375
  8
DEFAULT
 10
21.27416207941781
 20
83.70837213001082
 30
0.0
  0
VERTEX
  5
376
  8
DEFAULT
 10
21.23549904705089
 20
83.6665839260254
 30
0.0
  0
VERTEX
  5
377
  8
DEFAULT
 10
21.19575418713163
 20
83.6257966440632
 30
0.0
  0
VERTEX
  5
378
  8
DEFAULT
 10
21.15496690516932
 20
83.5860517841439
 30
0.0
  0
VERTEX
  5
379
  8
DEFAULT
 10
21.11317870118404
 20
83.54738875177699
 30
0.0
  0
VERTEX
  5
37A
  8
DEFAULT
 10
21.0704330290954
 20
83.509844727863
 30
0.0
  0
VERTEX
  5
37B
  8
DEFAULT
 10
21.02677514659939
 20
83.473454550009
 30
0.0
  0
VERTEX
  5
37C
  8
DEFAULT
 10
20.98225195661684
 20
83.43825060604709
 30
0.0
  0
VERTEX
  5
37D
  8
DEFAULT
 10
20.93691184147133
 20
83.4042627404337
 30
0.0
  0
VERTEX
  5
37E
  8
DEFAULT
 10
20.89080449101664
 20
83.3715181740742
 30
0.0
  0
VERTEX
  5
37F
  8
DEFAULT
 10
20.84398072596849
 20
83.3400414379926
 30
0.0
  0
VERTEX
  5
380
  8
DEFAULT
 10
20.79649231773203
 20
83.3098543211313
 30
0.0
  0
VERTEX
  5
381
  8
DEFAULT
 10
20.74839180602333
 20
83.2809758324293
 30
0.0
  0
VERTEX
  5
382
  8
DEFAULT
 10
20.69973231558089
 20
83.2534221771931
 30
0.0
  0
VERTEX
  5
383
  8
DEFAULT
 10
20.65056737324443
 20
83.22720674764821
 30
0.0
  0
VERTEX
  5
384
  8
DEFAULT
 10
20.60095072664382
 20
83.2023401274231
 30
0.0
  0
VERTEX
  5
385
  8
DEFAULT
 10
20.55093616569781
 20
83.17883010960881
 30
0.0
  0
VERTEX
  5
386
  8
DEFAULT
 10
20.50057734805659
 20
83.1566817279132
 30
0.0
  0
VERTEX
  5
387
  8
DEFAULT
 10
20.44992762955724
 20
83.1358973003363
 30
0.0
  0
VERTEX
  5
388
  8
DEFAULT
 10
20.3990399006791
 20
83.1164764846913
 30
0.0
  0
VERTEX
  5
389
  8
DEFAULT
 10
20.34796642989483
 20
83.09841634522189
 30
0.0
  0
VERTEX
  5
38A
  8
DEFAULT
 10
20.2967587147225
 20
83.08171142949101
 30
0.0
  0
VERTEX
  5
38B
  8
DEFAULT
 10
20.24546734118104
 20
83.06635385466211
 30
0.0
  0
VERTEX
  5
38C
  8
DEFAULT
 10
20.19414185224792
 20
83.05233340224959
 30
0.0
  0
VERTEX
  5
38D
  8
DEFAULT
 10
20.14283062581529
 20
83.03963762037961
 30
0.0
  0
VERTEX
  5
38E
  8
DEFAULT
 10
20.0915807625334
 20
83.02825193258599
 30
0.0
  0
VERTEX
  5
38F
  8
DEFAULT
 10
20.04043798382793
 20
83.0181597521572
 30
0.0
  0
VERTEX
  5
390
  8
DEFAULT
 10
19.98944654027599
 20
83.00934260104981
 30
0.0
  0
VERTEX
  5
391
  8
DEFAULT
 10
19.93864913043063
 20
83.00178023240349
 30
0.0
  0
VERTEX
  5
392
  8
DEFAULT
 10
19.88808683008563
 20
82.99545075571041
 30
0.0
  0
VERTEX
  5
393
  8
DEFAULT
 10
19.837799031896
 20
82.9903307637253
 30
0.0
  0
VERTEX
  5
394
  8
DEFAULT
 10
19.78782339517784
 20
82.98639546024421
 30
0.0
  0
VERTEX
  5
395
  8
DEFAULT
 10
19.73819580564822
 20
82.9836187879211
 30
0.0
  0
VERTEX
  5
396
  8
DEFAULT
 10
19.68895034479669
 20
82.98197355534771
 30
0.0
  0
VERTEX
  5
397
  8
DEFAULT
 10
19.64011926852123
 20
82.9814315626736
 30
0.0
  0
SEQEND
  5
296
  8
DEFAULT
  0
CIRCLE
  5
398
  8
DEFAULT
 10
180.9461358313808
 20
61.70087820098593
 30
0.0000000000000284
 40
3.174999999999997
  0
ENDSEC
  0
EOF
