  0
SECTION
  2
HEADER
  9
$ACADVER
  1
AC1014
  9
$HANDSEED
  5
FFFF
  9
$MEASUREMENT
 70
     1
  0
ENDSEC
  0
SECTION
  2
TABLES
  0
TABLE
  2
VPORT
  5
8
330
0
100
AcDbSymbolTable
 70
     4
  0
VPORT
  5
2E
330
8
100
AcDbSymbolTableRecord
100
AcDbViewportTableRecord
  2
*ACTIVE
 70
     0
 10
0.0
 20
0.0
 11
1.0
 21
1.0
 12
210.0
 22
148.5
 13
0.0
 23
0.0
 14
10.0
 24
10.0
 15
10.0
 25
10.0
 16
0.0
 26
0.0
 36
1.0
 17
0.0
 27
0.0
 37
0.0
 40
341.0
 41
1.24
 42
50.0
 43
0.0
 44
0.0
 50
0.0
 51
0.0
 71
     0
 72
   100
 73
     1
 74
     3
 75
     0
 76
     0
 77
     0
 78
     0
  0
ENDTAB
  0
TABLE
  2
LTYPE
  5
5
330
0
100
AcDbSymbolTable
 70
     1
  0
LTYPE
  5
14
330
5
100
AcDbSymbolTableRecord
100
AcDbLinetypeTableRecord
  2
BYBLOCK
 70
     0
  3

 72
    65
 73
     0
 40
0.0
  0
LTYPE
  5
15
330
5
100
AcDbSymbolTableRecord
100
AcDbLinetypeTableRecord
  2
BYLAYER
 70
     0
  3

 72
    65
 73
     0
 40
0.0
  0
LTYPE
  5
16
330
5
100
AcDbSymbolTableRecord
100
AcDbLinetypeTableRecord
  2
CONTINUOUS
 70
     0
  3
Solid line
 72
    65
 73
     0
 40
0.0
  0
ENDTAB
  0
TABLE
  2
LAYER
  5
2
100
AcDbSymbolTable
 70
1
  0
LAYER
  5
50
100
AcDbSymbolTableRecord
100
AcDbLayerTableRecord
  2
0
 70
0
  6
CONTINUOUS
  0
ENDTAB
  0
TABLE
  2
STYLE
  5
3
330
0
100
AcDbSymbolTable
 70
     1
  0
STYLE
  5
11
330
3
100
AcDbSymbolTableRecord
100
AcDbTextStyleTableRecord
  2
STANDARD
 70
     0
 40
0.0
 41
1.0
 50
0.0
 71
     0
 42
2.5
  3
txt
  4

  0
ENDTAB
  0
TABLE
  2
VIEW
  5
6
330
0
100
AcDbSymbolTable
 70
     0
  0
ENDTAB
  0
TABLE
  2
UCS
  5
7
330
0
100
AcDbSymbolTable
 70
     0
  0
ENDTAB
  0
TABLE
  2
APPID
  5
9
330
0
100
AcDbSymbolTable
 70
     2
  0
APPID
  5
12
330
9
100
AcDbSymbolTableRecord
100
AcDbRegAppTableRecord
  2
ACAD
 70
     0
  0
ENDTAB
  0
TABLE
  2
DIMSTYLE
  5
A
330
0
100
AcDbSymbolTable
 70
     1
  0
DIMSTYLE
105
27
330
A
100
AcDbSymbolTableRecord
100
AcDbDimStyleTableRecord
  2
ISO-25
 70
     0
  3

  4

  5

  6

  7

 40
1.0
 41
2.5
 42
0.625
 43
3.75
 44
1.25
 45
0.0
 46
0.0
 47
0.0
 48
0.0
140
2.5
141
2.5
142
0.0
143
0.03937007874016
144
1.0
145
0.0
146
1.0
147
0.625
 71
     0
 72
     0
 73
     0
 74
     0
 75
     0
 76
     0
 77
     1
 78
     8
170
     0
171
     3
172
     1
173
     0
174
     0
175
     0
176
     0
177
     0
178
     0
270
     2
271
     2
272
     2
273
     2
274
     3
340
11
275
     0
280
     0
281
     0
282
     0
283
     0
284
     8
285
     0
286
     0
287
     3
288
     0
  0
ENDTAB
  0
TABLE
  2
BLOCK_RECORD
  5
1
330
0
100
AcDbSymbolTable
 70
     1
  0
BLOCK_RECORD
  5
1F
330
1
100
AcDbSymbolTableRecord
100
AcDbBlockTableRecord
  2
*MODEL_SPACE
  0
BLOCK_RECORD
  5
1B
330
1
100
AcDbSymbolTableRecord
100
AcDbBlockTableRecord
  2
*PAPER_SPACE
  0
ENDTAB
  0
ENDSEC
  0
SECTION
  2
BLOCKS
  0
BLOCK
  5
20
330
1F
100
AcDbEntity
  8
0
100
AcDbBlockBegin
  2
*MODEL_SPACE
 70
     0
 10
0.0
 20
0.0
 30
0.0
  3
*MODEL_SPACE
  1

  0
ENDBLK
  5
21
330
1F
100
AcDbEntity
  8
0
100
AcDbBlockEnd
  0
BLOCK
  5
1C
330
1B
100
AcDbEntity
 67
     1
  8
0
100
AcDbBlockBegin
  2
*PAPER_SPACE
  1

  0
ENDBLK
  5
1D
330
1B
100
AcDbEntity
 67
     1
  8
0
100
AcDbBlockEnd
  0
ENDSEC
  0
SECTION
  2
ENTITIES
  0
SPLINE
  5
100
100
AcDbEntity
  8
0
 62
7
100
AcDbSpline
 70
8
 71
3
 72
8
 73
4
 74
0
 40
0
 40
0
 40
0
 40
0
 40
1
 40
1
 40
1
 40
1
 10
20.280887
 20
267.553116
 30
0.0
 10
20.280887
 20
267.553116
 30
0.0
 10
20.281158
 20
814.639739
 30
0.0
 10
20.281158
 20
814.639739
 30
0.0
  0
SPLINE
  5
101
100
AcDbEntity
  8
0
 62
7
100
AcDbSpline
 70
8
 71
3
 72
8
 73
4
 74
0
 40
0
 40
0
 40
0
 40
0
 40
1
 40
1
 40
1
 40
1
 10
20.281158
 20
814.639739
 30
0.0
 10
20.281161
 20
822.467394
 30
0.0
 10
26.626731
 20
828.812961
 30
0.0
 10
34.454386
 20
828.812961
 30
0.0
  0
LWPOLYLINE
  5
102
100
AcDbEntity
  8
0
 62
7
100
AcDbPolyline
 90
5
 70
0
 10
103.903208
 20
480.151540
 30
0.0
 10
103.903208
 20
239.206660
 30
0.0
 10
34.454115
 20
239.206660
 30
0.0
 10
34.454115
 20
267.553116
 30
0.0
 10
20.280887
 20
267.553116
 30
0.0
  0
SPLINE
  5
103
100
AcDbEntity
  8
0
 62
7
100
AcDbSpline
 70
8
 71
3
 72
8
 73
4
 74
0
 40
0
 40
0
 40
0
 40
0
 40
1
 40
1
 40
1
 40
1
 10
186.384296
 20
828.812961
 30
0.0
 10
194.102769
 20
828.662429
 30
0.0
 10
200.281160
 20
822.362368
 30
0.0
 10
200.281160
 20
814.642427
 30
0.0
  0
SPLINE
  5
104
100
AcDbEntity
  8
0
 62
7
100
AcDbSpline
 70
8
 71
3
 72
8
 73
4
 74
0
 40
0
 40
0
 40
0
 40
0
 40
1
 40
1
 40
1
 40
1
 10
200.281160
 20
814.642427
 30
0.0
 10
200.281160
 20
814.642427
 30
0.0
 10
200.281160
 20
735.269652
 30
0.0
 10
200.281160
 20
735.269652
 30
0.0
  0
SPLINE
  5
105
100
AcDbEntity
  8
0
 62
7
100
AcDbSpline
 70
8
 71
3
 72
8
 73
4
 74
0
 40
0
 40
0
 40
0
 40
0
 40
1
 40
1
 40
1
 40
1
 10
200.281160
 20
735.269652
 30
0.0
 10
200.281159
 20
731.510678
 30
0.0
 10
198.787911
 20
727.905662
 30
0.0
 10
196.129915
 20
725.247667
 30
0.0
  0
SPLINE
  5
106
100
AcDbEntity
  8
0
 62
7
100
AcDbSpline
 70
8
 71
3
 72
8
 73
4
 74
0
 40
0
 40
0
 40
0
 40
0
 40
1
 40
1
 40
1
 40
1
 10
196.129915
 20
725.247667
 30
0.0
 10
193.471918
 20
722.589672
 30
0.0
 10
189.866902
 20
721.096427
 30
0.0
 10
186.107928
 20
721.096428
 30
0.0
  0
SPLINE
  5
107
100
AcDbEntity
  8
0
 62
7
100
AcDbSpline
 70
8
 71
3
 72
8
 73
4
 74
0
 40
0
 40
0
 40
0
 40
0
 40
1
 40
1
 40
1
 40
1
 10
186.107928
 20
721.096428
 30
0.0
 10
186.107928
 20
721.096428
 30
0.0
 10
118.076432
 20
721.096428
 30
0.0
 10
118.076432
 20
721.096428
 30
0.0
  0
SPLINE
  5
108
100
AcDbEntity
  8
0
 62
7
100
AcDbSpline
 70
8
 71
3
 72
8
 73
4
 74
0
 40
0
 40
0
 40
0
 40
0
 40
1
 40
1
 40
1
 40
1
 10
118.076432
 20
721.096428
 30
0.0
 10
110.248774
 20
721.096426
 30
0.0
 10
103.903206
 20
714.750853
 30
0.0
 10
103.903208
 20
706.923196
 30
0.0
  0
LWPOLYLINE
  5
109
100
AcDbEntity
  8
0
 62
7
100
AcDbPolyline
 90
2
 70
0
 10
34.454386
 20
828.812961
 30
0.0
 10
186.384296
 20
828.812961
 30
0.0
  0
LWPOLYLINE
  5
10a
100
AcDbEntity
  8
0
 62
7
100
AcDbPolyline
 90
7
 70
0
 10
103.903208
 20
706.923196
 30
0.0
 10
103.903208
 20
508.497996
 30
0.0
 10
55.714229
 20
508.497996
 30
0.0
 10
55.714229
 20
480.151540
 30
0.0
 10
103.903208
 20
480.151540
 30
0.0
 10
103.903208
 20
480.151540
 30
0.0
 10
78.947630
 20
480.151540
 30
0.0
  0
LWPOLYLINE
  5
10b
100
AcDbEntity
  8
0
 62
7
100
AcDbPolyline
 90
2
 70
0
 10
34.454115
 20
267.553116
 30
0.0
 10
27.894743
 20
267.553116
 30
0.0
  0
SPLINE
  5
10c
100
AcDbEntity
  8
0
 62
7
100
AcDbSpline
 70
8
 71
3
 72
8
 73
4
 74
0
 40
0
 40
0
 40
0
 40
0
 40
1
 40
1
 40
1
 40
1
 10
200.085392
 20
267.048444
 30
0.0
 10
200.085392
 20
267.048444
 30
0.0
 10
200.085656
 20
814.135067
 30
0.0
 10
200.085656
 20
814.135067
 30
0.0
  0
SPLINE
  5
10d
100
AcDbEntity
  8
0
 62
7
100
AcDbSpline
 70
8
 71
3
 72
8
 73
4
 74
0
 40
0
 40
0
 40
0
 40
0
 40
1
 40
1
 40
1
 40
1
 10
200.085656
 20
814.135067
 30
0.0
 10
200.085657
 20
817.894041
 30
0.0
 10
201.578905
 20
821.499056
 30
0.0
 10
204.236901
 20
824.157051
 30
0.0
  0
SPLINE
  5
10e
100
AcDbEntity
  8
0
 62
7
100
AcDbSpline
 70
8
 71
3
 72
8
 73
4
 74
0
 40
0
 40
0
 40
0
 40
0
 40
1
 40
1
 40
1
 40
1
 10
204.236901
 20
824.157051
 30
0.0
 10
206.894898
 20
826.815047
 30
0.0
 10
210.499914
 20
828.308292
 30
0.0
 10
214.258888
 20
828.308291
 30
0.0
  0
SPLINE
  5
10f
100
AcDbEntity
  8
0
 62
7
100
AcDbSpline
 70
8
 71
3
 72
8
 73
4
 74
0
 40
0
 40
0
 40
0
 40
0
 40
1
 40
1
 40
1
 40
1
 10
214.258888
 20
828.308291
 30
0.0
 10
214.258888
 20
828.308291
 30
0.0
 10
366.188800
 20
828.308291
 30
0.0
 10
366.188800
 20
828.308291
 30
0.0
  0
SPLINE
  5
110
100
AcDbEntity
  8
0
 62
7
100
AcDbSpline
 70
8
 71
3
 72
8
 73
4
 74
0
 40
0
 40
0
 40
0
 40
0
 40
1
 40
1
 40
1
 40
1
 10
366.188800
 20
828.308291
 30
0.0
 10
373.907274
 20
828.157760
 30
0.0
 10
380.085665
 20
821.857697
 30
0.0
 10
380.085664
 20
814.137755
 30
0.0
  0
SPLINE
  5
111
100
AcDbEntity
  8
0
 62
7
100
AcDbSpline
 70
8
 71
3
 72
8
 73
4
 74
0
 40
0
 40
0
 40
0
 40
0
 40
1
 40
1
 40
1
 40
1
 10
380.085664
 20
814.137755
 30
0.0
 10
380.085664
 20
814.137755
 30
0.0
 10
380.085664
 20
734.764980
 30
0.0
 10
380.085664
 20
734.764980
 30
0.0
  0
SPLINE
  5
112
100
AcDbEntity
  8
0
 62
7
100
AcDbSpline
 70
8
 71
3
 72
8
 73
4
 74
0
 40
0
 40
0
 40
0
 40
0
 40
1
 40
1
 40
1
 40
1
 10
380.085664
 20
734.764980
 30
0.0
 10
380.085663
 20
731.006006
 30
0.0
 10
378.592415
 20
727.400990
 30
0.0
 10
375.934419
 20
724.742995
 30
0.0
  0
SPLINE
  5
113
100
AcDbEntity
  8
0
 62
7
100
AcDbSpline
 70
8
 71
3
 72
8
 73
4
 74
0
 40
0
 40
0
 40
0
 40
0
 40
1
 40
1
 40
1
 40
1
 10
375.934419
 20
724.742995
 30
0.0
 10
373.276422
 20
722.085000
 30
0.0
 10
369.671406
 20
720.591755
 30
0.0
 10
365.912432
 20
720.591756
 30
0.0
  0
SPLINE
  5
114
100
AcDbEntity
  8
0
 62
7
100
AcDbSpline
 70
8
 71
3
 72
8
 73
4
 74
0
 40
0
 40
0
 40
0
 40
0
 40
1
 40
1
 40
1
 40
1
 10
365.912432
 20
720.591756
 30
0.0
 10
365.912432
 20
720.591756
 30
0.0
 10
297.880936
 20
720.591756
 30
0.0
 10
297.880936
 20
720.591756
 30
0.0
  0
SPLINE
  5
115
100
AcDbEntity
  8
0
 62
7
100
AcDbSpline
 70
8
 71
3
 72
8
 73
4
 74
0
 40
0
 40
0
 40
0
 40
0
 40
1
 40
1
 40
1
 40
1
 10
297.880936
 20
720.591756
 30
0.0
 10
290.053278
 20
720.591754
 30
0.0
 10
283.707710
 20
714.246181
 30
0.0
 10
283.707712
 20
706.418524
 30
0.0
  0
LWPOLYLINE
  5
116
100
AcDbEntity
  8
0
 62
7
100
AcDbPolyline
 90
5
 70
0
 10
283.707712
 20
479.646868
 30
0.0
 10
283.707712
 20
238.701988
 30
0.0
 10
214.258616
 20
238.701988
 30
0.0
 10
214.258616
 20
267.048444
 30
0.0
 10
200.085392
 20
267.048444
 30
0.0
  0
LWPOLYLINE
  5
117
100
AcDbEntity
  8
0
 62
7
100
AcDbPolyline
 90
7
 70
0
 10
283.707712
 20
706.418524
 30
0.0
 10
283.707712
 20
507.993324
 30
0.0
 10
235.518728
 20
507.993324
 30
0.0
 10
235.518728
 20
479.646868
 30
0.0
 10
283.707712
 20
479.646868
 30
0.0
 10
283.707712
 20
479.646868
 30
0.0
 10
258.752128
 20
479.646868
 30
0.0
  0
LWPOLYLINE
  5
118
100
AcDbEntity
  8
0
 62
7
100
AcDbPolyline
 90
2
 70
0
 10
214.258616
 20
267.048444
 30
0.0
 10
207.699248
 20
267.048444
 30
0.0
  0
SPLINE
  5
119
100
AcDbEntity
  8
0
 62
7
100
AcDbSpline
 70
8
 71
3
 72
8
 73
4
 74
0
 40
0
 40
0
 40
0
 40
0
 40
1
 40
1
 40
1
 40
1
 10
380.104152
 20
265.787204
 30
0.0
 10
380.104152
 20
265.787204
 30
0.0
 10
380.104424
 20
812.873826
 30
0.0
 10
380.104424
 20
812.873826
 30
0.0
  0
SPLINE
  5
11a
100
AcDbEntity
  8
0
 62
7
100
AcDbSpline
 70
8
 71
3
 72
8
 73
4
 74
0
 40
0
 40
0
 40
0
 40
0
 40
1
 40
1
 40
1
 40
1
 10
380.104424
 20
812.873826
 30
0.0
 10
380.104426
 20
820.701481
 30
0.0
 10
386.449993
 20
827.047048
 30
0.0
 10
394.277648
 20
827.047050
 30
0.0
  0
LWPOLYLINE
  5
11b
100
AcDbEntity
  8
0
 62
7
100
AcDbPolyline
 90
5
 70
0
 10
463.726472
 20
478.385628
 30
0.0
 10
463.726472
 20
237.440748
 30
0.0
 10
394.277376
 20
237.440748
 30
0.0
 10
394.277376
 20
265.787204
 30
0.0
 10
380.104152
 20
265.787204
 30
0.0
  0
SPLINE
  5
11c
100
AcDbEntity
  8
0
 62
7
100
AcDbSpline
 70
8
 71
3
 72
8
 73
4
 74
0
 40
0
 40
0
 40
0
 40
0
 40
1
 40
1
 40
1
 40
1
 10
546.207560
 20
827.047050
 30
0.0
 10
553.926034
 20
826.896519
 30
0.0
 10
560.104425
 20
820.596456
 30
0.0
 10
560.104424
 20
812.876514
 30
0.0
  0
SPLINE
  5
11d
100
AcDbEntity
  8
0
 62
7
100
AcDbSpline
 70
8
 71
3
 72
8
 73
4
 74
0
 40
0
 40
0
 40
0
 40
0
 40
1
 40
1
 40
1
 40
1
 10
560.104424
 20
812.876514
 30
0.0
 10
560.104424
 20
812.876514
 30
0.0
 10
560.104424
 20
733.503732
 30
0.0
 10
560.104424
 20
733.503732
 30
0.0
  0
SPLINE
  5
11e
100
AcDbEntity
  8
0
 62
7
100
AcDbSpline
 70
8
 71
3
 72
8
 73
4
 74
0
 40
0
 40
0
 40
0
 40
0
 40
1
 40
1
 40
1
 40
1
 10
560.104424
 20
733.503732
 30
0.0
 10
560.104423
 20
729.744758
 30
0.0
 10
558.611175
 20
726.139742
 30
0.0
 10
555.953179
 20
723.481747
 30
0.0
  0
SPLINE
  5
11f
100
AcDbEntity
  8
0
 62
7
100
AcDbSpline
 70
8
 71
3
 72
8
 73
4
 74
0
 40
0
 40
0
 40
0
 40
0
 40
1
 40
1
 40
1
 40
1
 10
555.953179
 20
723.481747
 30
0.0
 10
553.295182
 20
720.823752
 30
0.0
 10
549.690166
 20
719.330507
 30
0.0
 10
545.931192
 20
719.330508
 30
0.0
  0
LWPOLYLINE
  5
120
100
AcDbEntity
  8
0
 62
7
100
AcDbPolyline
 90
2
 70
0
 10
394.277648
 20
827.047050
 30
0.0
 10
546.207560
 20
827.047050
 30
0.0
  0
SPLINE
  5
121
100
AcDbEntity
  8
0
 62
7
100
AcDbSpline
 70
8
 71
3
 72
8
 73
4
 74
0
 40
0
 40
0
 40
0
 40
0
 40
1
 40
1
 40
1
 40
1
 10
477.899696
 20
719.330508
 30
0.0
 10
470.072038
 20
719.330506
 30
0.0
 10
463.726470
 20
712.984933
 30
0.0
 10
463.726472
 20
705.157276
 30
0.0
  0
LWPOLYLINE
  5
122
100
AcDbEntity
  8
0
 62
7
100
AcDbPolyline
 90
2
 70
0
 10
545.931192
 20
719.330508
 30
0.0
 10
477.899696
 20
719.330508
 30
0.0
  0
LWPOLYLINE
  5
123
100
AcDbEntity
  8
0
 62
7
100
AcDbPolyline
 90
7
 70
0
 10
463.726472
 20
705.157276
 30
0.0
 10
463.726472
 20
506.732084
 30
0.0
 10
415.537496
 20
506.732084
 30
0.0
 10
415.537496
 20
478.385628
 30
0.0
 10
463.726472
 20
478.385628
 30
0.0
 10
463.726472
 20
478.385628
 30
0.0
 10
438.770896
 20
478.385628
 30
0.0
  0
LWPOLYLINE
  5
124
100
AcDbEntity
  8
0
 62
7
100
AcDbPolyline
 90
2
 70
0
 10
394.277376
 20
265.787204
 30
0.0
 10
387.718008
 20
265.787204
 30
0.0
  0
SPLINE
  5
125
100
AcDbEntity
  8
0
 62
7
100
AcDbSpline
 70
8
 71
3
 72
8
 73
4
 74
0
 40
0
 40
0
 40
0
 40
0
 40
1
 40
1
 40
1
 40
1
 10
560.461680
 20
264.187196
 30
0.0
 10
560.461680
 20
264.187196
 30
0.0
 10
560.461952
 20
811.273826
 30
0.0
 10
560.461952
 20
811.273826
 30
0.0
  0
SPLINE
  5
126
100
AcDbEntity
  8
0
 62
7
100
AcDbSpline
 70
8
 71
3
 72
8
 73
4
 74
0
 40
0
 40
0
 40
0
 40
0
 40
1
 40
1
 40
1
 40
1
 10
560.461952
 20
811.273826
 30
0.0
 10
560.461956
 20
819.101480
 30
0.0
 10
566.807522
 20
825.447046
 30
0.0
 10
574.635176
 20
825.447048
 30
0.0
  0
LWPOLYLINE
  5
127
100
AcDbEntity
  8
0
 62
7
100
AcDbPolyline
 90
5
 70
0
 10
644.084024
 20
476.785620
 30
0.0
 10
644.084024
 20
235.840740
 30
0.0
 10
574.634904
 20
235.840740
 30
0.0
 10
574.634904
 20
264.187196
 30
0.0
 10
560.461680
 20
264.187196
 30
0.0
  0
SPLINE
  5
128
100
AcDbEntity
  8
0
 62
7
100
AcDbSpline
 70
8
 71
3
 72
8
 73
4
 74
0
 40
0
 40
0
 40
0
 40
0
 40
1
 40
1
 40
1
 40
1
 10
726.565064
 20
825.447048
 30
0.0
 10
734.283543
 20
825.296525
 30
0.0
 10
740.461944
 20
818.996461
 30
0.0
 10
740.461944
 20
811.276514
 30
0.0
  0
SPLINE
  5
129
100
AcDbEntity
  8
0
 62
7
100
AcDbSpline
 70
8
 71
3
 72
8
 73
4
 74
0
 40
0
 40
0
 40
0
 40
0
 40
1
 40
1
 40
1
 40
1
 10
740.461944
 20
811.276514
 30
0.0
 10
740.461944
 20
811.276514
 30
0.0
 10
740.461944
 20
731.903732
 30
0.0
 10
740.461944
 20
731.903732
 30
0.0
  0
SPLINE
  5
12a
100
AcDbEntity
  8
0
 62
7
100
AcDbSpline
 70
8
 71
3
 72
8
 73
4
 74
0
 40
0
 40
0
 40
0
 40
0
 40
1
 40
1
 40
1
 40
1
 10
740.461944
 20
731.903732
 30
0.0
 10
740.461942
 20
724.076087
 30
0.0
 10
734.116389
 20
717.730523
 30
0.0
 10
726.288744
 20
717.730508
 30
0.0
  0
LWPOLYLINE
  5
12b
100
AcDbEntity
  8
0
 62
7
100
AcDbPolyline
 90
2
 70
0
 10
574.635176
 20
825.447048
 30
0.0
 10
726.565064
 20
825.447048
 30
0.0
  0
SPLINE
  5
12c
100
AcDbEntity
  8
0
 62
7
100
AcDbSpline
 70
8
 71
3
 72
8
 73
4
 74
0
 40
0
 40
0
 40
0
 40
0
 40
1
 40
1
 40
1
 40
1
 10
658.257224
 20
717.730508
 30
0.0
 10
650.429576
 20
717.730492
 30
0.0
 10
644.084022
 20
711.384924
 30
0.0
 10
644.084024
 20
703.557276
 30
0.0
  0
LWPOLYLINE
  5
12d
100
AcDbEntity
  8
0
 62
7
100
AcDbPolyline
 90
2
 70
0
 10
726.288744
 20
717.730508
 30
0.0
 10
658.257224
 20
717.730508
 30
0.0
  0
LWPOLYLINE
  5
12e
100
AcDbEntity
  8
0
 62
7
100
AcDbPolyline
 90
7
 70
0
 10
644.084024
 20
703.557276
 30
0.0
 10
644.084024
 20
505.132076
 30
0.0
 10
595.895016
 20
505.132076
 30
0.0
 10
595.895016
 20
476.785620
 30
0.0
 10
644.084024
 20
476.785620
 30
0.0
 10
644.084024
 20
476.785620
 30
0.0
 10
619.128424
 20
476.785620
 30
0.0
  0
LWPOLYLINE
  5
12f
100
AcDbEntity
  8
0
 62
7
100
AcDbPolyline
 90
2
 70
0
 10
574.634904
 20
264.187196
 30
0.0
 10
568.075536
 20
264.187196
 30
0.0
  0
ENDSEC
  0
SECTION
  2
OBJECTS
  0
DICTIONARY
  5
C
330
0
100
AcDbDictionary
  3
ACAD_GROUP
350
D
  3
ACAD_MLINESTYLE
350
17
  0
DICTIONARY
  5
D
330
C
100
AcDbDictionary
  0
DICTIONARY
  5
1A
330
C
100
AcDbDictionary
  0
DICTIONARY
  5
17
330
C
100
AcDbDictionary
  3
STANDARD
350
18
  0
DICTIONARY
  5
19
330
C
100
AcDbDictionary
  0
ENDSEC
  0
EOF
