0
SECTION
2
HEADER
9
$INSUNITS
70
4
9
$ACADVER
1
AC1014
9
$HANDSEED
5
FFFF
0
ENDSEC
0
SECTION
2
TABLES
0
TABLE
2
VPORT
5
8
100
AcDbSymbolTable
0
ENDTAB
0
TABLE
2
LTYPE
5
5
100
AcDbSymbolTable
0
LTYPE
5
14
100
AcDbSymbolTableRecord
100
AcDbLinetypeTableRecord
2
BYBLOCK
70
0
0
LTYPE
5
15
100
AcDbSymbolTableRecord
100
AcDbLinetypeTableRecord
2
BYLAYER
70
0
0
ENDTAB
0
TABLE
2
LAYER
5
2
100
AcDbSymbolTable
70
2
0
LAYER
5
50
100
AcDbSymbolTableRecord
100
AcDbLayerTableRecord
2
0
70
0
6
CONTINUOUS
0
ENDTAB
0
TABLE
2
STYLE
5
3
100
AcDbSymbolTable
70
1
0
STYLE
5
11
100
AcDbSymbolTableRecord
100
AcDbTextStyleTableRecord
2
STANDARD
70
0
0
ENDTAB
0
TABLE
2
VIEW
5
6
100
AcDbSymbolTable
70
0
0
ENDTAB
0
TABLE
2
UCS
5
7
100
AcDbSymbolTable
70
0
0
ENDTAB
0
TABLE
2
APPID
5
9
100
AcDbSymbolTable
70
2
0
APPID
5
12
100
AcDbSymbolTableRecord
100
AcDbRegAppTableRecord
2
ACAD
70
0
0
ENDTAB
0
TABLE
2
DIMSTYLE
5
A
100
AcDbSymbolTable
70
1
0
ENDTAB
0
TABLE
2
BLOCK_RECORD
5
1
100
AcDbSymbolTable
70
1
0
BLOCK_RECORD
5
1F
100
AcDbSymbolTableRecord
100
AcDbBlockTableRecord
2
*MODEL_SPACE
0
BLOCK_RECORD
5
1B
100
AcDbSymbolTableRecord
100
AcDbBlockTableRecord
2
*PAPER_SPACE
0
ENDTAB
0
ENDSEC
0
SECTION
2
BLOCKS
0
BLOCK
5
20
100
AcDbEntity
100
AcDbBlockBegin
2
*MODEL_SPACE
0
ENDBLK
5
21
100
AcDbEntity
100
AcDbBlockEnd
0
BLOCK
5
1C
100
AcDbEntity
100
AcDbBlockBegin
2
*PAPER_SPACE
0
ENDBLK
5
1D
100
AcDbEntity
100
AcDbBlockEnd
0
ENDSEC
0
SECTION
2
ENTITIES
0
LWPOLYLINE
5
100
100
AcDbEntity
8
0
100
AcDbPolyline
90
4
70
1
43
0.0
10
90
20
60
10
60
20
60
10
90
20
120
10
105
20
120
0
LWPOLYLINE
5
101
100
AcDbEntity
8
0
100
AcDbPolyline
90
4
70
1
43
0.0
10
130
20
60
10
110
20
60
10
110
20
85
10
130
20
85
0
LWPOLYLINE
5
102
100
AcDbEntity
8
0
100
AcDbPolyline
90
4
70
1
43
0.0
10
160
20
60
10
140
20
60
10
140
20
74.999999999999986
10
160
20
74.999999999999986
0
LWPOLYLINE
5
103
100
AcDbEntity
8
0
100
AcDbPolyline
90
4
70
1
43
0.0
10
20
20
60
10
50
20
60
10
70
20
140
10
60
20
140
0
LWPOLYLINE
5
104
100
AcDbEntity
8
0
100
AcDbPolyline
90
6
70
1
43
0.0
10
140
20
110
10
120
20
110
10
120
20
100
10
140
20
100
10
150
20
90
10
150
20
120
0
LWPOLYLINE
5
105
100
AcDbEntity
8
0
100
AcDbPolyline
90
7
70
1
43
0.0
10
120
20
150
10
120
20
120
10
130
20
130
10
150
20
130
10
150
20
140
10
132.07106781186548
20
139.99999999999997
42
-0.19891236737966506
10
128.53553390593274
20
141.46446609406726
0
LWPOLYLINE
5
106
100
AcDbEntity
8
0
100
AcDbPolyline
90
3
70
1
43
0.0
10
160
20
80
10
160
20
90
10
170
20
80
0
LWPOLYLINE
5
107
100
AcDbEntity
8
0
100
AcDbPolyline
90
3
70
1
43
0.0
10
170
20
100
10
160
20
100
10
170
20
90
0
LWPOLYLINE
5
108
100
AcDbEntity
8
0
100
AcDbPolyline
90
3
70
1
43
0.0
10
160
20
120
10
160
20
110
10
170
20
110.00000000000001
0
LWPOLYLINE
5
109
100
AcDbEntity
8
0
100
AcDbPolyline
90
3
70
1
43
0.0
10
170
20
120.00000000000001
10
160
20
130
10
170
20
130
0
LINE
5
110
100
AcDbEntity
8
0
100
AcDbLine
10
210
20
65.000000000000014
30
0
11
210
21
115.00000000000003
31
0
0
LINE
5
111
100
AcDbEntity
8
0
100
AcDbLine
10
290
20
110
30
0
11
290
21
70
31
0
0
LINE
5
112
100
AcDbEntity
8
0
100
AcDbLine
10
280
20
140
30
0
11
280
21
130
31
0
0
LINE
5
113
100
AcDbEntity
8
0
100
AcDbLine
10
280
20
50
30
0
11
280
21
40
31
0
0
ARC
5
114
100
AcDbEntity
8
0
100
AcDbCircle
10
292.49999999999994
20
129.99999999999997
30
0
40
12.499999999999893
100
AcDbArc
50
180
51
233.13010235415609
0
ARC
5
115
100
AcDbEntity
8
0
100
AcDbCircle
10
277.50000000000011
20
110.00000000000006
30
0
40
12.499999999999893
100
AcDbArc
50
0
51
53.130102354156243
0
ARC
5
116
100
AcDbEntity
8
0
100
AcDbCircle
10
292.49999999999989
20
50.000000000000057
30
0
40
12.499999999999858
100
AcDbArc
50
126.86989764584376
51
180
0
ARC
5
117
100
AcDbEntity
8
0
100
AcDbCircle
10
277.49999999999994
20
70.000000000000014
30
0
40
12.500000000000028
100
AcDbArc
50
306.86989764584422
51
360
0
LWPOLYLINE
5
118
100
AcDbEntity
8
0
100
AcDbPolyline
90
6
70
1
43
0.0
10
300
20
170
10
300
20
140
10
305
20
140
10
305
20
168.66025403784437
10
321.83012701892221
20
197.81088913245537
10
317.5
20
200.31088913245537
0
LWPOLYLINE
5
119
100
AcDbEntity
8
0
100
AcDbPolyline
90
4
70
1
43
0.0
10
320
20
100
10
300
20
100
10
300
20
70
10
320
20
70
0
LWPOLYLINE
5
120
100
AcDbEntity
8
0
100
AcDbPolyline
90
4
70
1
43
0.0
10
373
20
100
10
330
20
100
10
330
20
70
10
373
20
70
0
LWPOLYLINE
5
121
100
AcDbEntity
8
0
100
AcDbPolyline
90
6
70
1
43
0.0
10
310
20
140
10
315
20
140
10
315
20
168.66025403784437
10
331.83012701892221
20
197.81088913245537
10
327.5
20
200.31088913245537
10
310
20
170
0
LWPOLYLINE
5
122
100
AcDbEntity
8
0
100
AcDbPolyline
90
6
70
1
43
0.0
10
320
20
140
10
325
20
140
10
325
20
168.66025403784437
10
341.83012701892221
20
197.81088913245537
10
337.5
20
200.31088913245537
10
320
20
170
0
LWPOLYLINE
5
123
100
AcDbEntity
8
0
100
AcDbPolyline
90
6
70
1
43
0.0
10
330
20
140
10
335
20
140
10
335
20
168.66025403784437
10
351.83012701892221
20
197.81088913245537
10
347.5
20
200.31088913245537
10
330
20
170
0
LWPOLYLINE
5
124
100
AcDbEntity
8
0
100
AcDbPolyline
90
6
70
1
43
0.0
10
340
20
140
10
345
20
140
10
345
20
168.66025403784437
10
361.83012701892221
20
197.81088913245537
10
357.5
20
200.31088913245537
10
340
20
170
0
LWPOLYLINE
5
125
100
AcDbEntity
8
0
100
AcDbPolyline
90
6
70
1
43
0.0
10
350
20
140
10
355
20
140
10
355
20
168.66025403784437
10
371.83012701892221
20
197.81088913245537
10
367.5
20
200.31088913245537
10
350
20
170
0
LINE
5
126
100
AcDbEntity
8
0
100
AcDbLine
10
280
20
40
30
0
11
280
21
30.000000000000007
31
0
0
LINE
5
127
100
AcDbEntity
8
0
100
AcDbLine
10
280
20
30.000000000000007
30
0
11
210
21
30.000000000000007
31
0
0
LINE
5
128
100
AcDbEntity
8
0
100
AcDbLine
10
210
20
30.000000000000007
30
0
11
210
21
65.000000000000014
31
0
0
LINE
5
129
100
AcDbEntity
8
0
100
AcDbLine
10
280
20
140
30
0
11
280
21
150
31
0
0
LINE
5
130
100
AcDbEntity
8
0
100
AcDbLine
10
280
20
150
30
0
11
210
21
150
31
0
0
LINE
5
131
100
AcDbEntity
8
0
100
AcDbLine
10
210
20
150
30
0
11
210
21
115.00000000000003
31
0
0
LWPOLYLINE
5
132
100
AcDbEntity
8
0
100
AcDbPolyline
90
4
70
1
43
0.0
10
280
20
160
10
210
20
160
10
210
20
200
10
280
20
200
0
LWPOLYLINE
5
133
100
AcDbEntity
8
0
100
AcDbPolyline
90
4
70
1
43
0.0
10
280
20
20
10
210
20
20
10
210
20
-20
10
280
20
-20
0
ENDSEC
0
SECTION
2
OBJECTS
0
DICTIONARY
5
C
100
AcDbDictionary
3
ACAD_GROUP
350
D
3
ACAD_MLINESTYLE
350
17
0
DICTIONARY
5
D
100
AcDbDictionary
0
DICTIONARY
5
1A
330
C
100
AcDbDictionary
0
DICTIONARY
5
17
100
AcDbDictionary
0
ENDSEC
0
EOF
