0
SECTION
2
HEADER
9
$INSUNITS
70
1
9
$ACADVER
1
AC1014
9
$HANDSEED
5
FFFF
0
ENDSEC
0
SECTION
2
TABLES
0
TABLE
2
VPORT
5
8
100
AcDbSymbolTable
0
ENDTAB
0
TABLE
2
LTYPE
5
5
100
AcDbSymbolTable
0
LTYPE
5
14
100
AcDbSymbolTableRecord
100
AcDbLinetypeTableRecord
2
BYBLOCK
70
0
0
LTYPE
5
15
100
AcDbSymbolTableRecord
100
AcDbLinetypeTableRecord
2
BYLAYER
70
0
0
ENDTAB
0
TABLE
2
LAYER
5
2
100
AcDbSymbolTable
70
2
0
LAYER
5
50
100
AcDbSymbolTableRecord
100
AcDbLayerTableRecord
2
0
70
0
6
CONTINUOUS
0
ENDTAB
0
TABLE
2
STYLE
5
3
100
AcDbSymbolTable
70
1
0
STYLE
5
11
100
AcDbSymbolTableRecord
100
AcDbTextStyleTableRecord
2
STANDARD
70
0
0
ENDTAB
0
TABLE
2
VIEW
5
6
100
AcDbSymbolTable
70
0
0
ENDTAB
0
TABLE
2
UCS
5
7
100
AcDbSymbolTable
70
0
0
ENDTAB
0
TABLE
2
APPID
5
9
100
AcDbSymbolTable
70
2
0
APPID
5
12
100
AcDbSymbolTableRecord
100
AcDbRegAppTableRecord
2
ACAD
70
0
0
ENDTAB
0
TABLE
2
DIMSTYLE
5
A
100
AcDbSymbolTable
70
1
0
ENDTAB
0
TABLE
2
BLOCK_RECORD
5
1
100
AcDbSymbolTable
70
1
0
BLOCK_RECORD
5
1F
100
AcDbSymbolTableRecord
100
AcDbBlockTableRecord
2
*MODEL_SPACE
0
BLOCK_RECORD
5
1B
100
AcDbSymbolTableRecord
100
AcDbBlockTableRecord
2
*PAPER_SPACE
0
ENDTAB
0
ENDSEC
0
SECTION
2
BLOCKS
0
BLOCK
5
20
100
AcDbEntity
100
AcDbBlockBegin
2
*MODEL_SPACE
0
ENDBLK
5
21
100
AcDbEntity
100
AcDbBlockEnd
0
BLOCK
5
1C
100
AcDbEntity
100
AcDbBlockBegin
2
*PAPER_SPACE
0
ENDBLK
5
1D
100
AcDbEntity
100
AcDbBlockEnd
0
ENDSEC
0
SECTION
2
ENTITIES
0
LWPOLYLINE
5
100
100
AcDbEntity
8
0
100
AcDbPolyline
90
4
70
1
43
0.0
10
254.12139849893052
20
-48.567323299456739
10
254.12139849893052
20
-0.56732329945672322
10
350.12139849893049
20
-0.56732329945672322
10
350.12139849893055
20
-48.567323299456739
0
CIRCLE
5
101
100
AcDbEntity
8
0
100
AcDbCircle
10
265.45909617834411
20
-37.961403717452775
30
0
40
0.062500000000000305
0
CIRCLE
5
102
100
AcDbEntity
8
0
100
AcDbCircle
10
282.45909617834411
20
-20.961403717452782
30
0
40
0.06249999999999889
0
CIRCLE
5
103
100
AcDbEntity
8
0
100
AcDbCircle
10
265.45909617834388
20
-3.9614037174529972
30
0
40
0.06249999999999889
0
CIRCLE
5
104
100
AcDbEntity
8
0
100
AcDbCircle
10
267.20909617834394
20
-15.341878772955518
30
0
40
0.12500000000000061
0
CIRCLE
5
105
100
AcDbEntity
8
0
100
AcDbCircle
10
267.20909617834405
20
-27.341878772955432
30
0
40
0.12500000000000061
0
CIRCLE
5
106
100
AcDbEntity
8
0
100
AcDbCircle
10
267.20909617834411
20
-33.34187877295539
30
0
40
0.12500000000000061
0
CIRCLE
5
107
100
AcDbEntity
8
0
100
AcDbCircle
10
267.209096178344
20
-21.341878772955472
30
0
40
0.12500000000000061
0
CIRCLE
5
108
100
AcDbEntity
8
0
100
AcDbCircle
10
267.20909617834388
20
-9.3418787729555586
30
0
40
0.12500000000000061
0
CIRCLE
5
109
100
AcDbEntity
8
0
100
AcDbCircle
10
280.70909617834394
20
-15.294198292044076
30
0
40
0.12499999999999778
0
CIRCLE
5
110
100
AcDbEntity
8
0
100
AcDbCircle
10
280.709096178344
20
-27.294198292043994
30
0
40
0.12499999999999778
0
CIRCLE
5
111
100
AcDbEntity
8
0
100
AcDbCircle
10
280.70909617834405
20
-33.294198292043951
30
0
40
0.12499999999999778
0
CIRCLE
5
112
100
AcDbEntity
8
0
100
AcDbCircle
10
280.709096178344
20
-21.294198292044033
30
0
40
0.12499999999999778
0
CIRCLE
5
113
100
AcDbEntity
8
0
100
AcDbCircle
10
280.70909617834394
20
-9.2941982920441184
30
0
40
0.12499999999999778
0
ARC
5
114
100
AcDbEntity
8
0
100
AcDbCircle
10
282.29748452599193
20
-22.549792065101357
30
-8.4202038628966608e-44
40
0.12499999999998683
100
AcDbArc
50
45.000000000175021
51
225.0000000001923
0
LINE
5
115
100
AcDbEntity
8
0
100
AcDbLine
10
282.38587287363998
20
-22.461403717452768
30
-4.4459490913083323e-31
11
282.70909617834411
21
-22.461403717452772
31
-2.2666641053159815e-30
0
LINE
5
116
100
AcDbEntity
8
0
100
AcDbLine
10
282.70909617834411
20
-22.461403717452772
30
-2.2666641053159815e-30
11
282.70909617834411
21
-19.461403717452793
31
1.3276784774106223e-33
0
LINE
5
117
100
AcDbEntity
8
0
100
AcDbLine
10
282.70909617834411
20
-19.461403717452793
30
1.3276784774106223e-33
11
282.38587287364055
21
-19.461403717452797
31
2.4947427381001077e-30
0
ARC
5
118
100
AcDbEntity
8
0
100
AcDbCircle
10
282.29748452599199
20
-19.373015369804726
30
-8.2236634778904737e-45
40
0.12500000000000464
100
AcDbArc
50
134.99999999981807
51
315.00000000015893
0
LINE
5
119
100
AcDbEntity
8
0
100
AcDbLine
10
282.20909617834394
20
-19.284627022156116
30
1.923642902552657e-31
11
282.20909617834388
21
-2.4614037174528858
31
-4.6980506809276622e-32
0
LINE
5
120
100
AcDbEntity
8
0
100
AcDbLine
10
282.20909617834388
20
-2.4614037174528858
30
-4.6980506809276622e-32
11
265.20909617834388
21
-2.4614037174530092
31
-5.0862748295077076e-29
0
LINE
5
121
100
AcDbEntity
8
0
100
AcDbLine
10
265.20909617834388
20
-2.4614037174530092
30
-5.0862748295077076e-29
11
265.20909617834388
21
-5.4614037174529892
31
8.3777952580840736e-33
0
LINE
5
122
100
AcDbEntity
8
0
100
AcDbLine
10
265.20909617834388
20
-5.4614037174529892
30
8.3777952580840736e-33
11
265.5323194830471
21
-5.4614037174529875
31
-2.6421446204579337e-30
0
ARC
5
123
100
AcDbEntity
8
0
100
AcDbCircle
10
265.62070783069521
20
-5.5497920651015322
30
4.0911432773656382e-44
40
0.12499999999999772
100
AcDbArc
50
-44.999999999740922
51
134.99999999985781
0
LINE
5
124
100
AcDbEntity
8
0
100
AcDbLine
10
265.70909617834394
20
-5.6381804127494641
30
-3.9347952470184901e-31
11
265.70909617834405
21
-36.284627022156812
31
8.5583218360474307e-32
0
ARC
5
125
100
AcDbEntity
8
0
100
AcDbCircle
10
265.62070783069544
20
-36.373015369804783
30
-7.6374903998018439e-44
40
0.12499999999998883
100
AcDbArc
50
-135.00000000019577
51
44.999999999790433
0
LINE
5
126
100
AcDbEntity
8
0
100
AcDbLine
10
265.53231948304682
20
-36.461403717452797
30
1.4583502650729062e-31
11
265.20909617834411
21
-36.461403717452782
31
2.8653705163743126e-30
0
LINE
5
127
100
AcDbEntity
8
0
100
AcDbLine
10
265.20909617834411
20
-36.461403717452782
30
2.8653705163743126e-30
11
265.20909617834411
21
-39.461403717452761
31
8.3777952580840777e-33
0
LINE
5
128
100
AcDbEntity
8
0
100
AcDbLine
10
265.20909617834411
20
-39.461403717452761
30
8.3777952580840777e-33
11
282.20909617834405
21
-39.461403717452647
31
5.0865174663510947e-29
0
LINE
5
129
100
AcDbEntity
8
0
100
AcDbLine
10
282.20909617834405
20
-39.461403717452647
30
5.0865174663510947e-29
11
282.20909617834394
21
-22.638180412749943
31
4.4459490913066481e-31
0
CIRCLE
5
130
100
AcDbEntity
8
0
100
AcDbCircle
10
337.75705049345453
20
-3.2047052528809452
30
0
40
0.062500000000000056
0
CIRCLE
5
131
100
AcDbEntity
8
0
100
AcDbCircle
10
336.00705049345527
20
-2.4547052528802289
30
0
40
0.062500000000000056
0
CIRCLE
5
132
100
AcDbEntity
8
0
100
AcDbCircle
10
337.75705049344799
20
-19.434705252880882
30
0
40
0.062500000000000056
0
LINE
5
133
100
AcDbEntity
8
0
100
AcDbLine
10
289.68811377297897
20
-5.9600569820366633
30
0
11
332.3434710806788
21
-5.9600569820538247
31
-1.2228896906723361e-30
0
ARC
5
134
100
AcDbEntity
8
0
100
AcDbCircle
10
332.343471080678
20
-7.9600569820538167
30
0
40
1.9999999999999858
100
AcDbArc
50
5.2803584521868316
51
89.999999999977206
0
LINE
5
135
100
AcDbEntity
8
0
100
AcDbLine
10
334.33498369109282
20
-7.7759985061319359
30
-5.1326033017919879e-32
11
335.55113030370956
21
-20.934704200117242
31
-2.3353796176034195e-32
0
LINE
5
136
100
AcDbEntity
8
0
100
AcDbLine
10
335.55113030370956
20
-20.934704200117242
30
-2.3353796176034195e-32
11
338.00705049344737
21
-20.934705522003
31
-5.2470217382518386e-32
0
LINE
5
137
100
AcDbEntity
8
0
100
AcDbLine
10
338.00705049344737
20
-20.934705522003
30
-5.2470217382518386e-32
11
338.00705049344856
21
-17.934705252880971
31
2.3217052264254242e-36
0
LINE
5
138
100
AcDbEntity
8
0
100
AcDbLine
10
338.00705049344856
20
-17.934705252880971
30
2.3217052264254242e-36
11
337.68382718874398
21
-17.934705252880843
31
7.1464132778935813e-33
0
ARC
5
139
100
AcDbEntity
8
0
100
AcDbCircle
10
337.59543884109559
20
-17.846316905232591
30
-1.3603741012626733e-47
40
0.12499999999997298
100
AcDbArc
50
134.99999999910071
51
315.00000000004491
0
LINE
5
140
100
AcDbEntity
8
0
100
AcDbLine
10
337.50705049344867
20
-17.757928557582904
30
-1.5046327687397632e-34
11
337.50705049345402
21
-4.3814819481790739
31
-4.5336495637569218e-35
0
ARC
5
141
100
AcDbEntity
8
0
100
AcDbCircle
10
337.5954388411011
20
-4.2930936005294518
30
-3.264897843030416e-46
40
0.12499999999997595
100
AcDbArc
50
45.000000000187981
51
225.00000000082301
0
LINE
5
142
100
AcDbEntity
8
0
100
AcDbLine
10
337.68382718874909
20
-4.2047052528808795
30
-1.7212998878084492e-33
11
338.00705049345413
21
-4.2047052528810278
31
7.4117973253485153e-33
0
LINE
5
143
100
AcDbEntity
8
0
100
AcDbLine
10
338.00705049345413
20
-4.2047052528810278
30
7.4117973253485153e-33
11
338.00705049345493
21
-2.2047052528809039
31
1.5164802940304226e-36
0
LINE
5
144
100
AcDbEntity
8
0
100
AcDbLine
10
338.00705049345493
20
-2.2047052528809039
30
1.5164802940304226e-36
11
334.50705049345595
21
-2.2047052528796205
31
3.7608710725042085e-32
0
LINE
5
145
100
AcDbEntity
8
0
100
AcDbLine
10
334.50705049345595
20
-2.2047052528796205
30
3.7608710725042085e-32
11
334.50705049345567
21
-2.5279285575850969
31
1.9038410894110681e-36
0
ARC
5
146
100
AcDbEntity
8
0
100
AcDbCircle
10
334.4186621458054
20
-2.6163169052315274
30
3.7147641299826264e-46
40
0.1249999999999683
100
AcDbArc
50
-135.00000000017403
51
44.999999998756827
0
LINE
5
147
100
AcDbEntity
8
0
100
AcDbLine
10
334.33027379815684
20
-2.7047052528795512
30
1.7393554810059564e-33
11
312.68382718874636
21
-2.7047052528708009
31
4.5009134448356815e-31
0
ARC
5
148
100
AcDbEntity
8
0
100
AcDbCircle
10
312.59543884109775
20
-2.6163169052227615
30
2.2136384509160433e-46
40
0.12500000000000019
100
AcDbArc
50
134.99999999916864
51
315.00000000018741
0
LINE
5
149
100
AcDbEntity
8
0
100
AcDbLine
10
312.50705049345072
20
-2.5279285575731705
30
1.0592614693831561e-33
11
312.50705049345083
21
-2.2047052528707334
31
-1.9038416179322998e-36
0
LINE
5
150
100
AcDbEntity
8
0
100
AcDbLine
10
312.50705049345083
20
-2.2047052528707334
30
-1.9038416179322998e-36
11
309.50705049345083
21
-2.2047052528695326
31
1.2617115856143151e-31
0
LINE
5
151
100
AcDbEntity
8
0
100
AcDbLine
10
309.50705049345083
20
-2.2047052528695326
30
1.2617115856143151e-31
11
309.50705049345066
21
-2.527928557574366
31
1.9038412008529145e-36
0
ARC
5
152
100
AcDbEntity
8
0
100
AcDbCircle
10
309.41866214580119
20
-2.6163169052214892
30
4.337034263431493e-46
40
0.12499999999996458
100
AcDbArc
50
-135.00000000020856
51
44.9999999992393
0
LINE
5
153
100
AcDbEntity
8
0
100
AcDbLine
10
309.33027379815258
20
-2.7047052528694633
30
1.1134282490822207e-33
11
287.68382718874199
21
-2.7047052528608084
31
4.3068039701257872e-31
0
ARC
5
154
100
AcDbEntity
8
0
100
AcDbCircle
10
287.59543884109348
20
-2.6163169052127127
30
-2.1819861822232978e-46
40
0.12499999999999724
100
AcDbArc
50
134.99999999960863
51
315.00000000013227
0
LINE
5
155
100
AcDbEntity
8
0
100
AcDbLine
10
287.50705049344577
20
-2.5279285575637971
30
6.5180691555248418e-33
11
287.50705049344572
21
-2.2047052528607409
31
-1.9038415134857395e-36
0
LINE
5
156
100
AcDbEntity
8
0
100
AcDbLine
10
287.50705049344572
20
-2.2047052528607409
30
-1.9038415134857395e-36
11
284.00705049344674
21
-2.2047052528593505
31
3.639552650810524e-32
0
LINE
5
157
100
AcDbEntity
8
0
100
AcDbLine
10
284.00705049344674
20
-2.2047052528593505
30
3.639552650810524e-32
11
284.00705049344594
21
-4.2047052528593465
31
-1.5164802715489611e-36
0
LINE
5
158
100
AcDbEntity
8
0
100
AcDbLine
10
284.00705049344594
20
-4.2047052528593465
30
-1.5164802715489611e-36
11
284.33027379814848
21
-4.2047052528594708
31
-1.6870843016777951e-33
0
ARC
5
159
100
AcDbEntity
8
0
100
AcDbCircle
10
284.41866214579653
20
-4.2930936005081053
30
1.113890476974486e-46
40
0.12499999999999525
100
AcDbArc
50
-44.999999999319463
51
134.99999999981031
0
LINE
5
160
100
AcDbEntity
8
0
100
AcDbLine
10
284.50705049344589
20
-4.3814819481553622
30
-1.372225085397696e-33
11
284.50705049344054
21
-17.757928557564057
31
4.5336494787963062e-35
0
ARC
5
161
100
AcDbEntity
8
0
100
AcDbCircle
10
284.41866214579107
20
-17.846316905211236
30
5.3876202030204884e-48
40
0.12500000000000661
100
AcDbArc
50
-135.00000000010826
51
44.999999999257284
0
LINE
5
162
100
AcDbEntity
8
0
100
AcDbLine
10
284.33027379814257
20
-17.934705252859406
30
-7.1018666697735422e-34
11
284.00705049344043
21
-17.934705252859285
31
-6.1986131084116746e-33
0
LINE
5
163
100
AcDbEntity
8
0
100
AcDbLine
10
284.00705049344043
20
-17.934705252859285
30
-6.1986131084116746e-33
11
284.00705049343924
21
-20.934705252859274
31
-2.2747204073579221e-36
0
LINE
5
164
100
AcDbEntity
8
0
100
AcDbLine
10
284.00705049343924
20
-20.934705252859274
30
-2.2747204073579221e-36
11
286.46297066258455
21
-20.934705252860262
31
-2.0927427742160514e-32
0
LINE
5
165
100
AcDbEntity
8
0
100
AcDbLine
10
286.46297066258455
20
-20.934705252860262
30
-2.0927427742160514e-32
11
287.69684532085967
21
-7.7733755646497773
31
2.2898852094682882e-32
0
ARC
5
166
100
AcDbEntity
8
0
100
AcDbCircle
10
289.68811377297828
20
-7.9600569820367975
30
-2.3360721200296836e-45
40
2.0000000000001332
100
AcDbArc
50
89.99999999998046
51
174.64417495711916
0
CIRCLE
5
167
100
AcDbEntity
8
0
100
AcDbCircle
10
311.00705049345072
20
-2.4547052528701356
30
0
40
0.062500000000000056
0
CIRCLE
5
168
100
AcDbEntity
8
0
100
AcDbCircle
10
286.00705049344623
20
-2.4547052528601432
30
0
40
0.062500000000000056
0
CIRCLE
5
169
100
AcDbEntity
8
0
100
AcDbCircle
10
284.25705049344634
20
-3.20470525285945
30
0
40
0.062500000000000056
0
CIRCLE
5
170
100
AcDbEntity
8
0
100
AcDbCircle
10
284.25705049343981
20
-19.434705252859384
30
0
40
0.062500000000000056
0
LINE
5
171
100
AcDbEntity
8
0
100
AcDbLine
10
340.43523467435426
20
-7.4221856826102375
30
0
11
339.21908806173224
21
-20.580891376594892
31
-1.7363699104908542e-32
0
ARC
5
172
100
AcDbEntity
8
0
100
AcDbCircle
10
337.22757545131748
20
-20.396832900672212
30
0
40
1.9999999999999711
100
AcDbArc
50
270
51
354.71964154779027
0
LINE
5
173
100
AcDbEntity
8
0
100
AcDbLine
10
337.22757545131748
20
-22.396832900672184
30
3.7547746543990069e-34
11
294.57221814361787
21
-22.396832900672145
31
-1.1719359535609888e-30
0
ARC
5
174
100
AcDbEntity
8
0
100
AcDbCircle
10
294.57221814361793
20
-20.396832900672106
30
0
40
2.0000000000000573
100
AcDbArc
50
185.3558250428558
51
269.99999999999835
0
LINE
5
175
100
AcDbEntity
8
0
100
AcDbLine
10
292.58094969149931
20
-20.583514318058249
30
-3.4666738998971053e-33
11
291.34707503322943
21
-7.4221846298474246
31
2.3884564270944066e-32
0
LINE
5
176
100
AcDbEntity
8
0
100
AcDbLine
10
291.34707503322943
20
-7.4221846298474246
30
2.3884564270944066e-32
11
288.89115486408417
21
-7.4221846298474219
31
2.5931812637024986e-32
0
LINE
5
177
100
AcDbEntity
8
0
100
AcDbLine
10
288.89115486408417
20
-7.4221846298474219
30
2.5931812637024986e-32
11
288.89115486408417
21
-10.422184629847377
31
5.6321619815982936e-34
0
LINE
5
178
100
AcDbEntity
8
0
100
AcDbLine
10
288.89115486408417
20
-10.422184629847377
30
5.6321619815982936e-34
11
289.21437816878631
21
-10.422184629847376
31
5.5161969863847004e-33
0
ARC
5
179
100
AcDbEntity
8
0
100
AcDbCircle
10
289.3027665164347
20
-10.510572977495579
30
1.8856670710571708e-48
40
0.12499999999999971
100
AcDbArc
50
-44.99999999928837
51
134.99999879329334
0
LINE
5
180
100
AcDbEntity
8
0
100
AcDbLine
10
289.39115486408411
20
-10.598961325142797
30
1.7814851985572965e-33
11
289.39115486408411
21
-23.975407934551349
31
2.5112771347463777e-33
0
ARC
5
181
100
AcDbEntity
8
0
100
AcDbCircle
10
289.3027665164347
20
-24.06379628219856
30
-3.4103635885119692e-46
40
0.1249999999999631
100
AcDbArc
50
-134.99999999980312
51
44.999999999286082
0
LINE
5
182
100
AcDbEntity
8
0
100
AcDbLine
10
289.21437816878671
20
-24.152184629847159
30
3.6713039568121284e-34
11
288.89115486408417
21
-24.152184629847163
31
2.3695004237047682e-33
0
LINE
5
183
100
AcDbEntity
8
0
100
AcDbLine
10
288.89115486408417
20
-24.152184629847163
30
2.3695004237047682e-33
11
288.89115486408417
21
-26.152184629847135
31
-2.0508909684337871e-33
0
LINE
5
184
100
AcDbEntity
8
0
100
AcDbLine
10
288.89115486408417
20
-26.152184629847135
30
-2.0508909684337871e-33
11
292.39115486408309
21
-26.152184629847152
31
-4.337133575549208e-32
0
LINE
5
185
100
AcDbEntity
8
0
100
AcDbLine
10
292.39115486408309
20
-26.152184629847152
30
-4.337133575549208e-32
11
292.39115486408332
21
-25.82896132514411
31
-1.2738657505476346e-33
0
ARC
5
186
100
AcDbEntity
8
0
100
AcDbCircle
10
292.47954321173103
20
-25.740572977495205
30
-1.6539994023272899e-45
40
0.12499999999998485
100
AcDbArc
50
44.99999999983303
51
225.00000120723399
0
LINE
5
187
100
AcDbEntity
8
0
100
AcDbLine
10
292.56793155937959
20
-25.652184629847159
30
-1.4041233000786716e-32
11
314.21437816879001
21
-25.652184629847241
31
-4.755682130392418e-31
0
ARC
5
188
100
AcDbEntity
8
0
100
AcDbCircle
10
314.30276651643862
20
-25.740572977495251
30
1.8991361215647222e-47
40
0.12499999999998485
100
AcDbArc
50
-44.999999999248068
51
135.00000000019691
0
LINE
5
189
100
AcDbEntity
8
0
100
AcDbLine
10
314.39115486408809
20
-25.828961325142402
30
-9.6898350326746044e-34
11
314.39115486408809
21
-26.15218462984723
31
6.0681533610857264e-35
0
LINE
5
190
100
AcDbEntity
8
0
100
AcDbLine
10
314.39115486408809
20
-26.15218462984723
30
6.0681533610857264e-35
11
317.39115486408815
21
-26.152184629847241
31
2.2898852094682882e-32
0
LINE
5
191
100
AcDbEntity
8
0
100
AcDbLine
10
317.39115486408815
20
-26.152184629847241
30
2.2898852094682882e-32
11
317.39115486408815
21
-25.828961325144796
31
2.3656869002633021e-33
0
ARC
5
192
100
AcDbEntity
8
0
100
AcDbCircle
10
317.47954321173523
20
-25.740572977495255
30
-1.4721672204753485e-46
40
0.12499999999999278
100
AcDbArc
50
44.999999999804245
51
225.0000000007968
0
LINE
5
193
100
AcDbEntity
8
0
100
AcDbLine
10
317.56793155938385
20
-25.652184629847241
30
-3.7314892668953135e-34
11
339.21437816879421
21
-25.65218462984723
31
-4.9376597629329441e-31
0
ARC
5
194
100
AcDbEntity
8
0
100
AcDbCircle
10
339.30276651644283
20
-25.740572977495273
30
5.5357797586035518e-47
40
0.12499999999995716
100
AcDbArc
50
-44.99999999883012
51
135.00000000018656
0
LINE
5
195
100
AcDbEntity
8
0
100
AcDbLine
10
339.39115486409293
20
-25.828961325141758
30
-1.5648180797996774e-33
11
339.39115486409315
21
-26.152184629847216
31
-2.3656869002630189e-33
0
LINE
5
196
100
AcDbEntity
8
0
100
AcDbLine
10
339.39115486409315
20
-26.152184629847216
30
-2.3656869002630189e-33
11
342.89115486409207
21
-26.152184629847348
31
-4.7010888406302603e-32
0
LINE
5
197
100
AcDbEntity
8
0
100
AcDbLine
10
342.89115486409207
20
-26.152184629847348
30
-4.7010888406302603e-32
11
342.89115486409207
21
-24.152184629847248
31
2.0508909684337628e-33
0
LINE
5
198
100
AcDbEntity
8
0
100
AcDbLine
10
342.89115486409207
20
-24.152184629847248
30
2.0508909684337628e-33
11
342.56793155938709
21
-24.152184629847252
31
-6.7293812033215424e-33
0
ARC
5
199
100
AcDbEntity
8
0
100
AcDbCircle
10
342.47954321173904
20
-24.063796282198673
30
9.643840163406674e-47
40
0.12499999999999474
100
AcDbArc
50
134.99999999910528
51
314.99999999982845
0
LINE
5
200
100
AcDbEntity
8
0
100
AcDbLine
10
342.39115486409213
20
-23.975407934549001
30
-2.0763932212969871e-33
11
342.39115486409207
21
-10.59896132514532
31
-2.5112771347454632e-33
0
ARC
5
201
100
AcDbEntity
8
0
100
AcDbCircle
10
342.47954321173904
20
-10.51057297749567
30
1.7866695498266694e-46
40
0.12500000000003034
100
AcDbArc
50
44.99999999992054
51
225.00000000086879
0
LINE
5
202
100
AcDbEntity
8
0
100
AcDbLine
10
342.56793155938749
20
-10.422184629847468
30
-3.7314892673065164e-34
11
342.89115486409207
21
-10.422184629847459
31
-7.8288293999205541e-33
0
LINE
5
203
100
AcDbEntity
8
0
100
AcDbLine
10
342.89115486409207
20
-10.422184629847459
30
-7.8288293999205541e-33
11
342.89115486409207
21
-7.4221843607254652
31
-5.6321624868445997e-34
0
LINE
5
204
100
AcDbEntity
8
0
100
AcDbLine
10
342.89115486409207
20
-7.4221843607254652
30
-5.6321624868445997e-34
11
340.43523467435426
21
-7.4221856826102375
31
0
0
ARC
5
205
100
AcDbEntity
8
0
100
AcDbCircle
10
293.84232383163106
20
-34.338138694241216
30
4.4480192396137155e-45
40
0.1250000000000086
100
AcDbArc
50
-135.0000000000737
51
45.000001207342265
0
LINE
5
206
100
AcDbEntity
8
0
100
AcDbLine
10
293.75393548398262
20
-34.426527041889436
30
5.3346453900255313e-31
11
293.43071217927894
21
-34.426527041889692
31
1.4157994399277006e-28
0
LINE
5
207
100
AcDbEntity
8
0
100
AcDbLine
10
293.43071217927894
20
-34.426527041889692
30
1.4157994399277006e-28
11
293.43071217928053
21
-36.426527041889713
31
6.7840398912891963e-31
0
LINE
5
208
100
AcDbEntity
8
0
100
AcDbLine
10
293.43071217928053
20
-36.426527041889713
30
6.7840398912891963e-31
11
319.68071217928042
21
-36.426527041869733
31
-1.2726545072510855e-28
0
LINE
5
209
100
AcDbEntity
8
0
100
AcDbLine
10
319.68071217928042
20
-36.426527041869733
30
-1.2726545072510855e-28
11
319.68071217928019
21
-36.103303737165952
31
-1.065009543508393e-31
0
ARC
5
210
100
AcDbEntity
8
0
100
AcDbCircle
10
319.76910052692898
20
-36.014915389518087
30
-5.403136549205187e-44
40
0.12500000000000069
100
AcDbArc
50
45.000000000133568
51
224.9999987927153
0
LINE
5
211
100
AcDbEntity
8
0
100
AcDbLine
10
319.85748887457709
20
-35.926527041869569
30
-1.067266115708141e-31
11
322.50393548398409
21
-35.926527041867544
31
2.2009739711695295e-29
0
ARC
5
212
100
AcDbEntity
8
0
100
AcDbCircle
10
322.59232383163231
20
-36.014915389515927
30
2.7972524094082375e-45
40
0.12500000000001651
100
AcDbArc
50
-45.000000000320092
51
134.99999999994705
0
LINE
5
213
100
AcDbEntity
8
0
100
AcDbLine
10
322.68071217928014
20
-36.103303737164737
30
-3.3281273145097368e-31
11
322.68071217928042
21
-36.426527041867367
31
1.0771413856739318e-31
0
LINE
5
214
100
AcDbEntity
8
0
100
AcDbLine
10
322.68071217928042
20
-36.426527041867367
30
1.0771413856739318e-31
11
348.93071217928025
21
-36.426527041847386
31
-1.272775825672779e-28
0
LINE
5
215
100
AcDbEntity
8
0
100
AcDbLine
10
348.93071217928025
20
-36.426527041847386
30
-1.272775825672779e-28
11
348.93071217927871
21
-34.426527041847386
31
-3.8735645126528703e-33
0
LINE
5
216
100
AcDbEntity
8
0
100
AcDbLine
10
348.93071217927871
20
-34.426527041847386
30
-3.8735645126528703e-33
11
348.60748887457595
21
-34.426527041847635
31
2.8420167201982785e-30
0
ARC
5
217
100
AcDbEntity
8
0
100
AcDbCircle
10
348.51910052692739
20
-34.338138694199522
30
-2.3826211585837809e-44
40
0.12500000000000464
100
AcDbArc
50
135.00000000035004
51
315.00000000014512
0
LINE
5
218
100
AcDbEntity
8
0
100
AcDbLine
10
348.43071217927854
20
-34.249750346551757
30
2.1635415512916312e-31
11
348.43071217927462
21
-29.097023508476816
31
5.5050746500025136e-33
0
ARC
5
219
100
AcDbEntity
8
0
100
AcDbCircle
10
348.51910052692335
20
-29.008635160828888
30
1.7516230804060211e-44
40
0.12500000000002442
100
AcDbArc
50
45.000000000145086
51
224.99999999973977
0
LINE
5
220
100
AcDbEntity
8
0
100
AcDbLine
10
348.60748887457146
20
-28.920246813180334
30
-1.3659056277138942e-31
11
348.93071217927451
21
-28.920246813180089
31
-2.7231246669384681e-30
0
LINE
5
221
100
AcDbEntity
8
0
100
AcDbLine
10
348.93071217927451
20
-28.920246813180089
30
-2.7231246669384681e-30
11
348.93071217927218
21
-25.9202468131801
31
2.0879706003630927e-32
0
LINE
5
222
100
AcDbEntity
8
0
100
AcDbLine
10
348.93071217927218
20
-25.9202468131801
30
2.0879706003630927e-32
11
347.98102348658676
21
-25.920246813180821
31
-8.7789042898092182e-30
0
ARC
5
223
100
AcDbEntity
8
0
100
AcDbCircle
10
347.9810234865879
20
-27.4202468131808
30
-2.3943446201455532e-43
40
1.4999999999999785
100
AcDbArc
50
90.000000000043428
51
160.00000000004496
0
LINE
5
224
100
AcDbEntity
8
0
100
AcDbLine
10
346.57148455540863
20
-26.907216598193401
30
-4.3045256480783418e-30
11
344.92184746411107
21
-31.439557256838967
31
8.9581522578616367e-30
0
ARC
5
225
100
AcDbEntity
8
0
100
AcDbCircle
10
343.5123085329318
20
-30.926527041851536
30
0
40
1.4999999999999951
100
AcDbArc
50
270.00000000004127
51
340.00000000004377
0
LINE
5
226
100
AcDbEntity
8
0
100
AcDbLine
10
343.51230853293288
20
-32.426527041851529
30
8.9710944693181351e-33
11
298.84911582562154
21
-32.426527041885592
31
-2.5239084449154048e-29
0
ARC
5
227
100
AcDbEntity
8
0
100
AcDbCircle
10
298.8491158256204
20
-30.926527041885603
30
0
40
1.4999999999999813
100
AcDbArc
50
200.00000000004377
51
270.00000000004343
0
LINE
5
228
100
AcDbEntity
8
0
100
AcDbLine
10
297.43957689444193
20
-31.439557256875183
30
-3.9660916086009396e-30
11
295.78993980313743
21
-26.907216598232061
31
5.9631037222988096e-30
0
ARC
5
229
100
AcDbEntity
8
0
100
AcDbCircle
10
294.38040087195901
20
-27.42024681322162
30
9.3291169416270294e-43
40
1.4999999999999736
100
AcDbArc
50
20.00000000004372
51
90.000000000041254
0
LINE
5
230
100
AcDbEntity
8
0
100
AcDbLine
10
294.38040087195793
20
-25.920246813221652
30
-9.009006476047476e-33
11
293.4307121792724
21
-25.920246813222363
31
-8.7813306582430927e-30
0
LINE
5
231
100
AcDbEntity
8
0
100
AcDbLine
10
293.4307121792724
20
-25.920246813222363
30
-8.7813306582430927e-30
11
293.43071217927474
21
-28.920246813222352
31
-2.0879706003630927e-32
0
LINE
5
232
100
AcDbEntity
8
0
100
AcDbLine
10
293.43071217927474
20
-28.920246813222352
30
-2.0879706003630927e-32
11
293.75393548397881
21
-28.920246813222107
31
-2.2457366775738209e-30
0
ARC
5
233
100
AcDbEntity
8
0
100
AcDbCircle
10
293.84232383162703
20
-29.008635160870501
30
-3.1304228427630245e-44
40
0.12500000000000069
100
AcDbArc
50
-45.000000000293625
51
134.99999999994358
0
LINE
5
234
100
AcDbEntity
8
0
100
AcDbLine
10
293.93071217927491
20
-29.097023508519285
30
-3.4099793371480949e-31
11
293.93071217927888
21
-34.249750346592371
31
-7.9314430844825064e-33
0
CIRCLE
5
235
100
AcDbEntity
8
0
100
AcDbCircle
10
348.20586783293061
20
-27.420246813180647
30
0
40
0.062499999999998869
0
CIRCLE
5
236
100
AcDbEntity
8
0
100
AcDbCircle
10
293.68071217927354
20
-27.420246813222168
30
0
40
0.062499999999998869
0
CIRCLE
5
237
100
AcDbEntity
8
0
100
AcDbCircle
10
348.6807121792794
20
-35.426527041847542
30
0
40
0.062499999999998869
0
CIRCLE
5
238
100
AcDbEntity
8
0
100
AcDbCircle
10
293.68071217927974
20
-35.426527041889521
30
0
40
0.062500000000000264
0
ARC
5
239
100
AcDbEntity
8
0
100
AcDbCircle
10
348.57622561502467
20
-39.247251207414877
30
1.7240384649665563e-46
40
0.12499999999999278
100
AcDbArc
50
44.999999999884849
51
224.99999999990328
0
LINE
5
240
100
AcDbEntity
8
0
100
AcDbLine
10
348.66461396267317
20
-39.158862859766728
30
-5.0415429266091733e-31
11
348.9878372673769
21
-39.158862859766728
31
-1.4157941322467513e-28
0
LINE
5
241
100
AcDbEntity
8
0
100
AcDbLine
10
348.9878372673769
20
-39.158862859766728
30
-1.4157941322467513e-28
11
348.98783726737685
21
-37.158862859766693
31
-1.8643570613627504e-32
0
LINE
5
242
100
AcDbEntity
8
0
100
AcDbLine
10
348.98783726737685
20
-37.158862859766693
30
-1.8643570613627504e-32
11
322.73783726737685
21
-37.158862859766671
31
5.0953737111347335e-31
0
LINE
5
243
100
AcDbEntity
8
0
100
AcDbLine
10
322.73783726737685
20
-37.158862859766671
30
5.0953737111347335e-31
11
322.73783726737685
21
-37.482086164470466
31
-1.2401704189545779e-34
0
ARC
5
244
100
AcDbEntity
8
0
100
AcDbCircle
10
322.64944891972806
20
-37.57047451211826
30
-1.3145793295369991e-46
40
0.12500000000002442
100
AcDbArc
50
-134.9999999999217
51
44.999999999677577
0
LINE
5
245
100
AcDbEntity
8
0
100
AcDbLine
10
322.56106057207984
20
-37.658862859766721
30
-2.2268564984340203e-34
11
319.91461396267283
21
-37.658862859766721
31
6.0659210846842069e-34
0
ARC
5
246
100
AcDbEntity
8
0
100
AcDbCircle
10
319.82622561502461
20
-37.570474512118288
30
1.0532797496905055e-46
40
0.12499999999999278
100
AcDbArc
50
134.99999999961079
51
314.99999999993088
0
LINE
5
247
100
AcDbEntity
8
0
100
AcDbLine
10
319.7378372673769
20
-37.482086164469379
30
2.726394577522008e-33
11
319.73783726737685
21
-37.158862859766757
31
-1.0891671750418276e-33
0
LINE
5
248
100
AcDbEntity
8
0
100
AcDbLine
10
319.73783726737685
20
-37.158862859766757
30
-1.0891671750418276e-33
11
293.4878372673769
21
-37.158862859766742
31
5.2166921328284181e-31
0
LINE
5
249
100
AcDbEntity
8
0
100
AcDbLine
10
293.4878372673769
20
-37.158862859766742
30
5.2166921328284181e-31
11
293.4878372673769
21
-39.158862859766735
31
4.0853600103817903e-33
0
LINE
5
250
100
AcDbEntity
8
0
100
AcDbLine
10
293.4878372673769
20
-39.158862859766735
30
4.0853600103817903e-33
11
293.81106057207967
21
-39.158862859766742
31
9.4780016948190733e-35
0
ARC
5
251
100
AcDbEntity
8
0
100
AcDbCircle
10
293.89944891972812
20
-39.247251207414926
30
0
40
0.12500000000000069
100
AcDbArc
50
-44.999999999693699
51
135.00000000008521
0
LINE
5
252
100
AcDbEntity
8
0
100
AcDbLine
10
293.9878372673769
20
-39.33563955506277
30
-2.4536347491493464e-31
11
293.98783726737696
21
-44.488366393137724
31
2.8756952038147676e-33
0
ARC
5
253
100
AcDbEntity
8
0
100
AcDbCircle
10
293.89944891972823
20
-44.576754740785603
30
-3.8656174956672008e-46
40
0.12500000000000069
100
AcDbArc
50
-134.99999999989868
51
44.999999999723649
0
LINE
5
254
100
AcDbEntity
8
0
100
AcDbLine
10
293.81106057208007
20
-44.665143088434078
30
5.296307346895305e-34
11
293.48783726737696
21
-44.665143088434071
31
-9.4780016948190733e-35
0
LINE
5
255
100
AcDbEntity
8
0
100
AcDbLine
10
293.48783726737696
20
-44.665143088434071
30
-9.4780016948190733e-35
11
293.48783726737702
21
-47.665143088434071
31
-1.1510652860483516e-33
0
LINE
5
256
100
AcDbEntity
8
0
100
AcDbLine
10
293.48783726737702
20
-47.665143088434071
30
-1.1510652860483516e-33
11
294.43752596006243
21
-47.665143088434071
31
6.0659210846842069e-34
0
ARC
5
257
100
AcDbEntity
8
0
100
AcDbCircle
10
294.43752596006237
20
-46.165143088434036
30
3.4399954996285817e-46
40
1.50000000000004
100
AcDbArc
50
270.00000000000222
51
339.99999999999909
0
LINE
5
258
100
AcDbEntity
8
0
100
AcDbLine
10
295.84706489124125
20
-46.678173303422568
30
-1.7333369499484787e-33
11
297.49670198254228
21
-42.145832644778231
31
-6.5208651660355223e-33
0
ARC
5
259
100
AcDbEntity
8
0
100
AcDbCircle
10
298.90624091372115
20
-42.658862859766735
30
0
40
1.5000000000000007
100
AcDbArc
50
90
51
160.00000000000009
0
LINE
5
260
100
AcDbEntity
8
0
100
AcDbLine
10
298.90624091372115
20
-41.158862859766735
30
5.7553264302417589e-34
11
343.56943362103277
21
-41.158862859766707
31
0
0
ARC
5
261
100
AcDbEntity
8
0
100
AcDbCircle
10
343.56943362103277
20
-42.658862859766707
30
0
40
1.4999999999999942
100
AcDbArc
50
20.000000000000163
51
90
0
LINE
5
262
100
AcDbEntity
8
0
100
AcDbLine
10
344.97897255221164
20
-42.145832644778196
30
-1.8777816957774941e-33
11
346.62860964351268
21
-46.678173303422597
31
-1.6681282982881568e-33
0
ARC
5
263
100
AcDbEntity
8
0
100
AcDbCircle
10
348.03814857469155
20
-46.165143088434043
30
1.4815955558306342e-47
40
1.5000000000000497
100
AcDbArc
50
200.00000000000168
51
269.99999999999784
0
LINE
5
264
100
AcDbEntity
8
0
100
AcDbLine
10
348.03814857469149
20
-47.665143088434093
30
-5.376206362449e-34
11
348.9878372673769
21
-47.665143088434093
31
6.0659210846842069e-34
0
LINE
5
265
100
AcDbEntity
8
0
100
AcDbLine
10
348.9878372673769
20
-47.665143088434093
30
6.0659210846842069e-34
11
348.98783726737696
21
-44.665143088434093
31
1.1510652860483516e-33
0
LINE
5
266
100
AcDbEntity
8
0
100
AcDbLine
10
348.98783726737696
20
-44.665143088434093
30
1.1510652860483516e-33
11
348.66461396267283
21
-44.665143088434093
31
-9.4780016948190733e-35
0
ARC
5
267
100
AcDbEntity
8
0
100
AcDbCircle
10
348.57622561502467
20
-44.576754740785617
30
2.407592778224781e-47
40
0.12500000000000069
100
AcDbArc
50
134.99999999967298
51
314.99999999989871
0
LINE
5
268
100
AcDbEntity
8
0
100
AcDbLine
10
348.48783726737685
20
-44.488366393136786
30
1.2097247463111253e-33
11
348.48783726737622
21
-39.335639555063025
31
5.0415429266091777e-31
0
CIRCLE
5
269
100
AcDbEntity
8
0
100
AcDbCircle
10
294.21268161371967
20
-46.165143088434071
30
0
40
0.062499999999999153
0
CIRCLE
5
270
100
AcDbEntity
8
0
100
AcDbCircle
10
348.7378372673769
20
-46.165143088434093
30
0
40
0.062499999999999153
0
CIRCLE
5
271
100
AcDbEntity
8
0
100
AcDbCircle
10
293.73783726737696
20
-38.158862859766778
30
0
40
0.062499999999999153
0
CIRCLE
5
272
100
AcDbEntity
8
0
100
AcDbCircle
10
348.7378372673769
20
-38.1588628597667
30
0
40
0.062500000000000555
0
ENDSEC
0
SECTION
2
OBJECTS
0
DICTIONARY
5
C
100
AcDbDictionary
3
ACAD_GROUP
350
D
3
ACAD_MLINESTYLE
350
17
0
DICTIONARY
5
D
100
AcDbDictionary
0
DICTIONARY
5
1A
330
C
100
AcDbDictionary
0
DICTIONARY
5
17
100
AcDbDictionary
0
ENDSEC
0
EOF
