  0
SECTION
  2
HEADER
  9
$ACADVER
  1
AC1018
  9
$ACADMAINTVER
 70
     0
  9
$DWGCODEPAGE
  3
ANSI_1252
  9
$INSBASE
 10
0.0
 20
0.0
 30
0.0
  9
$EXTMIN
 10
-811.959
 20
49.4451
 30
0.0
  9
$EXTMAX
 10
11754.6952
 20
5397.6993
 30
0.0
  9
$LIMMIN
 10
-811.959
 20
49.4451
  9
$LIMMAX
 10
11754.6952
 20
5397.6993
  9
$ORTHOMODE
 70
     0
  9
$REGENMODE
 70
     1
  9
$FILLMODE
 70
     1
  9
$QTEXTMODE
 70
     0
  9
$MIRRTEXT
 70
     1
  9
$LTSCALE
 40
1.0
  9
$ATTMODE
 70
     1
  9
$TEXTSIZE
 40
0.2
  9
$TRACEWID
 40
0.05
  9
$TEXTSTYLE
  7
STANDARD
  9
$CLAYER
  8
default
  9
$CELTYPE
  6
BYLAYER
  9
$CECOLOR
 62
   256
  9
$CELTSCALE
 40
1.0
  9
$DISPSILH
 70
     0
  9
$DIMSCALE
 40
1.0
  9
$DIMASZ
 40
0.18
  9
$DIMEXO
 40
0.0625
  9
$DIMDLI
 40
0.38
  9
$DIMRND
 40
0.0
  9
$DIMDLE
 40
0.0
  9
$DIMEXE
 40
0.18
  9
$DIMTP
 40
0.0
  9
$DIMTM
 40
0.0
  9
$DIMTXT
 40
0.18
  9
$DIMCEN
 40
0.09
  9
$DIMTSZ
 40
0.0
  9
$DIMTOL
 70
     0
  9
$DIMLIM
 70
     0
  9
$DIMTIH
 70
     1
  9
$DIMTOH
 70
     1
  9
$DIMSE1
 70
     0
  9
$DIMSE2
 70
     0
  9
$DIMTAD
 70
     0
  9
$DIMZIN
 70
     0
  9
$DIMBLK
  1

  9
$DIMASO
 70
     1
  9
$DIMSHO
 70
     1
  9
$DIMPOST
  1

  9
$DIMAPOST
  1

  9
$DIMALT
 70
     0
  9
$DIMALTD
 70
     2
  9
$DIMALTF
 40
25.4
  9
$DIMLFAC
 40
1.0
  9
$DIMTOFL
 70
     0
  9
$DIMTVP
 40
0.0
  9
$DIMTIX
 70
     0
  9
$DIMSOXD
 70
     0
  9
$DIMSAH
 70
     0
  9
$DIMBLK1
  1

  9
$DIMBLK2
  1

  9
$DIMSTYLE
  2
STANDARD
  9
$DIMCLRD
 70
     0
  9
$DIMCLRE
 70
     0
  9
$DIMCLRT
 70
     0
  9
$DIMTFAC
 40
1.0
  9
$DIMGAP
 40
0.09
  9
$DIMJUST
 70
     0
  9
$DIMSD1
 70
     0
  9
$DIMSD2
 70
     0
  9
$DIMTOLJ
 70
     1
  9
$DIMTZIN
 70
     0
  9
$DIMALTZ
 70
     0
  9
$DIMALTTZ
 70
     0
  9
$DIMUPT
 70
     0
  9
$DIMDEC
 70
     4
  9
$DIMTDEC
 70
     4
  9
$DIMALTU
 70
     2
  9
$DIMALTTD
 70
     2
  9
$DIMTXSTY
  7
STANDARD
  9
$DIMAUNIT
 70
     0
  9
$DIMADEC
 70
     0
  9
$DIMALTRND
 40
0.0
  9
$DIMAZIN
 70
     0
  9
$DIMDSEP
 70
    46
  9
$DIMATFIT
 70
     3
  9
$DIMFRAC
 70
     0
  9
$DIMLDRBLK
  1

  9
$DIMLUNIT
 70
     2
  9
$DIMLWD
 70
    -2
  9
$DIMLWE
 70
    -2
  9
$DIMTMOVE
 70
     0
  9
$LUNITS
 70
     2
  9
$LUPREC
 70
     4
  9
$SKETCHINC
 40
0.1
  9
$FILLETRAD
 40
0.5
  9
$AUNITS
 70
     0
  9
$AUPREC
 70
     0
  9
$MENU
  1
.
  9
$ELEVATION
 40
0.0
  9
$PELEVATION
 40
0.0
  9
$THICKNESS
 40
0.0
  9
$LIMCHECK
 70
     0
  9
$CHAMFERA
 40
0.5
  9
$CHAMFERB
 40
0.5
  9
$CHAMFERC
 40
1.0
  9
$CHAMFERD
 40
0.0
  9
$SKPOLY
 70
     0
  9
$TDCREATE
 40
2454243.624756944
  9
$TDUCREATE
 40
2454243.791423611
  9
$TDUPDATE
 40
2454243.624756944
  9
$TDUUPDATE
 40
2454243.791423611
  9
$TDINDWG
 40
0.0
  9
$TDUSRTIMER
 40
0.0
  9
$USRTIMER
 70
     1
  9
$ANGBASE
 50
0.0
  9
$ANGDIR
 70
     0
  9
$PDMODE
 70
     0
  9
$PDSIZE
 40
0.0
  9
$PLINEWID
 40
0.0
  9
$SPLFRAME
 70
     0
  9
$SPLINETYPE
 70
     6
  9
$SPLINESEGS
 70
     8
  9
$HANDSEED
  5
1A4
  9
$SURFTAB1
 70
     6
  9
$SURFTAB2
 70
     6
  9
$SURFTYPE
 70
     6
  9
$SURFU
 70
     6
  9
$SURFV
 70
     6
  9
$UCSBASE
  2

  9
$UCSNAME
  2

  9
$UCSORG
 10
0.0
 20
0.0
 30
0.0
  9
$UCSXDIR
 10
1.0
 20
0.0
 30
0.0
  9
$UCSYDIR
 10
0.0
 20
1.0
 30
0.0
  9
$UCSORTHOREF
  2

  9
$UCSORTHOVIEW
 70
     0
  9
$UCSORGTOP
 10
0.0
 20
0.0
 30
0.0
  9
$UCSORGBOTTOM
 10
0.0
 20
0.0
 30
0.0
  9
$UCSORGLEFT
 10
0.0
 20
0.0
 30
0.0
  9
$UCSORGRIGHT
 10
0.0
 20
0.0
 30
0.0
  9
$UCSORGFRONT
 10
0.0
 20
0.0
 30
0.0
  9
$UCSORGBACK
 10
0.0
 20
0.0
 30
0.0
  9
$PUCSBASE
  2

  9
$PUCSNAME
  2

  9
$PUCSORG
 10
0.0
 20
0.0
 30
0.0
  9
$PUCSXDIR
 10
1.0
 20
0.0
 30
0.0
  9
$PUCSYDIR
 10
0.0
 20
1.0
 30
0.0
  9
$PUCSORTHOREF
  2

  9
$PUCSORTHOVIEW
 70
     0
  9
$PUCSORGTOP
 10
0.0
 20
0.0
 30
0.0
  9
$PUCSORGBOTTOM
 10
0.0
 20
0.0
 30
0.0
  9
$PUCSORGLEFT
 10
0.0
 20
0.0
 30
0.0
  9
$PUCSORGRIGHT
 10
0.0
 20
0.0
 30
0.0
  9
$PUCSORGFRONT
 10
0.0
 20
0.0
 30
0.0
  9
$PUCSORGBACK
 10
0.0
 20
0.0
 30
0.0
  9
$USERI1
 70
     0
  9
$USERI2
 70
     0
  9
$USERI3
 70
     0
  9
$USERI4
 70
     0
  9
$USERI5
 70
     0
  9
$USERR1
 40
0.0
  9
$USERR2
 40
0.0
  9
$USERR3
 40
0.0
  9
$USERR4
 40
0.0
  9
$USERR5
 40
0.0
  9
$WORLDVIEW
 70
     1
  9
$SHADEDGE
 70
     3
  9
$SHADEDIF
 70
    70
  9
$TILEMODE
 70
     1
  9
$MAXACTVP
 70
    48
  9
$PINSBASE
 10
0.0
 20
0.0
 30
0.0
  9
$PLIMCHECK
 70
     0
  9
$PEXTMIN
 10
1.000000000000000E+20
 20
1.000000000000000E+20
 30
1.000000000000000E+20
  9
$PEXTMAX
 10
-1.000000000000000E+20
 20
-1.000000000000000E+20
 30
-1.000000000000000E+20
  9
$PLIMMIN
 10
0.0
 20
0.0
  9
$PLIMMAX
 10
12.0
 20
9.0
  9
$UNITMODE
 70
     0
  9
$VISRETAIN
 70
     1
  9
$PLINEGEN
 70
     0
  9
$PSLTSCALE
 70
     1
  9
$TREEDEPTH
 70
  3020
  9
$CMLSTYLE
  2
STANDARD
  9
$CMLJUST
 70
     0
  9
$CMLSCALE
 40
1.0
  9
$PROXYGRAPHICS
 70
     1
  9
$MEASUREMENT
 70
     0
  9
$CELWEIGHT
370
    -1
  9
$ENDCAPS
280
     0
  9
$JOINSTYLE
280
     0
  9
$LWDISPLAY
290
     0
  9
$INSUNITS
 70
     0
  9
$HYPERLINKBASE
  1

  9
$STYLESHEET
  1

  9
$XEDIT
290
     1
  9
$CEPSNTYPE
380
     0
  9
$PSTYLEMODE
290
     1
  9
$FINGERPRINTGUID
  2
{5A08F86B-38AC-4A20-8C36-CF6D08073164}
  9
$VERSIONGUID
  2
{FAEB1C32-E019-11D5-929B-00C0DF256EC4}
  9
$EXTNAMES
290
     1
  9
$PSVPSCALE
 40
0.0
  9
$OLESTARTUP
290
     0
  9
$SORTENTS
280
   127
  9
$INDEXCTL
280
     0
  9
$HIDETEXT
280
     1
  9
$XCLIPFRAME
290
     0
  9
$HALOGAP
280
     0
  9
$OBSCOLOR
 70
   257
  9
$OBSLTYPE
280
     0
  9
$INTERSECTIONDISPLAY
280
     0
  9
$INTERSECTIONCOLOR
 70
   257
  9
$DIMASSOC
280
     2
  9
$PROJECTNAME
  1

  0
ENDSEC
  0
SECTION
  2
CLASSES
  0
ENDSEC
  0
SECTION
  2
TABLES
  0
TABLE
  2
VPORT
  5
8
330
0
100
AcDbSymbolTable
 70
     1
  0
VPORT
  5
1E
330
8
100
AcDbSymbolTableRecord
100
AcDbViewportTableRecord
  2
*ACTIVE
 70
     0
 10
0.0
 20
0.0
 11
1.0
 21
1.0
 12
5471.3681
 22
2723.5722
 13
0.0
 23
0.0
 14
0.1
 24
0.1
 15
0.1
 25
0.1
 16
0.0
 26
0.0
 36
1.0
 17
0.0
 27
0.0
 37
0.0
 40
5348.2542
 41
2.3497
 42
50.0
 43
0.0
 44
0.0
 50
0.0
 51
0.0
 71
     0
 72
   100
 73
     1
 74
     1
 75
     0
 76
     0
 77
     0
 78
     0
281
     0
 65
     1
110
0.0
120
0.0
130
0.0
111
1.0
121
0.0
131
0.0
112
0.0
122
1.0
132
0.0
 79
     0
146
0.0
  0
ENDTAB
  0
TABLE
  2
LTYPE
  5
5
330
0
100
AcDbSymbolTable
 70
     1
  0
LTYPE
  5
12
330
5
100
AcDbSymbolTableRecord
100
AcDbLinetypeTableRecord
  2
BYBLOCK
 70
     0
  3

 72
    65
 73
     0
 40
0.0
  0
LTYPE
  5
13
330
5
100
AcDbSymbolTableRecord
100
AcDbLinetypeTableRecord
  2
BYLAYER
 70
     0
  3

 72
    65
 73
     0
 40
0.0
  0
LTYPE
  5
14
330
5
100
AcDbSymbolTableRecord
100
AcDbLinetypeTableRecord
  2
CONTINUOUS
 70
     0
  3
Solid line
 72
    65
 73
     0
 40
0.0
  0
ENDTAB
  0
TABLE
  2
LAYER
  5
2
330
0
100
AcDbSymbolTable
 70
     2
  0
LAYER
  5
E
330
2
100
AcDbSymbolTableRecord
100
AcDbLayerTableRecord
  2
0
 70
     0
 62
     7
  6
CONTINUOUS
370
    -3
390
0
  0
LAYER
  5
20
330
2
100
AcDbSymbolTableRecord
100
AcDbLayerTableRecord
  2
default
 70
     0
 62
     7
  6
CONTINUOUS
370
    -3
390
0
  0
ENDTAB
  0
TABLE
  2
STYLE
  5
3
330
0
100
AcDbSymbolTable
 70
     1
  0
STYLE
  5
F
330
3
100
AcDbSymbolTableRecord
100
AcDbTextStyleTableRecord
  2
STANDARD
 70
     0
 40
0.0
 41
1.0
 50
0.0
 71
     0
 42
0.2
  3
txt
  4

  0
ENDTAB
  0
TABLE
  2
VIEW
  5
6
330
0
100
AcDbSymbolTable
 70
     0
  0
ENDTAB
  0
TABLE
  2
UCS
  5
7
330
0
100
AcDbSymbolTable
 70
     0
  0
ENDTAB
  0
TABLE
  2
APPID
  5
9
330
0
100
AcDbSymbolTable
 70
     1
  0
APPID
  5
10
330
9
100
AcDbSymbolTableRecord
100
AcDbRegAppTableRecord
  2
ACAD
 70
     0
  0
ENDTAB
  0
TABLE
  2
DIMSTYLE
  5
A
330
0
100
AcDbSymbolTable
 70
     1
100
AcDbDimStyleTable
  0
DIMSTYLE
105
1D
330
A
100
AcDbSymbolTableRecord
100
AcDbDimStyleTableRecord
  2
STANDARD
 70
     0
340
F
  0
ENDTAB
  0
TABLE
  2
BLOCK_RECORD
  5
1
330
0
100
AcDbSymbolTable
 70
     0
  0
BLOCK_RECORD
  5
18
330
1
100
AcDbSymbolTableRecord
100
AcDbBlockTableRecord
  2
*MODEL_SPACE
340
1A2
  0
BLOCK_RECORD
  5
15
330
1
100
AcDbSymbolTableRecord
100
AcDbBlockTableRecord
  2
*PAPER_SPACE
340
1A3
  0
ENDTAB
  0
ENDSEC
  0
SECTION
  2
BLOCKS
  0
BLOCK
  5
19
330
18
100
AcDbEntity
  8
0
100
AcDbBlockBegin
  2
*MODEL_SPACE
 70
     0
 71
     0
 10
0.0
 20
0.0
 30
0.0
  3
*MODEL_SPACE
  1
     0
  0
ENDBLK
  5
1A
330
18
100
AcDbEntity
  8
0
100
AcDbBlockEnd
  0
BLOCK
  5
16
330
15
100
AcDbEntity
 67
     1
  8
0
100
AcDbBlockBegin
  2
*PAPER_SPACE
 70
     0
 71
     0
 10
0.0
 20
0.0
 30
0.0
  3
*PAPER_SPACE
  1
     0
  0
ENDBLK
  5
17
330
15
100
AcDbEntity
 67
     1
  8
0
100
AcDbBlockEnd
  0
ENDSEC
  0
SECTION
  2
ENTITIES
  0
POINT
  5
21
330
18
100
AcDbEntity
  8
default
 62
     1
100
AcDbPoint
 10
-26.4319
 20
49.5722
 30
0.0
  0
LINE
  5
22
330
18
100
AcDbEntity
  8
default
100
AcDbLine
 10
-26.4319
 20
49.5722
 30
0.0
 11
-26.4319
 21
5397.5722
 31
0.0
  0
LINE
  5
23
330
18
100
AcDbEntity
  8
default
100
AcDbLine
 10
-419.1319
 20
49.5722
 30
0.0
 11
-26.4319
 21
49.5722
 31
0.0
  0
LINE
  5
24
330
18
100
AcDbEntity
  8
default
100
AcDbLine
 10
-26.4319
 20
631.5722
 30
0.0
 11
-26.4319
 21
5397.5722
 31
0.0
  0
LINE
  5
25
330
18
100
AcDbEntity
  8
default
100
AcDbLine
 10
-521.5319
 20
631.5722
 30
0.0
 11
-26.4319
 21
631.5722
 31
0.0
  0
LINE
  5
26
330
18
100
AcDbEntity
  8
default
100
AcDbLine
 10
-26.4319
 20
1188.5722
 30
0.0
 11
-26.4319
 21
5397.5722
 31
0.0
  0
LINE
  5
27
330
18
100
AcDbEntity
  8
default
100
AcDbLine
 10
-599.6319
 20
1188.5722
 30
0.0
 11
-26.4319
 21
1188.5722
 31
0.0
  0
LINE
  5
28
330
18
100
AcDbEntity
  8
default
100
AcDbLine
 10
-26.4319
 20
1730.5722
 30
0.0
 11
-26.4319
 21
5397.5722
 31
0.0
  0
LINE
  5
29
330
18
100
AcDbEntity
  8
default
100
AcDbLine
 10
-660.1319
 20
1730.5722
 30
0.0
 11
-26.4319
 21
1730.5722
 31
0.0
  0
LINE
  5
2A
330
18
100
AcDbEntity
  8
default
100
AcDbLine
 10
-26.4319
 20
2263.5722
 30
0.0
 11
-26.4319
 21
5397.5722
 31
0.0
  0
LINE
  5
2B
330
18
100
AcDbEntity
  8
default
100
AcDbLine
 10
-706.9319
 20
2263.5722
 30
0.0
 11
-26.4319
 21
2263.5722
 31
0.0
  0
LINE
  5
2C
330
18
100
AcDbEntity
  8
default
100
AcDbLine
 10
-26.4319
 20
2791.5722
 30
0.0
 11
-26.4319
 21
5397.5722
 31
0.0
  0
LINE
  5
2D
330
18
100
AcDbEntity
  8
default
100
AcDbLine
 10
-742.9319
 20
2791.5722
 30
0.0
 11
-26.4319
 21
2791.5722
 31
0.0
  0
LINE
  5
2E
330
18
100
AcDbEntity
  8
default
100
AcDbLine
 10
-26.4319
 20
3315.5722
 30
0.0
 11
-26.4319
 21
5397.5722
 31
0.0
  0
LINE
  5
2F
330
18
100
AcDbEntity
  8
default
100
AcDbLine
 10
-26.4319
 20
3315.5722
 30
0.0
 11
-26.4319
 21
5397.5722
 31
0.0
  0
LINE
  5
30
330
18
100
AcDbEntity
  8
default
100
AcDbLine
 10
-769.9319
 20
3315.5722
 30
0.0
 11
-26.4319
 21
3315.5722
 31
0.0
  0
LINE
  5
31
330
18
100
AcDbEntity
  8
default
100
AcDbLine
 10
-26.4319
 20
3837.5722
 30
0.0
 11
-26.4319
 21
5397.5722
 31
0.0
  0
LINE
  5
32
330
18
100
AcDbEntity
  8
default
100
AcDbLine
 10
-789.3319
 20
3837.5722
 30
0.0
 11
-26.4319
 21
3837.5722
 31
0.0
  0
LINE
  5
33
330
18
100
AcDbEntity
  8
default
100
AcDbLine
 10
-26.4319
 20
4357.5722
 30
0.0
 11
-26.4319
 21
5397.5722
 31
0.0
  0
LINE
  5
34
330
18
100
AcDbEntity
  8
default
100
AcDbLine
 10
-802.2319
 20
4357.5722
 30
0.0
 11
-26.4319
 21
4357.5722
 31
0.0
  0
LINE
  5
35
330
18
100
AcDbEntity
  8
default
100
AcDbLine
 10
-26.4319
 20
4877.8722
 30
0.0
 11
-26.4319
 21
5397.5722
 31
0.0
  0
LINE
  5
36
330
18
100
AcDbEntity
  8
default
100
AcDbLine
 10
-809.5319
 20
4877.8722
 30
0.0
 11
-26.4319
 21
4877.8722
 31
0.0
  0
LINE
  5
37
330
18
100
AcDbEntity
  8
default
100
AcDbLine
 10
-811.8319
 20
5397.5722
 30
0.0
 11
-26.4319
 21
5397.5722
 31
0.0
  0
POINT
  5
38
330
18
100
AcDbEntity
  8
default
 62
     1
100
AcDbPoint
 10
-26.4319
 20
49.5722
 30
0.0
  0
LINE
  5
39
330
18
100
AcDbEntity
  8
default
100
AcDbLine
 10
-26.4319
 20
49.5722
 30
0.0
 11
-26.4319
 21
5397.5722
 31
0.0
  0
LINE
  5
3A
330
18
100
AcDbEntity
  8
default
100
AcDbLine
 10
-26.4319
 20
49.5722
 30
0.0
 11
366.2681
 21
49.5722
 31
0.0
  0
LINE
  5
3B
330
18
100
AcDbEntity
  8
default
100
AcDbLine
 10
-26.4319
 20
631.5722
 30
0.0
 11
-26.4319
 21
5397.5722
 31
0.0
  0
LINE
  5
3C
330
18
100
AcDbEntity
  8
default
100
AcDbLine
 10
-26.4319
 20
631.5722
 30
0.0
 11
468.6681
 21
631.5722
 31
0.0
  0
LINE
  5
3D
330
18
100
AcDbEntity
  8
default
100
AcDbLine
 10
-26.4319
 20
1188.5722
 30
0.0
 11
-26.4319
 21
5397.5722
 31
0.0
  0
LINE
  5
3E
330
18
100
AcDbEntity
  8
default
100
AcDbLine
 10
-26.4319
 20
1188.5722
 30
0.0
 11
546.7681
 21
1188.5722
 31
0.0
  0
LINE
  5
3F
330
18
100
AcDbEntity
  8
default
100
AcDbLine
 10
-26.4319
 20
1730.5722
 30
0.0
 11
-26.4319
 21
5397.5722
 31
0.0
  0
LINE
  5
40
330
18
100
AcDbEntity
  8
default
100
AcDbLine
 10
-26.4319
 20
1730.5722
 30
0.0
 11
607.2681
 21
1730.5722
 31
0.0
  0
LINE
  5
41
330
18
100
AcDbEntity
  8
default
100
AcDbLine
 10
-26.4319
 20
2263.5722
 30
0.0
 11
-26.4319
 21
5397.5722
 31
0.0
  0
LINE
  5
42
330
18
100
AcDbEntity
  8
default
100
AcDbLine
 10
-26.4319
 20
2263.5722
 30
0.0
 11
654.0681
 21
2263.5722
 31
0.0
  0
LINE
  5
43
330
18
100
AcDbEntity
  8
default
100
AcDbLine
 10
-26.4319
 20
2791.5722
 30
0.0
 11
-26.4319
 21
5397.5722
 31
0.0
  0
LINE
  5
44
330
18
100
AcDbEntity
  8
default
100
AcDbLine
 10
-26.4319
 20
2791.5722
 30
0.0
 11
690.0681
 21
2791.5722
 31
0.0
  0
LINE
  5
45
330
18
100
AcDbEntity
  8
default
100
AcDbLine
 10
-26.4319
 20
3315.5722
 30
0.0
 11
-26.4319
 21
5397.5722
 31
0.0
  0
LINE
  5
46
330
18
100
AcDbEntity
  8
default
100
AcDbLine
 10
-26.4319
 20
3315.5722
 30
0.0
 11
-26.4319
 21
5397.5722
 31
0.0
  0
LINE
  5
47
330
18
100
AcDbEntity
  8
default
100
AcDbLine
 10
-26.4319
 20
3315.5722
 30
0.0
 11
717.0681
 21
3315.5722
 31
0.0
  0
LINE
  5
48
330
18
100
AcDbEntity
  8
default
100
AcDbLine
 10
-26.4319
 20
3837.5722
 30
0.0
 11
-26.4319
 21
5397.5722
 31
0.0
  0
LINE
  5
49
330
18
100
AcDbEntity
  8
default
100
AcDbLine
 10
-26.4319
 20
3837.5722
 30
0.0
 11
736.4681000000001
 21
3837.5722
 31
0.0
  0
LINE
  5
4A
330
18
100
AcDbEntity
  8
default
100
AcDbLine
 10
-26.4319
 20
4357.5722
 30
0.0
 11
-26.4319
 21
5397.5722
 31
0.0
  0
LINE
  5
4B
330
18
100
AcDbEntity
  8
default
100
AcDbLine
 10
-26.4319
 20
4357.5722
 30
0.0
 11
749.3681
 21
4357.5722
 31
0.0
  0
LINE
  5
4C
330
18
100
AcDbEntity
  8
default
100
AcDbLine
 10
-26.4319
 20
4877.8722
 30
0.0
 11
-26.4319
 21
5397.5722
 31
0.0
  0
LINE
  5
4D
330
18
100
AcDbEntity
  8
default
100
AcDbLine
 10
-26.4319
 20
4877.8722
 30
0.0
 11
756.6681
 21
4877.8722
 31
0.0
  0
LINE
  5
4E
330
18
100
AcDbEntity
  8
default
100
AcDbLine
 10
-26.4319
 20
5397.5722
 30
0.0
 11
758.9681000000001
 21
5397.5722
 31
0.0
  0
SPLINE
  5
4F
330
18
100
AcDbEntity
  8
default
100
AcDbSpline
210
0.0
220
0.0
230
1.0
 70
     8
 71
     3
 72
    17
 73
    13
 74
    11
 42
0.0000001
 43
0.0000001
 44
0.0000000001
 12
-0.001744000835777721
 22
-0.9999984792293861
 32
0.0
 13
-0.182213981516488
 23
-0.9832589002596972
 33
0.0
 40
0.0
 40
0.0
 40
0.0
 40
0.0
 40
519.7050894497761
 40
1040.056297769695
 40
1560.216282774309
 40
2082.576656462819
 40
2607.2718060497
 40
3136.497655758499
 40
3671.548344945982
 40
4216.914506345825
 40
4779.363268456651
 40
5370.302994655525
 40
5370.302994655525
 40
5370.302994655525
 40
5370.302994655525
 10
758.9681000000001
 20
5397.5722
 30
0.0
 10
758.6659779632139
 20
5224.33743363415
 30
0.0
 10
757.639804448351
 20
4877.649224244044
 30
0.0
 10
750.2586134303173
 20
4357.618631455074
 30
0.0
 10
737.5219738160594
 20
3836.806943744457
 30
0.0
 10
718.277679495529
 20
3314.740905832748
 30
0.0
 10
691.432250146905
 20
2789.978727500404
 30
0.0
 10
655.6033490901421
 20
2261.509757910011
 30
0.0
 10
609.1146739245532
 20
1726.931600330773
 30
0.0
 10
548.3702204818155
 20
1182.651149296058
 30
0.0
 10
471.425616090673
 20
621.5098917928968
 30
0.0
 10
402.1605934489867
 20
243.2544484340239
 30
0.0
 10
366.2681
 20
49.5722
 30
0.0
 11
758.9681000000001
 21
5397.5722
 31
0.0
 11
756.6681
 21
4877.8722
 31
0.0
 11
749.3681
 21
4357.5722
 31
0.0
 11
736.4681000000001
 21
3837.5722
 31
0.0
 11
717.0681
 21
3315.5722
 31
0.0
 11
690.0681
 21
2791.5722
 31
0.0
 11
654.0681
 21
2263.5722
 31
0.0
 11
607.2681
 21
1730.5722
 31
0.0
 11
546.7681
 21
1188.5722
 31
0.0
 11
468.6681
 21
631.5722
 31
0.0
 11
366.2681
 21
49.5722
 31
0.0
  0
SPLINE
  5
50
330
18
100
AcDbEntity
  8
default
100
AcDbSpline
210
0.0
220
0.0
230
1.0
 70
     8
 71
     3
 72
    17
 73
    13
 74
    11
 42
0.0000001
 43
0.0000001
 44
0.0000000001
 12
-0.182213981516488
 22
0.9832589002596972
 32
0.0
 13
-0.001744000835777721
 23
0.9999984792293861
 33
0.0
 40
0.0
 40
0.0
 40
0.0
 40
0.0
 40
590.9397261988738
 40
1153.388488309699
 40
1698.754649709543
 40
2233.805338897025
 40
2763.031188605824
 40
3287.726338192706
 40
3810.086711881216
 40
4330.246696885829
 40
4850.597905205748
 40
5370.302994655524
 40
5370.302994655524
 40
5370.302994655524
 40
5370.302994655524
 10
-419.1319
 20
49.5722
 30
0.0
 10
-455.0243934489866
 20
243.2544484340237
 30
0.0
 10
-524.2894160906731
 20
621.5098917928972
 30
0.0
 10
-601.2340204818154
 20
1182.651149296057
 30
0.0
 10
-661.9784739245533
 20
1726.931600330774
 30
0.0
 10
-708.4671490901421
 20
2261.509757910011
 30
0.0
 10
-744.2960501469052
 20
2789.978727500404
 30
0.0
 10
-771.141479495529
 20
3314.740905832749
 30
0.0
 10
-790.3857738160596
 20
3836.806943744457
 30
0.0
 10
-803.122413430317
 20
4357.618631455073
 30
0.0
 10
-810.5036044483513
 20
4877.649224244044
 30
0.0
 10
-811.5297779632139
 20
5224.33743363415
 30
0.0
 10
-811.8319
 20
5397.5722
 30
0.0
 11
-419.1319
 21
49.5722
 31
0.0
 11
-521.5319
 21
631.5722
 31
0.0
 11
-599.6319
 21
1188.5722
 31
0.0
 11
-660.1319
 21
1730.5722
 31
0.0
 11
-706.9319
 21
2263.5722
 31
0.0
 11
-742.9319
 21
2791.5722
 31
0.0
 11
-769.9319
 21
3315.5722
 31
0.0
 11
-789.3319
 21
3837.5722
 31
0.0
 11
-802.2319
 21
4357.5722
 31
0.0
 11
-809.5319
 21
4877.8722
 31
0.0
 11
-811.8319
 21
5397.5722
 31
0.0
  0
POINT
  5
51
330
18
100
AcDbEntity
  8
default
 62
     1
100
AcDbPoint
 10
1544.3681
 20
49.5722
 30
0.0
  0
LINE
  5
52
330
18
100
AcDbEntity
  8
default
100
AcDbLine
 10
1544.3681
 20
49.5722
 30
0.0
 11
1544.3681
 21
5397.5722
 31
0.0
  0
LINE
  5
53
330
18
100
AcDbEntity
  8
default
100
AcDbLine
 10
1151.6681
 20
49.5722
 30
0.0
 11
1544.3681
 21
49.5722
 31
0.0
  0
LINE
  5
54
330
18
100
AcDbEntity
  8
default
100
AcDbLine
 10
1544.3681
 20
631.5722
 30
0.0
 11
1544.3681
 21
5397.5722
 31
0.0
  0
LINE
  5
55
330
18
100
AcDbEntity
  8
default
100
AcDbLine
 10
1049.2681
 20
631.5722
 30
0.0
 11
1544.3681
 21
631.5722
 31
0.0
  0
LINE
  5
56
330
18
100
AcDbEntity
  8
default
100
AcDbLine
 10
1544.3681
 20
1188.5722
 30
0.0
 11
1544.3681
 21
5397.5722
 31
0.0
  0
LINE
  5
57
330
18
100
AcDbEntity
  8
default
100
AcDbLine
 10
971.1681
 20
1188.5722
 30
0.0
 11
1544.3681
 21
1188.5722
 31
0.0
  0
LINE
  5
58
330
18
100
AcDbEntity
  8
default
100
AcDbLine
 10
1544.3681
 20
1730.5722
 30
0.0
 11
1544.3681
 21
5397.5722
 31
0.0
  0
LINE
  5
59
330
18
100
AcDbEntity
  8
default
100
AcDbLine
 10
910.6681
 20
1730.5722
 30
0.0
 11
1544.3681
 21
1730.5722
 31
0.0
  0
LINE
  5
5A
330
18
100
AcDbEntity
  8
default
100
AcDbLine
 10
1544.3681
 20
2263.5722
 30
0.0
 11
1544.3681
 21
5397.5722
 31
0.0
  0
LINE
  5
5B
330
18
100
AcDbEntity
  8
default
100
AcDbLine
 10
863.8681
 20
2263.5722
 30
0.0
 11
1544.3681
 21
2263.5722
 31
0.0
  0
LINE
  5
5C
330
18
100
AcDbEntity
  8
default
100
AcDbLine
 10
1544.3681
 20
2791.5722
 30
0.0
 11
1544.3681
 21
5397.5722
 31
0.0
  0
LINE
  5
5D
330
18
100
AcDbEntity
  8
default
100
AcDbLine
 10
827.8681
 20
2791.5722
 30
0.0
 11
1544.3681
 21
2791.5722
 31
0.0
  0
LINE
  5
5E
330
18
100
AcDbEntity
  8
default
100
AcDbLine
 10
1544.3681
 20
3315.5722
 30
0.0
 11
1544.3681
 21
5397.5722
 31
0.0
  0
LINE
  5
5F
330
18
100
AcDbEntity
  8
default
100
AcDbLine
 10
1544.3681
 20
3315.5722
 30
0.0
 11
1544.3681
 21
5397.5722
 31
0.0
  0
LINE
  5
60
330
18
100
AcDbEntity
  8
default
100
AcDbLine
 10
800.8681
 20
3315.5722
 30
0.0
 11
1544.3681
 21
3315.5722
 31
0.0
  0
LINE
  5
61
330
18
100
AcDbEntity
  8
default
100
AcDbLine
 10
1544.3681
 20
3837.5722
 30
0.0
 11
1544.3681
 21
5397.5722
 31
0.0
  0
LINE
  5
62
330
18
100
AcDbEntity
  8
default
100
AcDbLine
 10
781.4681000000001
 20
3837.5722
 30
0.0
 11
1544.3681
 21
3837.5722
 31
0.0
  0
LINE
  5
63
330
18
100
AcDbEntity
  8
default
100
AcDbLine
 10
1544.3681
 20
4357.5722
 30
0.0
 11
1544.3681
 21
5397.5722
 31
0.0
  0
LINE
  5
64
330
18
100
AcDbEntity
  8
default
100
AcDbLine
 10
768.5681
 20
4357.5722
 30
0.0
 11
1544.3681
 21
4357.5722
 31
0.0
  0
LINE
  5
65
330
18
100
AcDbEntity
  8
default
100
AcDbLine
 10
1544.3681
 20
4877.8722
 30
0.0
 11
1544.3681
 21
5397.5722
 31
0.0
  0
LINE
  5
66
330
18
100
AcDbEntity
  8
default
100
AcDbLine
 10
761.2681
 20
4877.8722
 30
0.0
 11
1544.3681
 21
4877.8722
 31
0.0
  0
LINE
  5
67
330
18
100
AcDbEntity
  8
default
100
AcDbLine
 10
758.9681000000001
 20
5397.5722
 30
0.0
 11
1544.3681
 21
5397.5722
 31
0.0
  0
POINT
  5
68
330
18
100
AcDbEntity
  8
default
 62
     1
100
AcDbPoint
 10
1544.3681
 20
49.5722
 30
0.0
  0
LINE
  5
69
330
18
100
AcDbEntity
  8
default
100
AcDbLine
 10
1544.3681
 20
49.5722
 30
0.0
 11
1544.3681
 21
5397.5722
 31
0.0
  0
LINE
  5
6A
330
18
100
AcDbEntity
  8
default
100
AcDbLine
 10
1544.3681
 20
49.5722
 30
0.0
 11
1937.0681
 21
49.5722
 31
0.0
  0
LINE
  5
6B
330
18
100
AcDbEntity
  8
default
100
AcDbLine
 10
1544.3681
 20
631.5722
 30
0.0
 11
1544.3681
 21
5397.5722
 31
0.0
  0
LINE
  5
6C
330
18
100
AcDbEntity
  8
default
100
AcDbLine
 10
1544.3681
 20
631.5722
 30
0.0
 11
2039.4681
 21
631.5722
 31
0.0
  0
LINE
  5
6D
330
18
100
AcDbEntity
  8
default
100
AcDbLine
 10
1544.3681
 20
1188.5722
 30
0.0
 11
1544.3681
 21
5397.5722
 31
0.0
  0
LINE
  5
6E
330
18
100
AcDbEntity
  8
default
100
AcDbLine
 10
1544.3681
 20
1188.5722
 30
0.0
 11
2117.5681
 21
1188.5722
 31
0.0
  0
LINE
  5
6F
330
18
100
AcDbEntity
  8
default
100
AcDbLine
 10
1544.3681
 20
1730.5722
 30
0.0
 11
1544.3681
 21
5397.5722
 31
0.0
  0
LINE
  5
70
330
18
100
AcDbEntity
  8
default
100
AcDbLine
 10
1544.3681
 20
1730.5722
 30
0.0
 11
2178.0681
 21
1730.5722
 31
0.0
  0
LINE
  5
71
330
18
100
AcDbEntity
  8
default
100
AcDbLine
 10
1544.3681
 20
2263.5722
 30
0.0
 11
1544.3681
 21
5397.5722
 31
0.0
  0
LINE
  5
72
330
18
100
AcDbEntity
  8
default
100
AcDbLine
 10
1544.3681
 20
2263.5722
 30
0.0
 11
2224.8681
 21
2263.5722
 31
0.0
  0
LINE
  5
73
330
18
100
AcDbEntity
  8
default
100
AcDbLine
 10
1544.3681
 20
2791.5722
 30
0.0
 11
1544.3681
 21
5397.5722
 31
0.0
  0
LINE
  5
74
330
18
100
AcDbEntity
  8
default
100
AcDbLine
 10
1544.3681
 20
2791.5722
 30
0.0
 11
2260.8681
 21
2791.5722
 31
0.0
  0
LINE
  5
75
330
18
100
AcDbEntity
  8
default
100
AcDbLine
 10
1544.3681
 20
3315.5722
 30
0.0
 11
1544.3681
 21
5397.5722
 31
0.0
  0
LINE
  5
76
330
18
100
AcDbEntity
  8
default
100
AcDbLine
 10
1544.3681
 20
3315.5722
 30
0.0
 11
1544.3681
 21
5397.5722
 31
0.0
  0
LINE
  5
77
330
18
100
AcDbEntity
  8
default
100
AcDbLine
 10
1544.3681
 20
3315.5722
 30
0.0
 11
2287.8681
 21
3315.5722
 31
0.0
  0
LINE
  5
78
330
18
100
AcDbEntity
  8
default
100
AcDbLine
 10
1544.3681
 20
3837.5722
 30
0.0
 11
1544.3681
 21
5397.5722
 31
0.0
  0
LINE
  5
79
330
18
100
AcDbEntity
  8
default
100
AcDbLine
 10
1544.3681
 20
3837.5722
 30
0.0
 11
2307.2681
 21
3837.5722
 31
0.0
  0
LINE
  5
7A
330
18
100
AcDbEntity
  8
default
100
AcDbLine
 10
1544.3681
 20
4357.5722
 30
0.0
 11
1544.3681
 21
5397.5722
 31
0.0
  0
LINE
  5
7B
330
18
100
AcDbEntity
  8
default
100
AcDbLine
 10
1544.3681
 20
4357.5722
 30
0.0
 11
2320.1681
 21
4357.5722
 31
0.0
  0
LINE
  5
7C
330
18
100
AcDbEntity
  8
default
100
AcDbLine
 10
1544.3681
 20
4877.8722
 30
0.0
 11
1544.3681
 21
5397.5722
 31
0.0
  0
LINE
  5
7D
330
18
100
AcDbEntity
  8
default
100
AcDbLine
 10
1544.3681
 20
4877.8722
 30
0.0
 11
2327.4681
 21
4877.8722
 31
0.0
  0
LINE
  5
7E
330
18
100
AcDbEntity
  8
default
100
AcDbLine
 10
1544.3681
 20
5397.5722
 30
0.0
 11
2329.7681
 21
5397.5722
 31
0.0
  0
SPLINE
  5
7F
330
18
100
AcDbEntity
  8
default
100
AcDbSpline
210
0.0
220
0.0
230
1.0
 70
     8
 71
     3
 72
    17
 73
    13
 74
    11
 42
0.0000001
 43
0.0000001
 44
0.0000000001
 12
-0.001744000835777721
 22
-0.9999984792293861
 32
0.0
 13
-0.182213981516488
 23
-0.9832589002596972
 33
0.0
 40
0.0
 40
0.0
 40
0.0
 40
0.0
 40
519.7050894497761
 40
1040.056297769695
 40
1560.216282774309
 40
2082.576656462819
 40
2607.2718060497
 40
3136.497655758499
 40
3671.548344945982
 40
4216.914506345825
 40
4779.363268456651
 40
5370.302994655525
 40
5370.302994655525
 40
5370.302994655525
 40
5370.302994655525
 10
2329.7681
 20
5397.5722
 30
0.0
 10
2329.465977963214
 20
5224.33743363415
 30
0.0
 10
2328.439804448351
 20
4877.649224244044
 30
0.0
 10
2321.058613430317
 20
4357.618631455074
 30
0.0
 10
2308.321973816059
 20
3836.806943744457
 30
0.0
 10
2289.077679495529
 20
3314.740905832748
 30
0.0
 10
2262.232250146905
 20
2789.978727500404
 30
0.0
 10
2226.403349090142
 20
2261.509757910011
 30
0.0
 10
2179.914673924553
 20
1726.931600330773
 30
0.0
 10
2119.170220481815
 20
1182.651149296058
 30
0.0
 10
2042.225616090673
 20
621.5098917928968
 30
0.0
 10
1972.960593448987
 20
243.2544484340239
 30
0.0
 10
1937.0681
 20
49.5722
 30
0.0
 11
2329.7681
 21
5397.5722
 31
0.0
 11
2327.4681
 21
4877.8722
 31
0.0
 11
2320.1681
 21
4357.5722
 31
0.0
 11
2307.2681
 21
3837.5722
 31
0.0
 11
2287.8681
 21
3315.5722
 31
0.0
 11
2260.8681
 21
2791.5722
 31
0.0
 11
2224.8681
 21
2263.5722
 31
0.0
 11
2178.0681
 21
1730.5722
 31
0.0
 11
2117.5681
 21
1188.5722
 31
0.0
 11
2039.4681
 21
631.5722
 31
0.0
 11
1937.0681
 21
49.5722
 31
0.0
  0
SPLINE
  5
80
330
18
100
AcDbEntity
  8
default
100
AcDbSpline
210
0.0
220
0.0
230
1.0
 70
     8
 71
     3
 72
    17
 73
    13
 74
    11
 42
0.0000001
 43
0.0000001
 44
0.0000000001
 12
-0.182213981516488
 22
0.9832589002596972
 32
0.0
 13
-0.001744000835777721
 23
0.9999984792293861
 33
0.0
 40
0.0
 40
0.0
 40
0.0
 40
0.0
 40
590.9397261988738
 40
1153.388488309699
 40
1698.754649709543
 40
2233.805338897025
 40
2763.031188605824
 40
3287.726338192706
 40
3810.086711881216
 40
4330.246696885829
 40
4850.597905205748
 40
5370.302994655524
 40
5370.302994655524
 40
5370.302994655524
 40
5370.302994655524
 10
1151.6681
 20
49.5722
 30
0.0
 10
1115.775606551013
 20
243.2544484340237
 30
0.0
 10
1046.510583909327
 20
621.5098917928972
 30
0.0
 10
969.5659795181844
 20
1182.651149296057
 30
0.0
 10
908.8215260754466
 20
1726.931600330774
 30
0.0
 10
862.3328509098581
 20
2261.509757910011
 30
0.0
 10
826.503949853095
 20
2789.978727500404
 30
0.0
 10
799.658520504471
 20
3314.740905832749
 30
0.0
 10
780.4142261839405
 20
3836.806943744457
 30
0.0
 10
767.6775865696827
 20
4357.618631455073
 30
0.0
 10
760.2963955516486
 20
4877.649224244044
 30
0.0
 10
759.2702220367862
 20
5224.33743363415
 30
0.0
 10
758.9681000000001
 20
5397.5722
 30
0.0
 11
1151.6681
 21
49.5722
 31
0.0
 11
1049.2681
 21
631.5722
 31
0.0
 11
971.1681
 21
1188.5722
 31
0.0
 11
910.6681
 21
1730.5722
 31
0.0
 11
863.8681
 21
2263.5722
 31
0.0
 11
827.8681
 21
2791.5722
 31
0.0
 11
800.8681
 21
3315.5722
 31
0.0
 11
781.4681000000001
 21
3837.5722
 31
0.0
 11
768.5681
 21
4357.5722
 31
0.0
 11
761.2681
 21
4877.8722
 31
0.0
 11
758.9681000000001
 21
5397.5722
 31
0.0
  0
POINT
  5
81
330
18
100
AcDbEntity
  8
default
 62
     1
100
AcDbPoint
 10
3115.1681
 20
49.5722
 30
0.0
  0
LINE
  5
82
330
18
100
AcDbEntity
  8
default
100
AcDbLine
 10
3115.1681
 20
49.5722
 30
0.0
 11
3115.1681
 21
5397.5722
 31
0.0
  0
LINE
  5
83
330
18
100
AcDbEntity
  8
default
100
AcDbLine
 10
2722.4681
 20
49.5722
 30
0.0
 11
3115.1681
 21
49.5722
 31
0.0
  0
LINE
  5
84
330
18
100
AcDbEntity
  8
default
100
AcDbLine
 10
3115.1681
 20
631.5722
 30
0.0
 11
3115.1681
 21
5397.5722
 31
0.0
  0
LINE
  5
85
330
18
100
AcDbEntity
  8
default
100
AcDbLine
 10
2620.0681
 20
631.5722
 30
0.0
 11
3115.1681
 21
631.5722
 31
0.0
  0
LINE
  5
86
330
18
100
AcDbEntity
  8
default
100
AcDbLine
 10
3115.1681
 20
1188.5722
 30
0.0
 11
3115.1681
 21
5397.5722
 31
0.0
  0
LINE
  5
87
330
18
100
AcDbEntity
  8
default
100
AcDbLine
 10
2541.9681
 20
1188.5722
 30
0.0
 11
3115.1681
 21
1188.5722
 31
0.0
  0
LINE
  5
88
330
18
100
AcDbEntity
  8
default
100
AcDbLine
 10
3115.1681
 20
1730.5722
 30
0.0
 11
3115.1681
 21
5397.5722
 31
0.0
  0
LINE
  5
89
330
18
100
AcDbEntity
  8
default
100
AcDbLine
 10
2481.4681
 20
1730.5722
 30
0.0
 11
3115.1681
 21
1730.5722
 31
0.0
  0
LINE
  5
8A
330
18
100
AcDbEntity
  8
default
100
AcDbLine
 10
3115.1681
 20
2263.5722
 30
0.0
 11
3115.1681
 21
5397.5722
 31
0.0
  0
LINE
  5
8B
330
18
100
AcDbEntity
  8
default
100
AcDbLine
 10
2434.6681
 20
2263.5722
 30
0.0
 11
3115.1681
 21
2263.5722
 31
0.0
  0
LINE
  5
8C
330
18
100
AcDbEntity
  8
default
100
AcDbLine
 10
3115.1681
 20
2791.5722
 30
0.0
 11
3115.1681
 21
5397.5722
 31
0.0
  0
LINE
  5
8D
330
18
100
AcDbEntity
  8
default
100
AcDbLine
 10
2398.6681
 20
2791.5722
 30
0.0
 11
3115.1681
 21
2791.5722
 31
0.0
  0
LINE
  5
8E
330
18
100
AcDbEntity
  8
default
100
AcDbLine
 10
3115.1681
 20
3315.5722
 30
0.0
 11
3115.1681
 21
5397.5722
 31
0.0
  0
LINE
  5
8F
330
18
100
AcDbEntity
  8
default
100
AcDbLine
 10
3115.1681
 20
3315.5722
 30
0.0
 11
3115.1681
 21
5397.5722
 31
0.0
  0
LINE
  5
90
330
18
100
AcDbEntity
  8
default
100
AcDbLine
 10
2371.6681
 20
3315.5722
 30
0.0
 11
3115.1681
 21
3315.5722
 31
0.0
  0
LINE
  5
91
330
18
100
AcDbEntity
  8
default
100
AcDbLine
 10
3115.1681
 20
3837.5722
 30
0.0
 11
3115.1681
 21
5397.5722
 31
0.0
  0
LINE
  5
92
330
18
100
AcDbEntity
  8
default
100
AcDbLine
 10
2352.2681
 20
3837.5722
 30
0.0
 11
3115.1681
 21
3837.5722
 31
0.0
  0
LINE
  5
93
330
18
100
AcDbEntity
  8
default
100
AcDbLine
 10
3115.1681
 20
4357.5722
 30
0.0
 11
3115.1681
 21
5397.5722
 31
0.0
  0
LINE
  5
94
330
18
100
AcDbEntity
  8
default
100
AcDbLine
 10
2339.3681
 20
4357.5722
 30
0.0
 11
3115.1681
 21
4357.5722
 31
0.0
  0
LINE
  5
95
330
18
100
AcDbEntity
  8
default
100
AcDbLine
 10
3115.1681
 20
4877.8722
 30
0.0
 11
3115.1681
 21
5397.5722
 31
0.0
  0
LINE
  5
96
330
18
100
AcDbEntity
  8
default
100
AcDbLine
 10
2332.0681
 20
4877.8722
 30
0.0
 11
3115.1681
 21
4877.8722
 31
0.0
  0
LINE
  5
97
330
18
100
AcDbEntity
  8
default
100
AcDbLine
 10
2329.7681
 20
5397.5722
 30
0.0
 11
3115.1681
 21
5397.5722
 31
0.0
  0
POINT
  5
98
330
18
100
AcDbEntity
  8
default
 62
     1
100
AcDbPoint
 10
3115.1681
 20
49.5722
 30
0.0
  0
LINE
  5
99
330
18
100
AcDbEntity
  8
default
100
AcDbLine
 10
3115.1681
 20
49.5722
 30
0.0
 11
3115.1681
 21
5397.5722
 31
0.0
  0
LINE
  5
9A
330
18
100
AcDbEntity
  8
default
100
AcDbLine
 10
3115.1681
 20
49.5722
 30
0.0
 11
3507.8681
 21
49.5722
 31
0.0
  0
LINE
  5
9B
330
18
100
AcDbEntity
  8
default
100
AcDbLine
 10
3115.1681
 20
631.5722
 30
0.0
 11
3115.1681
 21
5397.5722
 31
0.0
  0
LINE
  5
9C
330
18
100
AcDbEntity
  8
default
100
AcDbLine
 10
3115.1681
 20
631.5722
 30
0.0
 11
3610.2681
 21
631.5722
 31
0.0
  0
LINE
  5
9D
330
18
100
AcDbEntity
  8
default
100
AcDbLine
 10
3115.1681
 20
1188.5722
 30
0.0
 11
3115.1681
 21
5397.5722
 31
0.0
  0
LINE
  5
9E
330
18
100
AcDbEntity
  8
default
100
AcDbLine
 10
3115.1681
 20
1188.5722
 30
0.0
 11
3688.3681
 21
1188.5722
 31
0.0
  0
LINE
  5
9F
330
18
100
AcDbEntity
  8
default
100
AcDbLine
 10
3115.1681
 20
1730.5722
 30
0.0
 11
3115.1681
 21
5397.5722
 31
0.0
  0
LINE
  5
A0
330
18
100
AcDbEntity
  8
default
100
AcDbLine
 10
3115.1681
 20
1730.5722
 30
0.0
 11
3748.8681
 21
1730.5722
 31
0.0
  0
LINE
  5
A1
330
18
100
AcDbEntity
  8
default
100
AcDbLine
 10
3115.1681
 20
2263.5722
 30
0.0
 11
3115.1681
 21
5397.5722
 31
0.0
  0
LINE
  5
A2
330
18
100
AcDbEntity
  8
default
100
AcDbLine
 10
3115.1681
 20
2263.5722
 30
0.0
 11
3795.6681
 21
2263.5722
 31
0.0
  0
LINE
  5
A3
330
18
100
AcDbEntity
  8
default
100
AcDbLine
 10
3115.1681
 20
2791.5722
 30
0.0
 11
3115.1681
 21
5397.5722
 31
0.0
  0
LINE
  5
A4
330
18
100
AcDbEntity
  8
default
100
AcDbLine
 10
3115.1681
 20
2791.5722
 30
0.0
 11
3831.6681
 21
2791.5722
 31
0.0
  0
LINE
  5
A5
330
18
100
AcDbEntity
  8
default
100
AcDbLine
 10
3115.1681
 20
3315.5722
 30
0.0
 11
3115.1681
 21
5397.5722
 31
0.0
  0
LINE
  5
A6
330
18
100
AcDbEntity
  8
default
100
AcDbLine
 10
3115.1681
 20
3315.5722
 30
0.0
 11
3115.1681
 21
5397.5722
 31
0.0
  0
LINE
  5
A7
330
18
100
AcDbEntity
  8
default
100
AcDbLine
 10
3115.1681
 20
3315.5722
 30
0.0
 11
3858.6681
 21
3315.5722
 31
0.0
  0
LINE
  5
A8
330
18
100
AcDbEntity
  8
default
100
AcDbLine
 10
3115.1681
 20
3837.5722
 30
0.0
 11
3115.1681
 21
5397.5722
 31
0.0
  0
LINE
  5
A9
330
18
100
AcDbEntity
  8
default
100
AcDbLine
 10
3115.1681
 20
3837.5722
 30
0.0
 11
3878.0681
 21
3837.5722
 31
0.0
  0
LINE
  5
AA
330
18
100
AcDbEntity
  8
default
100
AcDbLine
 10
3115.1681
 20
4357.5722
 30
0.0
 11
3115.1681
 21
5397.5722
 31
0.0
  0
LINE
  5
AB
330
18
100
AcDbEntity
  8
default
100
AcDbLine
 10
3115.1681
 20
4357.5722
 30
0.0
 11
3890.9681
 21
4357.5722
 31
0.0
  0
LINE
  5
AC
330
18
100
AcDbEntity
  8
default
100
AcDbLine
 10
3115.1681
 20
4877.8722
 30
0.0
 11
3115.1681
 21
5397.5722
 31
0.0
  0
LINE
  5
AD
330
18
100
AcDbEntity
  8
default
100
AcDbLine
 10
3115.1681
 20
4877.8722
 30
0.0
 11
3898.2681
 21
4877.8722
 31
0.0
  0
LINE
  5
AE
330
18
100
AcDbEntity
  8
default
100
AcDbLine
 10
3115.1681
 20
5397.5722
 30
0.0
 11
3900.5681
 21
5397.5722
 31
0.0
  0
SPLINE
  5
AF
330
18
100
AcDbEntity
  8
default
100
AcDbSpline
210
0.0
220
0.0
230
1.0
 70
     8
 71
     3
 72
    17
 73
    13
 74
    11
 42
0.0000001
 43
0.0000001
 44
0.0000000001
 12
-0.001744000835777721
 22
-0.9999984792293861
 32
0.0
 13
-0.182213981516488
 23
-0.9832589002596972
 33
0.0
 40
0.0
 40
0.0
 40
0.0
 40
0.0
 40
519.7050894497761
 40
1040.056297769695
 40
1560.216282774309
 40
2082.576656462819
 40
2607.2718060497
 40
3136.497655758499
 40
3671.548344945982
 40
4216.914506345825
 40
4779.363268456651
 40
5370.302994655525
 40
5370.302994655525
 40
5370.302994655525
 40
5370.302994655525
 10
3900.5681
 20
5397.5722
 30
0.0
 10
3900.265977963214
 20
5224.33743363415
 30
0.0
 10
3899.239804448351
 20
4877.649224244044
 30
0.0
 10
3891.858613430317
 20
4357.618631455074
 30
0.0
 10
3879.121973816059
 20
3836.806943744457
 30
0.0
 10
3859.877679495528
 20
3314.740905832748
 30
0.0
 10
3833.032250146906
 20
2789.978727500404
 30
0.0
 10
3797.203349090141
 20
2261.509757910011
 30
0.0
 10
3750.714673924554
 20
1726.931600330773
 30
0.0
 10
3689.970220481816
 20
1182.651149296058
 30
0.0
 10
3613.025616090672
 20
621.5098917928968
 30
0.0
 10
3543.760593448987
 20
243.2544484340239
 30
0.0
 10
3507.8681
 20
49.5722
 30
0.0
 11
3900.5681
 21
5397.5722
 31
0.0
 11
3898.2681
 21
4877.8722
 31
0.0
 11
3890.9681
 21
4357.5722
 31
0.0
 11
3878.0681
 21
3837.5722
 31
0.0
 11
3858.6681
 21
3315.5722
 31
0.0
 11
3831.6681
 21
2791.5722
 31
0.0
 11
3795.6681
 21
2263.5722
 31
0.0
 11
3748.8681
 21
1730.5722
 31
0.0
 11
3688.3681
 21
1188.5722
 31
0.0
 11
3610.2681
 21
631.5722
 31
0.0
 11
3507.8681
 21
49.5722
 31
0.0
  0
SPLINE
  5
B0
330
18
100
AcDbEntity
  8
default
100
AcDbSpline
210
0.0
220
0.0
230
1.0
 70
     8
 71
     3
 72
    17
 73
    13
 74
    11
 42
0.0000001
 43
0.0000001
 44
0.0000000001
 12
-0.182213981516488
 22
0.9832589002596972
 32
0.0
 13
-0.001744000835777721
 23
0.9999984792293861
 33
0.0
 40
0.0
 40
0.0
 40
0.0
 40
0.0
 40
590.9397261988738
 40
1153.388488309699
 40
1698.754649709543
 40
2233.805338897025
 40
2763.031188605824
 40
3287.726338192706
 40
3810.086711881216
 40
4330.246696885829
 40
4850.597905205748
 40
5370.302994655524
 40
5370.302994655524
 40
5370.302994655524
 40
5370.302994655524
 10
2722.4681
 20
49.5722
 30
0.0
 10
2686.575606551013
 20
243.2544484340237
 30
0.0
 10
2617.310583909326
 20
621.5098917928972
 30
0.0
 10
2540.365979518185
 20
1182.651149296057
 30
0.0
 10
2479.621526075447
 20
1726.931600330774
 30
0.0
 10
2433.132850909858
 20
2261.509757910011
 30
0.0
 10
2397.303949853095
 20
2789.978727500404
 30
0.0
 10
2370.458520504471
 20
3314.740905832749
 30
0.0
 10
2351.21422618394
 20
3836.806943744457
 30
0.0
 10
2338.477586569683
 20
4357.618631455073
 30
0.0
 10
2331.096395551648
 20
4877.649224244044
 30
0.0
 10
2330.070222036786
 20
5224.33743363415
 30
0.0
 10
2329.7681
 20
5397.5722
 30
0.0
 11
2722.4681
 21
49.5722
 31
0.0
 11
2620.0681
 21
631.5722
 31
0.0
 11
2541.9681
 21
1188.5722
 31
0.0
 11
2481.4681
 21
1730.5722
 31
0.0
 11
2434.6681
 21
2263.5722
 31
0.0
 11
2398.6681
 21
2791.5722
 31
0.0
 11
2371.6681
 21
3315.5722
 31
0.0
 11
2352.2681
 21
3837.5722
 31
0.0
 11
2339.3681
 21
4357.5722
 31
0.0
 11
2332.0681
 21
4877.8722
 31
0.0
 11
2329.7681
 21
5397.5722
 31
0.0
  0
POINT
  5
B1
330
18
100
AcDbEntity
  8
default
 62
     1
100
AcDbPoint
 10
4685.9681
 20
49.5722
 30
0.0
  0
LINE
  5
B2
330
18
100
AcDbEntity
  8
default
100
AcDbLine
 10
4685.9681
 20
49.5722
 30
0.0
 11
4685.9681
 21
5397.5722
 31
0.0
  0
LINE
  5
B3
330
18
100
AcDbEntity
  8
default
100
AcDbLine
 10
4293.2681
 20
49.5722
 30
0.0
 11
4685.9681
 21
49.5722
 31
0.0
  0
LINE
  5
B4
330
18
100
AcDbEntity
  8
default
100
AcDbLine
 10
4685.9681
 20
631.5722
 30
0.0
 11
4685.9681
 21
5397.5722
 31
0.0
  0
LINE
  5
B5
330
18
100
AcDbEntity
  8
default
100
AcDbLine
 10
4190.8681
 20
631.5722
 30
0.0
 11
4685.9681
 21
631.5722
 31
0.0
  0
LINE
  5
B6
330
18
100
AcDbEntity
  8
default
100
AcDbLine
 10
4685.9681
 20
1188.5722
 30
0.0
 11
4685.9681
 21
5397.5722
 31
0.0
  0
LINE
  5
B7
330
18
100
AcDbEntity
  8
default
100
AcDbLine
 10
4112.7681
 20
1188.5722
 30
0.0
 11
4685.9681
 21
1188.5722
 31
0.0
  0
LINE
  5
B8
330
18
100
AcDbEntity
  8
default
100
AcDbLine
 10
4685.9681
 20
1730.5722
 30
0.0
 11
4685.9681
 21
5397.5722
 31
0.0
  0
LINE
  5
B9
330
18
100
AcDbEntity
  8
default
100
AcDbLine
 10
4052.2681
 20
1730.5722
 30
0.0
 11
4685.9681
 21
1730.5722
 31
0.0
  0
LINE
  5
BA
330
18
100
AcDbEntity
  8
default
100
AcDbLine
 10
4685.9681
 20
2263.5722
 30
0.0
 11
4685.9681
 21
5397.5722
 31
0.0
  0
LINE
  5
BB
330
18
100
AcDbEntity
  8
default
100
AcDbLine
 10
4005.4681
 20
2263.5722
 30
0.0
 11
4685.9681
 21
2263.5722
 31
0.0
  0
LINE
  5
BC
330
18
100
AcDbEntity
  8
default
100
AcDbLine
 10
4685.9681
 20
2791.5722
 30
0.0
 11
4685.9681
 21
5397.5722
 31
0.0
  0
LINE
  5
BD
330
18
100
AcDbEntity
  8
default
100
AcDbLine
 10
3969.4681
 20
2791.5722
 30
0.0
 11
4685.9681
 21
2791.5722
 31
0.0
  0
LINE
  5
BE
330
18
100
AcDbEntity
  8
default
100
AcDbLine
 10
4685.9681
 20
3315.5722
 30
0.0
 11
4685.9681
 21
5397.5722
 31
0.0
  0
LINE
  5
BF
330
18
100
AcDbEntity
  8
default
100
AcDbLine
 10
4685.9681
 20
3315.5722
 30
0.0
 11
4685.9681
 21
5397.5722
 31
0.0
  0
LINE
  5
C0
330
18
100
AcDbEntity
  8
default
100
AcDbLine
 10
3942.4681
 20
3315.5722
 30
0.0
 11
4685.9681
 21
3315.5722
 31
0.0
  0
LINE
  5
C1
330
18
100
AcDbEntity
  8
default
100
AcDbLine
 10
4685.9681
 20
3837.5722
 30
0.0
 11
4685.9681
 21
5397.5722
 31
0.0
  0
LINE
  5
C2
330
18
100
AcDbEntity
  8
default
100
AcDbLine
 10
3923.0681
 20
3837.5722
 30
0.0
 11
4685.9681
 21
3837.5722
 31
0.0
  0
LINE
  5
C3
330
18
100
AcDbEntity
  8
default
100
AcDbLine
 10
4685.9681
 20
4357.5722
 30
0.0
 11
4685.9681
 21
5397.5722
 31
0.0
  0
LINE
  5
C4
330
18
100
AcDbEntity
  8
default
100
AcDbLine
 10
3910.1681
 20
4357.5722
 30
0.0
 11
4685.9681
 21
4357.5722
 31
0.0
  0
LINE
  5
C5
330
18
100
AcDbEntity
  8
default
100
AcDbLine
 10
4685.9681
 20
4877.8722
 30
0.0
 11
4685.9681
 21
5397.5722
 31
0.0
  0
LINE
  5
C6
330
18
100
AcDbEntity
  8
default
100
AcDbLine
 10
3902.8681
 20
4877.8722
 30
0.0
 11
4685.9681
 21
4877.8722
 31
0.0
  0
LINE
  5
C7
330
18
100
AcDbEntity
  8
default
100
AcDbLine
 10
3900.5681
 20
5397.5722
 30
0.0
 11
4685.9681
 21
5397.5722
 31
0.0
  0
POINT
  5
C8
330
18
100
AcDbEntity
  8
default
 62
     1
100
AcDbPoint
 10
4685.9681
 20
49.5722
 30
0.0
  0
LINE
  5
C9
330
18
100
AcDbEntity
  8
default
100
AcDbLine
 10
4685.9681
 20
49.5722
 30
0.0
 11
4685.9681
 21
5397.5722
 31
0.0
  0
LINE
  5
CA
330
18
100
AcDbEntity
  8
default
100
AcDbLine
 10
4685.9681
 20
49.5722
 30
0.0
 11
5078.6681
 21
49.5722
 31
0.0
  0
LINE
  5
CB
330
18
100
AcDbEntity
  8
default
100
AcDbLine
 10
4685.9681
 20
631.5722
 30
0.0
 11
4685.9681
 21
5397.5722
 31
0.0
  0
LINE
  5
CC
330
18
100
AcDbEntity
  8
default
100
AcDbLine
 10
4685.9681
 20
631.5722
 30
0.0
 11
5181.0681
 21
631.5722
 31
0.0
  0
LINE
  5
CD
330
18
100
AcDbEntity
  8
default
100
AcDbLine
 10
4685.9681
 20
1188.5722
 30
0.0
 11
4685.9681
 21
5397.5722
 31
0.0
  0
LINE
  5
CE
330
18
100
AcDbEntity
  8
default
100
AcDbLine
 10
4685.9681
 20
1188.5722
 30
0.0
 11
5259.1681
 21
1188.5722
 31
0.0
  0
LINE
  5
CF
330
18
100
AcDbEntity
  8
default
100
AcDbLine
 10
4685.9681
 20
1730.5722
 30
0.0
 11
4685.9681
 21
5397.5722
 31
0.0
  0
LINE
  5
D0
330
18
100
AcDbEntity
  8
default
100
AcDbLine
 10
4685.9681
 20
1730.5722
 30
0.0
 11
5319.6681
 21
1730.5722
 31
0.0
  0
LINE
  5
D1
330
18
100
AcDbEntity
  8
default
100
AcDbLine
 10
4685.9681
 20
2263.5722
 30
0.0
 11
4685.9681
 21
5397.5722
 31
0.0
  0
LINE
  5
D2
330
18
100
AcDbEntity
  8
default
100
AcDbLine
 10
4685.9681
 20
2263.5722
 30
0.0
 11
5366.4681
 21
2263.5722
 31
0.0
  0
LINE
  5
D3
330
18
100
AcDbEntity
  8
default
100
AcDbLine
 10
4685.9681
 20
2791.5722
 30
0.0
 11
4685.9681
 21
5397.5722
 31
0.0
  0
LINE
  5
D4
330
18
100
AcDbEntity
  8
default
100
AcDbLine
 10
4685.9681
 20
2791.5722
 30
0.0
 11
5402.4681
 21
2791.5722
 31
0.0
  0
LINE
  5
D5
330
18
100
AcDbEntity
  8
default
100
AcDbLine
 10
4685.9681
 20
3315.5722
 30
0.0
 11
4685.9681
 21
5397.5722
 31
0.0
  0
LINE
  5
D6
330
18
100
AcDbEntity
  8
default
100
AcDbLine
 10
4685.9681
 20
3315.5722
 30
0.0
 11
4685.9681
 21
5397.5722
 31
0.0
  0
LINE
  5
D7
330
18
100
AcDbEntity
  8
default
100
AcDbLine
 10
4685.9681
 20
3315.5722
 30
0.0
 11
5429.4681
 21
3315.5722
 31
0.0
  0
LINE
  5
D8
330
18
100
AcDbEntity
  8
default
100
AcDbLine
 10
4685.9681
 20
3837.5722
 30
0.0
 11
4685.9681
 21
5397.5722
 31
0.0
  0
LINE
  5
D9
330
18
100
AcDbEntity
  8
default
100
AcDbLine
 10
4685.9681
 20
3837.5722
 30
0.0
 11
5448.8681
 21
3837.5722
 31
0.0
  0
LINE
  5
DA
330
18
100
AcDbEntity
  8
default
100
AcDbLine
 10
4685.9681
 20
4357.5722
 30
0.0
 11
4685.9681
 21
5397.5722
 31
0.0
  0
LINE
  5
DB
330
18
100
AcDbEntity
  8
default
100
AcDbLine
 10
4685.9681
 20
4357.5722
 30
0.0
 11
5461.7681
 21
4357.5722
 31
0.0
  0
LINE
  5
DC
330
18
100
AcDbEntity
  8
default
100
AcDbLine
 10
4685.9681
 20
4877.8722
 30
0.0
 11
4685.9681
 21
5397.5722
 31
0.0
  0
LINE
  5
DD
330
18
100
AcDbEntity
  8
default
100
AcDbLine
 10
4685.9681
 20
4877.8722
 30
0.0
 11
5469.0681
 21
4877.8722
 31
0.0
  0
LINE
  5
DE
330
18
100
AcDbEntity
  8
default
100
AcDbLine
 10
4685.9681
 20
5397.5722
 30
0.0
 11
5471.3681
 21
5397.5722
 31
0.0
  0
SPLINE
  5
DF
330
18
100
AcDbEntity
  8
default
100
AcDbSpline
210
0.0
220
0.0
230
1.0
 70
     8
 71
     3
 72
    17
 73
    13
 74
    11
 42
0.0000001
 43
0.0000001
 44
0.0000000001
 12
-0.001744000835777721
 22
-0.9999984792293861
 32
0.0
 13
-0.182213981516488
 23
-0.9832589002596972
 33
0.0
 40
0.0
 40
0.0
 40
0.0
 40
0.0
 40
519.7050894497761
 40
1040.056297769695
 40
1560.216282774309
 40
2082.576656462819
 40
2607.2718060497
 40
3136.497655758499
 40
3671.548344945982
 40
4216.914506345825
 40
4779.363268456651
 40
5370.302994655525
 40
5370.302994655525
 40
5370.302994655525
 40
5370.302994655525
 10
5471.3681
 20
5397.5722
 30
0.0
 10
5471.065977963213
 20
5224.33743363415
 30
0.0
 10
5470.039804448353
 20
4877.649224244044
 30
0.0
 10
5462.658613430316
 20
4357.618631455074
 30
0.0
 10
5449.921973816058
 20
3836.806943744457
 30
0.0
 10
5430.677679495529
 20
3314.740905832748
 30
0.0
 10
5403.832250146905
 20
2789.978727500404
 30
0.0
 10
5368.003349090142
 20
2261.509757910011
 30
0.0
 10
5321.514673924552
 20
1726.931600330773
 30
0.0
 10
5260.770220481815
 20
1182.651149296058
 30
0.0
 10
5183.825616090674
 20
621.5098917928968
 30
0.0
 10
5114.560593448987
 20
243.2544484340239
 30
0.0
 10
5078.6681
 20
49.5722
 30
0.0
 11
5471.3681
 21
5397.5722
 31
0.0
 11
5469.0681
 21
4877.8722
 31
0.0
 11
5461.7681
 21
4357.5722
 31
0.0
 11
5448.8681
 21
3837.5722
 31
0.0
 11
5429.4681
 21
3315.5722
 31
0.0
 11
5402.4681
 21
2791.5722
 31
0.0
 11
5366.4681
 21
2263.5722
 31
0.0
 11
5319.6681
 21
1730.5722
 31
0.0
 11
5259.1681
 21
1188.5722
 31
0.0
 11
5181.0681
 21
631.5722
 31
0.0
 11
5078.6681
 21
49.5722
 31
0.0
  0
SPLINE
  5
E0
330
18
100
AcDbEntity
  8
default
100
AcDbSpline
210
0.0
220
0.0
230
1.0
 70
     8
 71
     3
 72
    17
 73
    13
 74
    11
 42
0.0000001
 43
0.0000001
 44
0.0000000001
 12
-0.182213981516488
 22
0.9832589002596972
 32
0.0
 13
-0.001744000835777721
 23
0.9999984792293861
 33
0.0
 40
0.0
 40
0.0
 40
0.0
 40
0.0
 40
590.9397261988739
 40
1153.388488309699
 40
1698.754649709543
 40
2233.805338897025
 40
2763.031188605824
 40
3287.726338192706
 40
3810.086711881216
 40
4330.246696885829
 40
4850.597905205748
 40
5370.302994655524
 40
5370.302994655524
 40
5370.302994655524
 40
5370.302994655524
 10
4293.2681
 20
49.5722
 30
0.0
 10
4257.375606551013
 20
243.2544484340238
 30
0.0
 10
4188.110583909325
 20
621.509891792897
 30
0.0
 10
4111.165979518186
 20
1182.651149296058
 30
0.0
 10
4050.421526075446
 20
1726.931600330774
 30
0.0
 10
4003.932850909858
 20
2261.509757910011
 30
0.0
 10
3968.103949853095
 20
2789.978727500404
 30
0.0
 10
3941.258520504471
 20
3314.740905832749
 30
0.0
 10
3922.014226183941
 20
3836.806943744457
 30
0.0
 10
3909.277586569682
 20
4357.618631455073
 30
0.0
 10
3901.896395551649
 20
4877.649224244044
 30
0.0
 10
3900.870222036786
 20
5224.33743363415
 30
0.0
 10
3900.5681
 20
5397.5722
 30
0.0
 11
4293.2681
 21
49.5722
 31
0.0
 11
4190.8681
 21
631.5722
 31
0.0
 11
4112.7681
 21
1188.5722
 31
0.0
 11
4052.2681
 21
1730.5722
 31
0.0
 11
4005.4681
 21
2263.5722
 31
0.0
 11
3969.4681
 21
2791.5722
 31
0.0
 11
3942.4681
 21
3315.5722
 31
0.0
 11
3923.0681
 21
3837.5722
 31
0.0
 11
3910.1681
 21
4357.5722
 31
0.0
 11
3902.8681
 21
4877.8722
 31
0.0
 11
3900.5681
 21
5397.5722
 31
0.0
  0
POINT
  5
E1
330
18
100
AcDbEntity
  8
default
 62
     1
100
AcDbPoint
 10
6256.7681
 20
49.5722
 30
0.0
  0
LINE
  5
E2
330
18
100
AcDbEntity
  8
default
100
AcDbLine
 10
6256.7681
 20
49.5722
 30
0.0
 11
6256.7681
 21
5397.5722
 31
0.0
  0
LINE
  5
E3
330
18
100
AcDbEntity
  8
default
100
AcDbLine
 10
5864.0681
 20
49.5722
 30
0.0
 11
6256.7681
 21
49.5722
 31
0.0
  0
LINE
  5
E4
330
18
100
AcDbEntity
  8
default
100
AcDbLine
 10
6256.7681
 20
631.5722
 30
0.0
 11
6256.7681
 21
5397.5722
 31
0.0
  0
LINE
  5
E5
330
18
100
AcDbEntity
  8
default
100
AcDbLine
 10
5761.6681
 20
631.5722
 30
0.0
 11
6256.7681
 21
631.5722
 31
0.0
  0
LINE
  5
E6
330
18
100
AcDbEntity
  8
default
100
AcDbLine
 10
6256.7681
 20
1188.5722
 30
0.0
 11
6256.7681
 21
5397.5722
 31
0.0
  0
LINE
  5
E7
330
18
100
AcDbEntity
  8
default
100
AcDbLine
 10
5683.5681
 20
1188.5722
 30
0.0
 11
6256.7681
 21
1188.5722
 31
0.0
  0
LINE
  5
E8
330
18
100
AcDbEntity
  8
default
100
AcDbLine
 10
6256.7681
 20
1730.5722
 30
0.0
 11
6256.7681
 21
5397.5722
 31
0.0
  0
LINE
  5
E9
330
18
100
AcDbEntity
  8
default
100
AcDbLine
 10
5623.0681
 20
1730.5722
 30
0.0
 11
6256.7681
 21
1730.5722
 31
0.0
  0
LINE
  5
EA
330
18
100
AcDbEntity
  8
default
100
AcDbLine
 10
6256.7681
 20
2263.5722
 30
0.0
 11
6256.7681
 21
5397.5722
 31
0.0
  0
LINE
  5
EB
330
18
100
AcDbEntity
  8
default
100
AcDbLine
 10
5576.2681
 20
2263.5722
 30
0.0
 11
6256.7681
 21
2263.5722
 31
0.0
  0
LINE
  5
EC
330
18
100
AcDbEntity
  8
default
100
AcDbLine
 10
6256.7681
 20
2791.5722
 30
0.0
 11
6256.7681
 21
5397.5722
 31
0.0
  0
LINE
  5
ED
330
18
100
AcDbEntity
  8
default
100
AcDbLine
 10
5540.2681
 20
2791.5722
 30
0.0
 11
6256.7681
 21
2791.5722
 31
0.0
  0
LINE
  5
EE
330
18
100
AcDbEntity
  8
default
100
AcDbLine
 10
6256.7681
 20
3315.5722
 30
0.0
 11
6256.7681
 21
5397.5722
 31
0.0
  0
LINE
  5
EF
330
18
100
AcDbEntity
  8
default
100
AcDbLine
 10
6256.7681
 20
3315.5722
 30
0.0
 11
6256.7681
 21
5397.5722
 31
0.0
  0
LINE
  5
F0
330
18
100
AcDbEntity
  8
default
100
AcDbLine
 10
5513.2681
 20
3315.5722
 30
0.0
 11
6256.7681
 21
3315.5722
 31
0.0
  0
LINE
  5
F1
330
18
100
AcDbEntity
  8
default
100
AcDbLine
 10
6256.7681
 20
3837.5722
 30
0.0
 11
6256.7681
 21
5397.5722
 31
0.0
  0
LINE
  5
F2
330
18
100
AcDbEntity
  8
default
100
AcDbLine
 10
5493.8681
 20
3837.5722
 30
0.0
 11
6256.7681
 21
3837.5722
 31
0.0
  0
LINE
  5
F3
330
18
100
AcDbEntity
  8
default
100
AcDbLine
 10
6256.7681
 20
4357.5722
 30
0.0
 11
6256.7681
 21
5397.5722
 31
0.0
  0
LINE
  5
F4
330
18
100
AcDbEntity
  8
default
100
AcDbLine
 10
5480.9681
 20
4357.5722
 30
0.0
 11
6256.7681
 21
4357.5722
 31
0.0
  0
LINE
  5
F5
330
18
100
AcDbEntity
  8
default
100
AcDbLine
 10
6256.7681
 20
4877.8722
 30
0.0
 11
6256.7681
 21
5397.5722
 31
0.0
  0
LINE
  5
F6
330
18
100
AcDbEntity
  8
default
100
AcDbLine
 10
5473.6681
 20
4877.8722
 30
0.0
 11
6256.7681
 21
4877.8722
 31
0.0
  0
LINE
  5
F7
330
18
100
AcDbEntity
  8
default
100
AcDbLine
 10
5471.3681
 20
5397.5722
 30
0.0
 11
6256.7681
 21
5397.5722
 31
0.0
  0
POINT
  5
F8
330
18
100
AcDbEntity
  8
default
 62
     1
100
AcDbPoint
 10
6256.7681
 20
49.5722
 30
0.0
  0
LINE
  5
F9
330
18
100
AcDbEntity
  8
default
100
AcDbLine
 10
6256.7681
 20
49.5722
 30
0.0
 11
6256.7681
 21
5397.5722
 31
0.0
  0
LINE
  5
FA
330
18
100
AcDbEntity
  8
default
100
AcDbLine
 10
6256.7681
 20
49.5722
 30
0.0
 11
6649.4681
 21
49.5722
 31
0.0
  0
LINE
  5
FB
330
18
100
AcDbEntity
  8
default
100
AcDbLine
 10
6256.7681
 20
631.5722
 30
0.0
 11
6256.7681
 21
5397.5722
 31
0.0
  0
LINE
  5
FC
330
18
100
AcDbEntity
  8
default
100
AcDbLine
 10
6256.7681
 20
631.5722
 30
0.0
 11
6751.8681
 21
631.5722
 31
0.0
  0
LINE
  5
FD
330
18
100
AcDbEntity
  8
default
100
AcDbLine
 10
6256.7681
 20
1188.5722
 30
0.0
 11
6256.7681
 21
5397.5722
 31
0.0
  0
LINE
  5
FE
330
18
100
AcDbEntity
  8
default
100
AcDbLine
 10
6256.7681
 20
1188.5722
 30
0.0
 11
6829.9681
 21
1188.5722
 31
0.0
  0
LINE
  5
FF
330
18
100
AcDbEntity
  8
default
100
AcDbLine
 10
6256.7681
 20
1730.5722
 30
0.0
 11
6256.7681
 21
5397.5722
 31
0.0
  0
LINE
  5
100
330
18
100
AcDbEntity
  8
default
100
AcDbLine
 10
6256.7681
 20
1730.5722
 30
0.0
 11
6890.4681
 21
1730.5722
 31
0.0
  0
LINE
  5
101
330
18
100
AcDbEntity
  8
default
100
AcDbLine
 10
6256.7681
 20
2263.5722
 30
0.0
 11
6256.7681
 21
5397.5722
 31
0.0
  0
LINE
  5
102
330
18
100
AcDbEntity
  8
default
100
AcDbLine
 10
6256.7681
 20
2263.5722
 30
0.0
 11
6937.2681
 21
2263.5722
 31
0.0
  0
LINE
  5
103
330
18
100
AcDbEntity
  8
default
100
AcDbLine
 10
6256.7681
 20
2791.5722
 30
0.0
 11
6256.7681
 21
5397.5722
 31
0.0
  0
LINE
  5
104
330
18
100
AcDbEntity
  8
default
100
AcDbLine
 10
6256.7681
 20
2791.5722
 30
0.0
 11
6973.2681
 21
2791.5722
 31
0.0
  0
LINE
  5
105
330
18
100
AcDbEntity
  8
default
100
AcDbLine
 10
6256.7681
 20
3315.5722
 30
0.0
 11
6256.7681
 21
5397.5722
 31
0.0
  0
LINE
  5
106
330
18
100
AcDbEntity
  8
default
100
AcDbLine
 10
6256.7681
 20
3315.5722
 30
0.0
 11
6256.7681
 21
5397.5722
 31
0.0
  0
LINE
  5
107
330
18
100
AcDbEntity
  8
default
100
AcDbLine
 10
6256.7681
 20
3315.5722
 30
0.0
 11
7000.2681
 21
3315.5722
 31
0.0
  0
LINE
  5
108
330
18
100
AcDbEntity
  8
default
100
AcDbLine
 10
6256.7681
 20
3837.5722
 30
0.0
 11
6256.7681
 21
5397.5722
 31
0.0
  0
LINE
  5
109
330
18
100
AcDbEntity
  8
default
100
AcDbLine
 10
6256.7681
 20
3837.5722
 30
0.0
 11
7019.6681
 21
3837.5722
 31
0.0
  0
LINE
  5
10A
330
18
100
AcDbEntity
  8
default
100
AcDbLine
 10
6256.7681
 20
4357.5722
 30
0.0
 11
6256.7681
 21
5397.5722
 31
0.0
  0
LINE
  5
10B
330
18
100
AcDbEntity
  8
default
100
AcDbLine
 10
6256.7681
 20
4357.5722
 30
0.0
 11
7032.5681
 21
4357.5722
 31
0.0
  0
LINE
  5
10C
330
18
100
AcDbEntity
  8
default
100
AcDbLine
 10
6256.7681
 20
4877.8722
 30
0.0
 11
6256.7681
 21
5397.5722
 31
0.0
  0
LINE
  5
10D
330
18
100
AcDbEntity
  8
default
100
AcDbLine
 10
6256.7681
 20
4877.8722
 30
0.0
 11
7039.8681
 21
4877.8722
 31
0.0
  0
LINE
  5
10E
330
18
100
AcDbEntity
  8
default
100
AcDbLine
 10
6256.7681
 20
5397.5722
 30
0.0
 11
7042.1681
 21
5397.5722
 31
0.0
  0
SPLINE
  5
10F
330
18
100
AcDbEntity
  8
default
100
AcDbSpline
210
0.0
220
0.0
230
1.0
 70
     8
 71
     3
 72
    17
 73
    13
 74
    11
 42
0.0000001
 43
0.0000001
 44
0.0000000001
 12
-0.001744000835777721
 22
-0.9999984792293861
 32
0.0
 13
-0.182213981516488
 23
-0.9832589002596972
 33
0.0
 40
0.0
 40
0.0
 40
0.0
 40
0.0
 40
519.7050894497761
 40
1040.056297769695
 40
1560.216282774309
 40
2082.576656462819
 40
2607.2718060497
 40
3136.497655758499
 40
3671.548344945982
 40
4216.914506345825
 40
4779.363268456651
 40
5370.302994655525
 40
5370.302994655525
 40
5370.302994655525
 40
5370.302994655525
 10
7042.1681
 20
5397.5722
 30
0.0
 10
7041.865977963214
 20
5224.33743363415
 30
0.0
 10
7040.839804448349
 20
4877.649224244044
 30
0.0
 10
7033.458613430318
 20
4357.618631455074
 30
0.0
 10
7020.721973816059
 20
3836.806943744457
 30
0.0
 10
7001.477679495528
 20
3314.740905832748
 30
0.0
 10
6974.632250146906
 20
2789.978727500404
 30
0.0
 10
6938.803349090142
 20
2261.509757910011
 30
0.0
 10
6892.314673924554
 20
1726.931600330773
 30
0.0
 10
6831.570220481815
 20
1182.651149296058
 30
0.0
 10
6754.625616090672
 20
621.5098917928968
 30
0.0
 10
6685.360593448987
 20
243.2544484340239
 30
0.0
 10
6649.4681
 20
49.5722
 30
0.0
 11
7042.1681
 21
5397.5722
 31
0.0
 11
7039.8681
 21
4877.8722
 31
0.0
 11
7032.5681
 21
4357.5722
 31
0.0
 11
7019.6681
 21
3837.5722
 31
0.0
 11
7000.2681
 21
3315.5722
 31
0.0
 11
6973.2681
 21
2791.5722
 31
0.0
 11
6937.2681
 21
2263.5722
 31
0.0
 11
6890.4681
 21
1730.5722
 31
0.0
 11
6829.9681
 21
1188.5722
 31
0.0
 11
6751.8681
 21
631.5722
 31
0.0
 11
6649.4681
 21
49.5722
 31
0.0
  0
SPLINE
  5
110
330
18
100
AcDbEntity
  8
default
100
AcDbSpline
210
0.0
220
0.0
230
1.0
 70
     8
 71
     3
 72
    17
 73
    13
 74
    11
 42
0.0000001
 43
0.0000001
 44
0.0000000001
 12
-0.182213981516488
 22
0.9832589002596972
 32
0.0
 13
-0.001744000835777721
 23
0.9999984792293861
 33
0.0
 40
0.0
 40
0.0
 40
0.0
 40
0.0
 40
590.9397261988739
 40
1153.388488309699
 40
1698.754649709543
 40
2233.805338897025
 40
2763.031188605824
 40
3287.726338192706
 40
3810.086711881216
 40
4330.246696885829
 40
4850.597905205748
 40
5370.302994655524
 40
5370.302994655524
 40
5370.302994655524
 40
5370.302994655524
 10
5864.0681
 20
49.5722
 30
0.0
 10
5828.175606551014
 20
243.2544484340238
 30
0.0
 10
5758.910583909326
 20
621.509891792897
 30
0.0
 10
5681.965979518185
 20
1182.651149296058
 30
0.0
 10
5621.221526075447
 20
1726.931600330774
 30
0.0
 10
5574.732850909859
 20
2261.509757910011
 30
0.0
 10
5538.903949853094
 20
2789.978727500404
 30
0.0
 10
5512.058520504473
 20
3314.740905832749
 30
0.0
 10
5492.814226183938
 20
3836.806943744457
 30
0.0
 10
5480.077586569682
 20
4357.618631455073
 30
0.0
 10
5472.696395551649
 20
4877.649224244044
 30
0.0
 10
5471.670222036786
 20
5224.33743363415
 30
0.0
 10
5471.3681
 20
5397.5722
 30
0.0
 11
5864.0681
 21
49.5722
 31
0.0
 11
5761.6681
 21
631.5722
 31
0.0
 11
5683.5681
 21
1188.5722
 31
0.0
 11
5623.0681
 21
1730.5722
 31
0.0
 11
5576.2681
 21
2263.5722
 31
0.0
 11
5540.2681
 21
2791.5722
 31
0.0
 11
5513.2681
 21
3315.5722
 31
0.0
 11
5493.8681
 21
3837.5722
 31
0.0
 11
5480.9681
 21
4357.5722
 31
0.0
 11
5473.6681
 21
4877.8722
 31
0.0
 11
5471.3681
 21
5397.5722
 31
0.0
  0
POINT
  5
111
330
18
100
AcDbEntity
  8
default
 62
     1
100
AcDbPoint
 10
7827.5681
 20
49.5722
 30
0.0
  0
LINE
  5
112
330
18
100
AcDbEntity
  8
default
100
AcDbLine
 10
7827.5681
 20
49.5722
 30
0.0
 11
7827.5681
 21
5397.5722
 31
0.0
  0
LINE
  5
113
330
18
100
AcDbEntity
  8
default
100
AcDbLine
 10
7434.8681
 20
49.5722
 30
0.0
 11
7827.5681
 21
49.5722
 31
0.0
  0
LINE
  5
114
330
18
100
AcDbEntity
  8
default
100
AcDbLine
 10
7827.5681
 20
631.5722
 30
0.0
 11
7827.5681
 21
5397.5722
 31
0.0
  0
LINE
  5
115
330
18
100
AcDbEntity
  8
default
100
AcDbLine
 10
7332.4681
 20
631.5722
 30
0.0
 11
7827.5681
 21
631.5722
 31
0.0
  0
LINE
  5
116
330
18
100
AcDbEntity
  8
default
100
AcDbLine
 10
7827.5681
 20
1188.5722
 30
0.0
 11
7827.5681
 21
5397.5722
 31
0.0
  0
LINE
  5
117
330
18
100
AcDbEntity
  8
default
100
AcDbLine
 10
7254.3681
 20
1188.5722
 30
0.0
 11
7827.5681
 21
1188.5722
 31
0.0
  0
LINE
  5
118
330
18
100
AcDbEntity
  8
default
100
AcDbLine
 10
7827.5681
 20
1730.5722
 30
0.0
 11
7827.5681
 21
5397.5722
 31
0.0
  0
LINE
  5
119
330
18
100
AcDbEntity
  8
default
100
AcDbLine
 10
7193.8681
 20
1730.5722
 30
0.0
 11
7827.5681
 21
1730.5722
 31
0.0
  0
LINE
  5
11A
330
18
100
AcDbEntity
  8
default
100
AcDbLine
 10
7827.5681
 20
2263.5722
 30
0.0
 11
7827.5681
 21
5397.5722
 31
0.0
  0
LINE
  5
11B
330
18
100
AcDbEntity
  8
default
100
AcDbLine
 10
7147.0681
 20
2263.5722
 30
0.0
 11
7827.5681
 21
2263.5722
 31
0.0
  0
LINE
  5
11C
330
18
100
AcDbEntity
  8
default
100
AcDbLine
 10
7827.5681
 20
2791.5722
 30
0.0
 11
7827.5681
 21
5397.5722
 31
0.0
  0
LINE
  5
11D
330
18
100
AcDbEntity
  8
default
100
AcDbLine
 10
7111.0681
 20
2791.5722
 30
0.0
 11
7827.5681
 21
2791.5722
 31
0.0
  0
LINE
  5
11E
330
18
100
AcDbEntity
  8
default
100
AcDbLine
 10
7827.5681
 20
3315.5722
 30
0.0
 11
7827.5681
 21
5397.5722
 31
0.0
  0
LINE
  5
11F
330
18
100
AcDbEntity
  8
default
100
AcDbLine
 10
7827.5681
 20
3315.5722
 30
0.0
 11
7827.5681
 21
5397.5722
 31
0.0
  0
LINE
  5
120
330
18
100
AcDbEntity
  8
default
100
AcDbLine
 10
7084.0681
 20
3315.5722
 30
0.0
 11
7827.5681
 21
3315.5722
 31
0.0
  0
LINE
  5
121
330
18
100
AcDbEntity
  8
default
100
AcDbLine
 10
7827.5681
 20
3837.5722
 30
0.0
 11
7827.5681
 21
5397.5722
 31
0.0
  0
LINE
  5
122
330
18
100
AcDbEntity
  8
default
100
AcDbLine
 10
7064.6681
 20
3837.5722
 30
0.0
 11
7827.5681
 21
3837.5722
 31
0.0
  0
LINE
  5
123
330
18
100
AcDbEntity
  8
default
100
AcDbLine
 10
7827.5681
 20
4357.5722
 30
0.0
 11
7827.5681
 21
5397.5722
 31
0.0
  0
LINE
  5
124
330
18
100
AcDbEntity
  8
default
100
AcDbLine
 10
7051.7681
 20
4357.5722
 30
0.0
 11
7827.5681
 21
4357.5722
 31
0.0
  0
LINE
  5
125
330
18
100
AcDbEntity
  8
default
100
AcDbLine
 10
7827.5681
 20
4877.8722
 30
0.0
 11
7827.5681
 21
5397.5722
 31
0.0
  0
LINE
  5
126
330
18
100
AcDbEntity
  8
default
100
AcDbLine
 10
7044.4681
 20
4877.8722
 30
0.0
 11
7827.5681
 21
4877.8722
 31
0.0
  0
LINE
  5
127
330
18
100
AcDbEntity
  8
default
100
AcDbLine
 10
7042.1681
 20
5397.5722
 30
0.0
 11
7827.5681
 21
5397.5722
 31
0.0
  0
POINT
  5
128
330
18
100
AcDbEntity
  8
default
 62
     1
100
AcDbPoint
 10
7827.5681
 20
49.5722
 30
0.0
  0
LINE
  5
129
330
18
100
AcDbEntity
  8
default
100
AcDbLine
 10
7827.5681
 20
49.5722
 30
0.0
 11
7827.5681
 21
5397.5722
 31
0.0
  0
LINE
  5
12A
330
18
100
AcDbEntity
  8
default
100
AcDbLine
 10
7827.5681
 20
49.5722
 30
0.0
 11
8220.268099999999
 21
49.5722
 31
0.0
  0
LINE
  5
12B
330
18
100
AcDbEntity
  8
default
100
AcDbLine
 10
7827.5681
 20
631.5722
 30
0.0
 11
7827.5681
 21
5397.5722
 31
0.0
  0
LINE
  5
12C
330
18
100
AcDbEntity
  8
default
100
AcDbLine
 10
7827.5681
 20
631.5722
 30
0.0
 11
8322.668100000001
 21
631.5722
 31
0.0
  0
LINE
  5
12D
330
18
100
AcDbEntity
  8
default
100
AcDbLine
 10
7827.5681
 20
1188.5722
 30
0.0
 11
7827.5681
 21
5397.5722
 31
0.0
  0
LINE
  5
12E
330
18
100
AcDbEntity
  8
default
100
AcDbLine
 10
7827.5681
 20
1188.5722
 30
0.0
 11
8400.768099999999
 21
1188.5722
 31
0.0
  0
LINE
  5
12F
330
18
100
AcDbEntity
  8
default
100
AcDbLine
 10
7827.5681
 20
1730.5722
 30
0.0
 11
7827.5681
 21
5397.5722
 31
0.0
  0
LINE
  5
130
330
18
100
AcDbEntity
  8
default
100
AcDbLine
 10
7827.5681
 20
1730.5722
 30
0.0
 11
8461.268099999999
 21
1730.5722
 31
0.0
  0
LINE
  5
131
330
18
100
AcDbEntity
  8
default
100
AcDbLine
 10
7827.5681
 20
2263.5722
 30
0.0
 11
7827.5681
 21
5397.5722
 31
0.0
  0
LINE
  5
132
330
18
100
AcDbEntity
  8
default
100
AcDbLine
 10
7827.5681
 20
2263.5722
 30
0.0
 11
8508.0681
 21
2263.5722
 31
0.0
  0
LINE
  5
133
330
18
100
AcDbEntity
  8
default
100
AcDbLine
 10
7827.5681
 20
2791.5722
 30
0.0
 11
7827.5681
 21
5397.5722
 31
0.0
  0
LINE
  5
134
330
18
100
AcDbEntity
  8
default
100
AcDbLine
 10
7827.5681
 20
2791.5722
 30
0.0
 11
8544.0681
 21
2791.5722
 31
0.0
  0
LINE
  5
135
330
18
100
AcDbEntity
  8
default
100
AcDbLine
 10
7827.5681
 20
3315.5722
 30
0.0
 11
7827.5681
 21
5397.5722
 31
0.0
  0
LINE
  5
136
330
18
100
AcDbEntity
  8
default
100
AcDbLine
 10
7827.5681
 20
3315.5722
 30
0.0
 11
7827.5681
 21
5397.5722
 31
0.0
  0
LINE
  5
137
330
18
100
AcDbEntity
  8
default
100
AcDbLine
 10
7827.5681
 20
3315.5722
 30
0.0
 11
8571.0681
 21
3315.5722
 31
0.0
  0
LINE
  5
138
330
18
100
AcDbEntity
  8
default
100
AcDbLine
 10
7827.5681
 20
3837.5722
 30
0.0
 11
7827.5681
 21
5397.5722
 31
0.0
  0
LINE
  5
139
330
18
100
AcDbEntity
  8
default
100
AcDbLine
 10
7827.5681
 20
3837.5722
 30
0.0
 11
8590.4681
 21
3837.5722
 31
0.0
  0
LINE
  5
13A
330
18
100
AcDbEntity
  8
default
100
AcDbLine
 10
7827.5681
 20
4357.5722
 30
0.0
 11
7827.5681
 21
5397.5722
 31
0.0
  0
LINE
  5
13B
330
18
100
AcDbEntity
  8
default
100
AcDbLine
 10
7827.5681
 20
4357.5722
 30
0.0
 11
8603.3681
 21
4357.5722
 31
0.0
  0
LINE
  5
13C
330
18
100
AcDbEntity
  8
default
100
AcDbLine
 10
7827.5681
 20
4877.8722
 30
0.0
 11
7827.5681
 21
5397.5722
 31
0.0
  0
LINE
  5
13D
330
18
100
AcDbEntity
  8
default
100
AcDbLine
 10
7827.5681
 20
4877.8722
 30
0.0
 11
8610.668100000001
 21
4877.8722
 31
0.0
  0
LINE
  5
13E
330
18
100
AcDbEntity
  8
default
100
AcDbLine
 10
7827.5681
 20
5397.5722
 30
0.0
 11
8612.9681
 21
5397.5722
 31
0.0
  0
SPLINE
  5
13F
330
18
100
AcDbEntity
  8
default
100
AcDbSpline
210
0.0
220
0.0
230
1.0
 70
     8
 71
     3
 72
    17
 73
    13
 74
    11
 42
0.0000001
 43
0.0000001
 44
0.0000000001
 12
-0.001744000835777721
 22
-0.9999984792293861
 32
0.0
 13
-0.182213981516488
 23
-0.9832589002596972
 33
0.0
 40
0.0
 40
0.0
 40
0.0
 40
0.0
 40
519.7050894497761
 40
1040.056297769695
 40
1560.216282774309
 40
2082.576656462819
 40
2607.2718060497
 40
3136.497655758499
 40
3671.548344945982
 40
4216.914506345825
 40
4779.363268456651
 40
5370.302994655525
 40
5370.302994655525
 40
5370.302994655525
 40
5370.302994655525
 10
8612.9681
 20
5397.5722
 30
0.0
 10
8612.665977963214
 20
5224.33743363415
 30
0.0
 10
8611.639804448352
 20
4877.649224244044
 30
0.0
 10
8604.258613430317
 20
4357.618631455074
 30
0.0
 10
8591.52197381606
 20
3836.806943744457
 30
0.0
 10
8572.277679495528
 20
3314.740905832748
 30
0.0
 10
8545.432250146907
 20
2789.978727500404
 30
0.0
 10
8509.603349090143
 20
2261.509757910011
 30
0.0
 10
8463.114673924552
 20
1726.931600330773
 30
0.0
 10
8402.370220481815
 20
1182.651149296058
 30
0.0
 10
8325.425616090677
 20
621.5098917928968
 30
0.0
 10
8256.160593448985
 20
243.2544484340239
 30
0.0
 10
8220.268099999999
 20
49.5722
 30
0.0
 11
8612.9681
 21
5397.5722
 31
0.0
 11
8610.668100000001
 21
4877.8722
 31
0.0
 11
8603.3681
 21
4357.5722
 31
0.0
 11
8590.4681
 21
3837.5722
 31
0.0
 11
8571.0681
 21
3315.5722
 31
0.0
 11
8544.0681
 21
2791.5722
 31
0.0
 11
8508.0681
 21
2263.5722
 31
0.0
 11
8461.268099999999
 21
1730.5722
 31
0.0
 11
8400.768099999999
 21
1188.5722
 31
0.0
 11
8322.668100000001
 21
631.5722
 31
0.0
 11
8220.268099999999
 21
49.5722
 31
0.0
  0
SPLINE
  5
140
330
18
100
AcDbEntity
  8
default
100
AcDbSpline
210
0.0
220
0.0
230
1.0
 70
     8
 71
     3
 72
    17
 73
    13
 74
    11
 42
0.0000001
 43
0.0000001
 44
0.0000000001
 12
-0.182213981516488
 22
0.9832589002596972
 32
0.0
 13
-0.001744000835777721
 23
0.9999984792293861
 33
0.0
 40
0.0
 40
0.0
 40
0.0
 40
0.0
 40
590.9397261988738
 40
1153.388488309699
 40
1698.754649709543
 40
2233.805338897025
 40
2763.031188605824
 40
3287.726338192706
 40
3810.086711881216
 40
4330.246696885829
 40
4850.597905205748
 40
5370.302994655524
 40
5370.302994655524
 40
5370.302994655524
 40
5370.302994655524
 10
7434.8681
 20
49.5722
 30
0.0
 10
7398.975606551013
 20
243.2544484340237
 30
0.0
 10
7329.710583909327
 20
621.5098917928972
 30
0.0
 10
7252.765979518183
 20
1182.651149296057
 30
0.0
 10
7192.021526075447
 20
1726.931600330774
 30
0.0
 10
7145.532850909859
 20
2261.509757910011
 30
0.0
 10
7109.703949853094
 20
2789.978727500404
 30
0.0
 10
7082.858520504472
 20
3314.740905832749
 30
0.0
 10
7063.61422618394
 20
3836.806943744457
 30
0.0
 10
7050.877586569683
 20
4357.618631455073
 30
0.0
 10
7043.496395551649
 20
4877.649224244044
 30
0.0
 10
7042.470222036786
 20
5224.33743363415
 30
0.0
 10
7042.1681
 20
5397.5722
 30
0.0
 11
7434.8681
 21
49.5722
 31
0.0
 11
7332.4681
 21
631.5722
 31
0.0
 11
7254.3681
 21
1188.5722
 31
0.0
 11
7193.8681
 21
1730.5722
 31
0.0
 11
7147.0681
 21
2263.5722
 31
0.0
 11
7111.0681
 21
2791.5722
 31
0.0
 11
7084.0681
 21
3315.5722
 31
0.0
 11
7064.6681
 21
3837.5722
 31
0.0
 11
7051.7681
 21
4357.5722
 31
0.0
 11
7044.4681
 21
4877.8722
 31
0.0
 11
7042.1681
 21
5397.5722
 31
0.0
  0
POINT
  5
141
330
18
100
AcDbEntity
  8
default
 62
     1
100
AcDbPoint
 10
9398.3681
 20
49.5722
 30
0.0
  0
LINE
  5
142
330
18
100
AcDbEntity
  8
default
100
AcDbLine
 10
9398.3681
 20
49.5722
 30
0.0
 11
9398.3681
 21
5397.5722
 31
0.0
  0
LINE
  5
143
330
18
100
AcDbEntity
  8
default
100
AcDbLine
 10
9005.668100000001
 20
49.5722
 30
0.0
 11
9398.3681
 21
49.5722
 31
0.0
  0
LINE
  5
144
330
18
100
AcDbEntity
  8
default
100
AcDbLine
 10
9398.3681
 20
631.5722
 30
0.0
 11
9398.3681
 21
5397.5722
 31
0.0
  0
LINE
  5
145
330
18
100
AcDbEntity
  8
default
100
AcDbLine
 10
8903.268099999999
 20
631.5722
 30
0.0
 11
9398.3681
 21
631.5722
 31
0.0
  0
LINE
  5
146
330
18
100
AcDbEntity
  8
default
100
AcDbLine
 10
9398.3681
 20
1188.5722
 30
0.0
 11
9398.3681
 21
5397.5722
 31
0.0
  0
LINE
  5
147
330
18
100
AcDbEntity
  8
default
100
AcDbLine
 10
8825.168100000001
 20
1188.5722
 30
0.0
 11
9398.3681
 21
1188.5722
 31
0.0
  0
LINE
  5
148
330
18
100
AcDbEntity
  8
default
100
AcDbLine
 10
9398.3681
 20
1730.5722
 30
0.0
 11
9398.3681
 21
5397.5722
 31
0.0
  0
LINE
  5
149
330
18
100
AcDbEntity
  8
default
100
AcDbLine
 10
8764.668100000001
 20
1730.5722
 30
0.0
 11
9398.3681
 21
1730.5722
 31
0.0
  0
LINE
  5
14A
330
18
100
AcDbEntity
  8
default
100
AcDbLine
 10
9398.3681
 20
2263.5722
 30
0.0
 11
9398.3681
 21
5397.5722
 31
0.0
  0
LINE
  5
14B
330
18
100
AcDbEntity
  8
default
100
AcDbLine
 10
8717.8681
 20
2263.5722
 30
0.0
 11
9398.3681
 21
2263.5722
 31
0.0
  0
LINE
  5
14C
330
18
100
AcDbEntity
  8
default
100
AcDbLine
 10
9398.3681
 20
2791.5722
 30
0.0
 11
9398.3681
 21
5397.5722
 31
0.0
  0
LINE
  5
14D
330
18
100
AcDbEntity
  8
default
100
AcDbLine
 10
8681.8681
 20
2791.5722
 30
0.0
 11
9398.3681
 21
2791.5722
 31
0.0
  0
LINE
  5
14E
330
18
100
AcDbEntity
  8
default
100
AcDbLine
 10
9398.3681
 20
3315.5722
 30
0.0
 11
9398.3681
 21
5397.5722
 31
0.0
  0
LINE
  5
14F
330
18
100
AcDbEntity
  8
default
100
AcDbLine
 10
9398.3681
 20
3315.5722
 30
0.0
 11
9398.3681
 21
5397.5722
 31
0.0
  0
LINE
  5
150
330
18
100
AcDbEntity
  8
default
100
AcDbLine
 10
8654.8681
 20
3315.5722
 30
0.0
 11
9398.3681
 21
3315.5722
 31
0.0
  0
LINE
  5
151
330
18
100
AcDbEntity
  8
default
100
AcDbLine
 10
9398.3681
 20
3837.5722
 30
0.0
 11
9398.3681
 21
5397.5722
 31
0.0
  0
LINE
  5
152
330
18
100
AcDbEntity
  8
default
100
AcDbLine
 10
8635.4681
 20
3837.5722
 30
0.0
 11
9398.3681
 21
3837.5722
 31
0.0
  0
LINE
  5
153
330
18
100
AcDbEntity
  8
default
100
AcDbLine
 10
9398.3681
 20
4357.5722
 30
0.0
 11
9398.3681
 21
5397.5722
 31
0.0
  0
LINE
  5
154
330
18
100
AcDbEntity
  8
default
100
AcDbLine
 10
8622.5681
 20
4357.5722
 30
0.0
 11
9398.3681
 21
4357.5722
 31
0.0
  0
LINE
  5
155
330
18
100
AcDbEntity
  8
default
100
AcDbLine
 10
9398.3681
 20
4877.8722
 30
0.0
 11
9398.3681
 21
5397.5722
 31
0.0
  0
LINE
  5
156
330
18
100
AcDbEntity
  8
default
100
AcDbLine
 10
8615.268099999999
 20
4877.8722
 30
0.0
 11
9398.3681
 21
4877.8722
 31
0.0
  0
LINE
  5
157
330
18
100
AcDbEntity
  8
default
100
AcDbLine
 10
8612.9681
 20
5397.5722
 30
0.0
 11
9398.3681
 21
5397.5722
 31
0.0
  0
POINT
  5
158
330
18
100
AcDbEntity
  8
default
 62
     1
100
AcDbPoint
 10
9398.3681
 20
49.5722
 30
0.0
  0
LINE
  5
159
330
18
100
AcDbEntity
  8
default
100
AcDbLine
 10
9398.3681
 20
49.5722
 30
0.0
 11
9398.3681
 21
5397.5722
 31
0.0
  0
LINE
  5
15A
330
18
100
AcDbEntity
  8
default
100
AcDbLine
 10
9398.3681
 20
49.5722
 30
0.0
 11
9791.0681
 21
49.5722
 31
0.0
  0
LINE
  5
15B
330
18
100
AcDbEntity
  8
default
100
AcDbLine
 10
9398.3681
 20
631.5722
 30
0.0
 11
9398.3681
 21
5397.5722
 31
0.0
  0
LINE
  5
15C
330
18
100
AcDbEntity
  8
default
100
AcDbLine
 10
9398.3681
 20
631.5722
 30
0.0
 11
9893.4681
 21
631.5722
 31
0.0
  0
LINE
  5
15D
330
18
100
AcDbEntity
  8
default
100
AcDbLine
 10
9398.3681
 20
1188.5722
 30
0.0
 11
9398.3681
 21
5397.5722
 31
0.0
  0
LINE
  5
15E
330
18
100
AcDbEntity
  8
default
100
AcDbLine
 10
9398.3681
 20
1188.5722
 30
0.0
 11
9971.5681
 21
1188.5722
 31
0.0
  0
LINE
  5
15F
330
18
100
AcDbEntity
  8
default
100
AcDbLine
 10
9398.3681
 20
1730.5722
 30
0.0
 11
9398.3681
 21
5397.5722
 31
0.0
  0
LINE
  5
160
330
18
100
AcDbEntity
  8
default
100
AcDbLine
 10
9398.3681
 20
1730.5722
 30
0.0
 11
10032.0681
 21
1730.5722
 31
0.0
  0
LINE
  5
161
330
18
100
AcDbEntity
  8
default
100
AcDbLine
 10
9398.3681
 20
2263.5722
 30
0.0
 11
9398.3681
 21
5397.5722
 31
0.0
  0
LINE
  5
162
330
18
100
AcDbEntity
  8
default
100
AcDbLine
 10
9398.3681
 20
2263.5722
 30
0.0
 11
10078.8681
 21
2263.5722
 31
0.0
  0
LINE
  5
163
330
18
100
AcDbEntity
  8
default
100
AcDbLine
 10
9398.3681
 20
2791.5722
 30
0.0
 11
9398.3681
 21
5397.5722
 31
0.0
  0
LINE
  5
164
330
18
100
AcDbEntity
  8
default
100
AcDbLine
 10
9398.3681
 20
2791.5722
 30
0.0
 11
10114.8681
 21
2791.5722
 31
0.0
  0
LINE
  5
165
330
18
100
AcDbEntity
  8
default
100
AcDbLine
 10
9398.3681
 20
3315.5722
 30
0.0
 11
9398.3681
 21
5397.5722
 31
0.0
  0
LINE
  5
166
330
18
100
AcDbEntity
  8
default
100
AcDbLine
 10
9398.3681
 20
3315.5722
 30
0.0
 11
9398.3681
 21
5397.5722
 31
0.0
  0
LINE
  5
167
330
18
100
AcDbEntity
  8
default
100
AcDbLine
 10
9398.3681
 20
3315.5722
 30
0.0
 11
10141.8681
 21
3315.5722
 31
0.0
  0
LINE
  5
168
330
18
100
AcDbEntity
  8
default
100
AcDbLine
 10
9398.3681
 20
3837.5722
 30
0.0
 11
9398.3681
 21
5397.5722
 31
0.0
  0
LINE
  5
169
330
18
100
AcDbEntity
  8
default
100
AcDbLine
 10
9398.3681
 20
3837.5722
 30
0.0
 11
10161.2681
 21
3837.5722
 31
0.0
  0
LINE
  5
16A
330
18
100
AcDbEntity
  8
default
100
AcDbLine
 10
9398.3681
 20
4357.5722
 30
0.0
 11
9398.3681
 21
5397.5722
 31
0.0
  0
LINE
  5
16B
330
18
100
AcDbEntity
  8
default
100
AcDbLine
 10
9398.3681
 20
4357.5722
 30
0.0
 11
10174.1681
 21
4357.5722
 31
0.0
  0
LINE
  5
16C
330
18
100
AcDbEntity
  8
default
100
AcDbLine
 10
9398.3681
 20
4877.8722
 30
0.0
 11
9398.3681
 21
5397.5722
 31
0.0
  0
LINE
  5
16D
330
18
100
AcDbEntity
  8
default
100
AcDbLine
 10
9398.3681
 20
4877.8722
 30
0.0
 11
10181.4681
 21
4877.8722
 31
0.0
  0
LINE
  5
16E
330
18
100
AcDbEntity
  8
default
100
AcDbLine
 10
9398.3681
 20
5397.5722
 30
0.0
 11
10183.7681
 21
5397.5722
 31
0.0
  0
SPLINE
  5
16F
330
18
100
AcDbEntity
  8
default
100
AcDbSpline
210
0.0
220
0.0
230
1.0
 70
     8
 71
     3
 72
    17
 73
    13
 74
    11
 42
0.0000001
 43
0.0000001
 44
0.0000000001
 12
-0.001744000835777721
 22
-0.9999984792293861
 32
0.0
 13
-0.182213981516488
 23
-0.9832589002596972
 33
0.0
 40
0.0
 40
0.0
 40
0.0
 40
0.0
 40
519.7050894497761
 40
1040.056297769695
 40
1560.216282774309
 40
2082.576656462819
 40
2607.2718060497
 40
3136.497655758499
 40
3671.548344945982
 40
4216.914506345825
 40
4779.363268456651
 40
5370.302994655525
 40
5370.302994655525
 40
5370.302994655525
 40
5370.302994655525
 10
10183.7681
 20
5397.5722
 30
0.0
 10
10183.46597796321
 20
5224.33743363415
 30
0.0
 10
10182.43980444835
 20
4877.649224244044
 30
0.0
 10
10175.05861343032
 20
4357.618631455074
 30
0.0
 10
10162.32197381606
 20
3836.806943744457
 30
0.0
 10
10143.07767949553
 20
3314.740905832748
 30
0.0
 10
10116.2322501469
 20
2789.978727500404
 30
0.0
 10
10080.40334909014
 20
2261.509757910011
 30
0.0
 10
10033.91467392455
 20
1726.931600330773
 30
0.0
 10
9973.170220481818
 20
1182.651149296058
 30
0.0
 10
9896.225616090673
 20
621.5098917928968
 30
0.0
 10
9826.960593448986
 20
243.2544484340239
 30
0.0
 10
9791.0681
 20
49.5722
 30
0.0
 11
10183.7681
 21
5397.5722
 31
0.0
 11
10181.4681
 21
4877.8722
 31
0.0
 11
10174.1681
 21
4357.5722
 31
0.0
 11
10161.2681
 21
3837.5722
 31
0.0
 11
10141.8681
 21
3315.5722
 31
0.0
 11
10114.8681
 21
2791.5722
 31
0.0
 11
10078.8681
 21
2263.5722
 31
0.0
 11
10032.0681
 21
1730.5722
 31
0.0
 11
9971.5681
 21
1188.5722
 31
0.0
 11
9893.4681
 21
631.5722
 31
0.0
 11
9791.0681
 21
49.5722
 31
0.0
  0
SPLINE
  5
170
330
18
100
AcDbEntity
  8
default
100
AcDbSpline
210
0.0
220
0.0
230
1.0
 70
     8
 71
     3
 72
    17
 73
    13
 74
    11
 42
0.0000001
 43
0.0000001
 44
0.0000000001
 12
-0.182213981516488
 22
0.9832589002596972
 32
0.0
 13
-0.001744000835777721
 23
0.9999984792293861
 33
0.0
 40
0.0
 40
0.0
 40
0.0
 40
0.0
 40
590.9397261988742
 40
1153.3884883097
 40
1698.754649709543
 40
2233.805338897026
 40
2763.031188605824
 40
3287.726338192706
 40
3810.086711881216
 40
4330.24669688583
 40
4850.597905205749
 40
5370.302994655525
 40
5370.302994655525
 40
5370.302994655525
 40
5370.302994655525
 10
9005.668100000001
 20
49.5722
 30
0.0
 10
8969.775606551015
 20
243.2544484340239
 30
0.0
 10
8900.510583909325
 20
621.5098917928967
 30
0.0
 10
8823.565979518186
 20
1182.651149296058
 30
0.0
 10
8762.821526075448
 20
1726.931600330774
 30
0.0
 10
8716.332850909856
 20
2261.509757910011
 30
0.0
 10
8680.503949853099
 20
2789.978727500405
 30
0.0
 10
8653.658520504467
 20
3314.740905832748
 30
0.0
 10
8634.414226183942
 20
3836.806943744457
 30
0.0
 10
8621.677586569684
 20
4357.618631455074
 30
0.0
 10
8614.296395551646
 20
4877.649224244044
 30
0.0
 10
8613.270222036786
 20
5224.33743363415
 30
0.0
 10
8612.9681
 20
5397.5722
 30
0.0
 11
9005.668100000001
 21
49.5722
 31
0.0
 11
8903.268099999999
 21
631.5722
 31
0.0
 11
8825.168100000001
 21
1188.5722
 31
0.0
 11
8764.668100000001
 21
1730.5722
 31
0.0
 11
8717.8681
 21
2263.5722
 31
0.0
 11
8681.8681
 21
2791.5722
 31
0.0
 11
8654.8681
 21
3315.5722
 31
0.0
 11
8635.4681
 21
3837.5722
 31
0.0
 11
8622.5681
 21
4357.5722
 31
0.0
 11
8615.268099999999
 21
4877.8722
 31
0.0
 11
8612.9681
 21
5397.5722
 31
0.0
  0
POINT
  5
171
330
18
100
AcDbEntity
  8
default
 62
     1
100
AcDbPoint
 10
10969.1681
 20
49.5722
 30
0.0
  0
LINE
  5
172
330
18
100
AcDbEntity
  8
default
100
AcDbLine
 10
10969.1681
 20
49.5722
 30
0.0
 11
10969.1681
 21
5397.5722
 31
0.0
  0
LINE
  5
173
330
18
100
AcDbEntity
  8
default
100
AcDbLine
 10
10576.4681
 20
49.5722
 30
0.0
 11
10969.1681
 21
49.5722
 31
0.0
  0
LINE
  5
174
330
18
100
AcDbEntity
  8
default
100
AcDbLine
 10
10969.1681
 20
631.5722
 30
0.0
 11
10969.1681
 21
5397.5722
 31
0.0
  0
LINE
  5
175
330
18
100
AcDbEntity
  8
default
100
AcDbLine
 10
10474.0681
 20
631.5722
 30
0.0
 11
10969.1681
 21
631.5722
 31
0.0
  0
LINE
  5
176
330
18
100
AcDbEntity
  8
default
100
AcDbLine
 10
10969.1681
 20
1188.5722
 30
0.0
 11
10969.1681
 21
5397.5722
 31
0.0
  0
LINE
  5
177
330
18
100
AcDbEntity
  8
default
100
AcDbLine
 10
10395.9681
 20
1188.5722
 30
0.0
 11
10969.1681
 21
1188.5722
 31
0.0
  0
LINE
  5
178
330
18
100
AcDbEntity
  8
default
100
AcDbLine
 10
10969.1681
 20
1730.5722
 30
0.0
 11
10969.1681
 21
5397.5722
 31
0.0
  0
LINE
  5
179
330
18
100
AcDbEntity
  8
default
100
AcDbLine
 10
10335.4681
 20
1730.5722
 30
0.0
 11
10969.1681
 21
1730.5722
 31
0.0
  0
LINE
  5
17A
330
18
100
AcDbEntity
  8
default
100
AcDbLine
 10
10969.1681
 20
2263.5722
 30
0.0
 11
10969.1681
 21
5397.5722
 31
0.0
  0
LINE
  5
17B
330
18
100
AcDbEntity
  8
default
100
AcDbLine
 10
10288.6681
 20
2263.5722
 30
0.0
 11
10969.1681
 21
2263.5722
 31
0.0
  0
LINE
  5
17C
330
18
100
AcDbEntity
  8
default
100
AcDbLine
 10
10969.1681
 20
2791.5722
 30
0.0
 11
10969.1681
 21
5397.5722
 31
0.0
  0
LINE
  5
17D
330
18
100
AcDbEntity
  8
default
100
AcDbLine
 10
10252.6681
 20
2791.5722
 30
0.0
 11
10969.1681
 21
2791.5722
 31
0.0
  0
LINE
  5
17E
330
18
100
AcDbEntity
  8
default
100
AcDbLine
 10
10969.1681
 20
3315.5722
 30
0.0
 11
10969.1681
 21
5397.5722
 31
0.0
  0
LINE
  5
17F
330
18
100
AcDbEntity
  8
default
100
AcDbLine
 10
10969.1681
 20
3315.5722
 30
0.0
 11
10969.1681
 21
5397.5722
 31
0.0
  0
LINE
  5
180
330
18
100
AcDbEntity
  8
default
100
AcDbLine
 10
10225.6681
 20
3315.5722
 30
0.0
 11
10969.1681
 21
3315.5722
 31
0.0
  0
LINE
  5
181
330
18
100
AcDbEntity
  8
default
100
AcDbLine
 10
10969.1681
 20
3837.5722
 30
0.0
 11
10969.1681
 21
5397.5722
 31
0.0
  0
LINE
  5
182
330
18
100
AcDbEntity
  8
default
100
AcDbLine
 10
10206.2681
 20
3837.5722
 30
0.0
 11
10969.1681
 21
3837.5722
 31
0.0
  0
LINE
  5
183
330
18
100
AcDbEntity
  8
default
100
AcDbLine
 10
10969.1681
 20
4357.5722
 30
0.0
 11
10969.1681
 21
5397.5722
 31
0.0
  0
LINE
  5
184
330
18
100
AcDbEntity
  8
default
100
AcDbLine
 10
10193.3681
 20
4357.5722
 30
0.0
 11
10969.1681
 21
4357.5722
 31
0.0
  0
LINE
  5
185
330
18
100
AcDbEntity
  8
default
100
AcDbLine
 10
10969.1681
 20
4877.8722
 30
0.0
 11
10969.1681
 21
5397.5722
 31
0.0
  0
LINE
  5
186
330
18
100
AcDbEntity
  8
default
100
AcDbLine
 10
10186.0681
 20
4877.8722
 30
0.0
 11
10969.1681
 21
4877.8722
 31
0.0
  0
LINE
  5
187
330
18
100
AcDbEntity
  8
default
100
AcDbLine
 10
10183.7681
 20
5397.5722
 30
0.0
 11
10969.1681
 21
5397.5722
 31
0.0
  0
POINT
  5
188
330
18
100
AcDbEntity
  8
default
 62
     1
100
AcDbPoint
 10
10969.1681
 20
49.5722
 30
0.0
  0
LINE
  5
189
330
18
100
AcDbEntity
  8
default
100
AcDbLine
 10
10969.1681
 20
49.5722
 30
0.0
 11
10969.1681
 21
5397.5722
 31
0.0
  0
LINE
  5
18A
330
18
100
AcDbEntity
  8
default
100
AcDbLine
 10
10969.1681
 20
49.5722
 30
0.0
 11
11361.8681
 21
49.5722
 31
0.0
  0
LINE
  5
18B
330
18
100
AcDbEntity
  8
default
100
AcDbLine
 10
10969.1681
 20
631.5722
 30
0.0
 11
10969.1681
 21
5397.5722
 31
0.0
  0
LINE
  5
18C
330
18
100
AcDbEntity
  8
default
100
AcDbLine
 10
10969.1681
 20
631.5722
 30
0.0
 11
11464.2681
 21
631.5722
 31
0.0
  0
LINE
  5
18D
330
18
100
AcDbEntity
  8
default
100
AcDbLine
 10
10969.1681
 20
1188.5722
 30
0.0
 11
10969.1681
 21
5397.5722
 31
0.0
  0
LINE
  5
18E
330
18
100
AcDbEntity
  8
default
100
AcDbLine
 10
10969.1681
 20
1188.5722
 30
0.0
 11
11542.3681
 21
1188.5722
 31
0.0
  0
LINE
  5
18F
330
18
100
AcDbEntity
  8
default
100
AcDbLine
 10
10969.1681
 20
1730.5722
 30
0.0
 11
10969.1681
 21
5397.5722
 31
0.0
  0
LINE
  5
190
330
18
100
AcDbEntity
  8
default
100
AcDbLine
 10
10969.1681
 20
1730.5722
 30
0.0
 11
11602.8681
 21
1730.5722
 31
0.0
  0
LINE
  5
191
330
18
100
AcDbEntity
  8
default
100
AcDbLine
 10
10969.1681
 20
2263.5722
 30
0.0
 11
10969.1681
 21
5397.5722
 31
0.0
  0
LINE
  5
192
330
18
100
AcDbEntity
  8
default
100
AcDbLine
 10
10969.1681
 20
2263.5722
 30
0.0
 11
11649.6681
 21
2263.5722
 31
0.0
  0
LINE
  5
193
330
18
100
AcDbEntity
  8
default
100
AcDbLine
 10
10969.1681
 20
2791.5722
 30
0.0
 11
10969.1681
 21
5397.5722
 31
0.0
  0
LINE
  5
194
330
18
100
AcDbEntity
  8
default
100
AcDbLine
 10
10969.1681
 20
2791.5722
 30
0.0
 11
11685.6681
 21
2791.5722
 31
0.0
  0
LINE
  5
195
330
18
100
AcDbEntity
  8
default
100
AcDbLine
 10
10969.1681
 20
3315.5722
 30
0.0
 11
10969.1681
 21
5397.5722
 31
0.0
  0
LINE
  5
196
330
18
100
AcDbEntity
  8
default
100
AcDbLine
 10
10969.1681
 20
3315.5722
 30
0.0
 11
10969.1681
 21
5397.5722
 31
0.0
  0
LINE
  5
197
330
18
100
AcDbEntity
  8
default
100
AcDbLine
 10
10969.1681
 20
3315.5722
 30
0.0
 11
11712.6681
 21
3315.5722
 31
0.0
  0
LINE
  5
198
330
18
100
AcDbEntity
  8
default
100
AcDbLine
 10
10969.1681
 20
3837.5722
 30
0.0
 11
10969.1681
 21
5397.5722
 31
0.0
  0
LINE
  5
199
330
18
100
AcDbEntity
  8
default
100
AcDbLine
 10
10969.1681
 20
3837.5722
 30
0.0
 11
11732.0681
 21
3837.5722
 31
0.0
  0
LINE
  5
19A
330
18
100
AcDbEntity
  8
default
100
AcDbLine
 10
10969.1681
 20
4357.5722
 30
0.0
 11
10969.1681
 21
5397.5722
 31
0.0
  0
LINE
  5
19B
330
18
100
AcDbEntity
  8
default
100
AcDbLine
 10
10969.1681
 20
4357.5722
 30
0.0
 11
11744.9681
 21
4357.5722
 31
0.0
  0
LINE
  5
19C
330
18
100
AcDbEntity
  8
default
100
AcDbLine
 10
10969.1681
 20
4877.8722
 30
0.0
 11
10969.1681
 21
5397.5722
 31
0.0
  0
LINE
  5
19D
330
18
100
AcDbEntity
  8
default
100
AcDbLine
 10
10969.1681
 20
4877.8722
 30
0.0
 11
11752.2681
 21
4877.8722
 31
0.0
  0
LINE
  5
19E
330
18
100
AcDbEntity
  8
default
100
AcDbLine
 10
10969.1681
 20
5397.5722
 30
0.0
 11
11754.5681
 21
5397.5722
 31
0.0
  0
SPLINE
  5
19F
330
18
100
AcDbEntity
  8
default
100
AcDbSpline
210
0.0
220
0.0
230
1.0
 70
     8
 71
     3
 72
    17
 73
    13
 74
    11
 42
0.0000001
 43
0.0000001
 44
0.0000000001
 12
-0.001744000835777721
 22
-0.9999984792293861
 32
0.0
 13
-0.182213981516488
 23
-0.9832589002596972
 33
0.0
 40
0.0
 40
0.0
 40
0.0
 40
0.0
 40
519.7050894497761
 40
1040.056297769695
 40
1560.216282774309
 40
2082.576656462819
 40
2607.2718060497
 40
3136.497655758499
 40
3671.548344945982
 40
4216.914506345825
 40
4779.363268456651
 40
5370.302994655525
 40
5370.302994655525
 40
5370.302994655525
 40
5370.302994655525
 10
11754.5681
 20
5397.5722
 30
0.0
 10
11754.26597796321
 20
5224.33743363415
 30
0.0
 10
11753.23980444835
 20
4877.649224244044
 30
0.0
 10
11745.85861343032
 20
4357.618631455074
 30
0.0
 10
11733.12197381606
 20
3836.806943744457
 30
0.0
 10
11713.87767949553
 20
3314.740905832748
 30
0.0
 10
11687.03225014691
 20
2789.978727500404
 30
0.0
 10
11651.20334909014
 20
2261.509757910011
 30
0.0
 10
11604.71467392456
 20
1726.931600330773
 30
0.0
 10
11543.97022048182
 20
1182.651149296058
 30
0.0
 10
11467.02561609067
 20
621.5098917928968
 30
0.0
 10
11397.76059344899
 20
243.2544484340239
 30
0.0
 10
11361.8681
 20
49.5722
 30
0.0
 11
11754.5681
 21
5397.5722
 31
0.0
 11
11752.2681
 21
4877.8722
 31
0.0
 11
11744.9681
 21
4357.5722
 31
0.0
 11
11732.0681
 21
3837.5722
 31
0.0
 11
11712.6681
 21
3315.5722
 31
0.0
 11
11685.6681
 21
2791.5722
 31
0.0
 11
11649.6681
 21
2263.5722
 31
0.0
 11
11602.8681
 21
1730.5722
 31
0.0
 11
11542.3681
 21
1188.5722
 31
0.0
 11
11464.2681
 21
631.5722
 31
0.0
 11
11361.8681
 21
49.5722
 31
0.0
  0
SPLINE
  5
1A0
330
18
100
AcDbEntity
  8
default
100
AcDbSpline
210
0.0
220
0.0
230
1.0
 70
     8
 71
     3
 72
    17
 73
    13
 74
    11
 42
0.0000001
 43
0.0000001
 44
0.0000000001
 12
-0.182213981516488
 22
0.9832589002596972
 32
0.0
 13
-0.001744000835777721
 23
0.9999984792293861
 33
0.0
 40
0.0
 40
0.0
 40
0.0
 40
0.0
 40
590.9397261988738
 40
1153.388488309699
 40
1698.754649709543
 40
2233.805338897025
 40
2763.031188605824
 40
3287.726338192706
 40
3810.086711881216
 40
4330.246696885829
 40
4850.597905205748
 40
5370.302994655524
 40
5370.302994655524
 40
5370.302994655524
 40
5370.302994655524
 10
10576.4681
 20
49.5722
 30
0.0
 10
10540.57560655101
 20
243.2544484340237
 30
0.0
 10
10471.31058390933
 20
621.5098917928972
 30
0.0
 10
10394.36597951818
 20
1182.651149296057
 30
0.0
 10
10333.62152607545
 20
1726.931600330774
 30
0.0
 10
10287.13285090986
 20
2261.509757910011
 30
0.0
 10
10251.3039498531
 20
2789.978727500404
 30
0.0
 10
10224.45852050447
 20
3314.740905832749
 30
0.0
 10
10205.21422618394
 20
3836.806943744457
 30
0.0
 10
10192.47758656968
 20
4357.618631455073
 30
0.0
 10
10185.09639555165
 20
4877.649224244044
 30
0.0
 10
10184.07022203679
 20
5224.33743363415
 30
0.0
 10
10183.7681
 20
5397.5722
 30
0.0
 11
10576.4681
 21
49.5722
 31
0.0
 11
10474.0681
 21
631.5722
 31
0.0
 11
10395.9681
 21
1188.5722
 31
0.0
 11
10335.4681
 21
1730.5722
 31
0.0
 11
10288.6681
 21
2263.5722
 31
0.0
 11
10252.6681
 21
2791.5722
 31
0.0
 11
10225.6681
 21
3315.5722
 31
0.0
 11
10206.2681
 21
3837.5722
 31
0.0
 11
10193.3681
 21
4357.5722
 31
0.0
 11
10186.0681
 21
4877.8722
 31
0.0
 11
10183.7681
 21
5397.5722
 31
0.0
  0
ENDSEC
  0
SECTION
  2
OBJECTS
  0
DICTIONARY
  5
C
330
0
100
AcDbDictionary
281
     1
  3
ACAD_GROUP
350
D
  3
ACAD_LAYOUT
350
1A1
  3
ACAD_MLINESTYLE
350
1B
  0
DICTIONARY
  5
D
102
{ACAD_REACTORS
330
C
102
}
330
C
100
AcDbDictionary
281
     1
  0
DICTIONARY
  5
1A1
102
{ACAD_REACTORS
330
C
102
}
330
C
100
AcDbDictionary
281
     1
  3
Layout1
350
1A3
  3
Model
350
1A2
  0
DICTIONARY
  5
1B
102
{ACAD_REACTORS
330
C
102
}
330
C
100
AcDbDictionary
281
     1
  3
STANDARD
350
1C
  0
LAYOUT
  5
1A3
102
{ACAD_REACTORS
330
1A1
102
}
330
1A1
100
AcDbPlotSettings
  1

  2

  4

  6

 40
0.0
 41
0.0
 42
0.0
 43
0.0
 44
0.0
 45
0.0
 46
0.0
 47
0.0
 48
0.0
 49
0.0
140
0.0
141
0.0
142
1.0
143
1.0
 70
   688
 72
     0
 73
     0
 74
     5
  7

 75
    16
 76
     0
 77
     2
 78
   300
147
1.0
148
0.0
149
0.0
100
AcDbLayout
  1
Layout1
 70
     1
 71
     1
 10
0.0
 20
0.0
 11
0.0
 21
0.0
 12
0.0
 22
0.0
 32
0.0
 14
0.0
 24
0.0
 34
0.0
 15
0.0
 25
0.0
 35
0.0
146
0.0
 13
0.0
 23
0.0
 33
0.0
 16
1.0
 26
0.0
 36
0.0
 17
0.0
 27
1.0
 37
0.0
 76
     0
330
15
  0
LAYOUT
  5
1A2
102
{ACAD_REACTORS
330
1A1
102
}
330
1A1
100
AcDbPlotSettings
  1

  2

  4

  6

 40
0.0
 41
0.0
 42
0.0
 43
0.0
 44
0.0
 45
0.0
 46
0.0
 47
0.0
 48
0.0
 49
0.0
140
0.0
141
0.0
142
1.0
143
1.0
 70
   688
 72
     0
 73
     0
 74
     5
  7

 75
    16
 76
     0
 77
     2
 78
   300
147
1.0
148
0.0
149
0.0
100
AcDbLayout
  1
Model
 70
     1
 71
     0
 10
0.0
 20
0.0
 11
0.0
 21
0.0
 12
0.0
 22
0.0
 32
0.0
 14
0.0
 24
0.0
 34
0.0
 15
0.0
 25
0.0
 35
0.0
146
0.0
 13
0.0
 23
0.0
 33
0.0
 16
1.0
 26
0.0
 36
0.0
 17
0.0
 27
1.0
 37
0.0
 76
     0
330
18
  0
MLINESTYLE
  5
1C
102
{ACAD_REACTORS
330
1B
102
}
330
1B
100
AcDbMlineStyle
  2
STANDARD
 70
     0
  3

 62
   256
 51
90.0
 52
90.0
 71
     2
 49
0.5
 62
   256
  6
BYLAYER
 49
-0.5
 62
   256
  6
BYLAYER
  0
ENDSEC
  0
EOF
