  0
SECTION
  2
HEADER
  9
$ACADVER
  1
AC1014
  9
$HANDSEED
  5
FFFF
  9
$MEASUREMENT
 70
     1
  0
ENDSEC
  0
SECTION
  2
TABLES
  0
TABLE
  2
VPORT
  5
8
330
0
100
AcDbSymbolTable
 70
     4
  0
VPORT
  5
2E
330
8
100
AcDbSymbolTableRecord
100
AcDbViewportTableRecord
  2
*ACTIVE
 70
     0
 10
0.0
 20
0.0
 11
1.0
 21
1.0
 12
210.0
 22
148.5
 13
0.0
 23
0.0
 14
10.0
 24
10.0
 15
10.0
 25
10.0
 16
0.0
 26
0.0
 36
1.0
 17
0.0
 27
0.0
 37
0.0
 40
341.0
 41
1.24
 42
50.0
 43
0.0
 44
0.0
 50
0.0
 51
0.0
 71
     0
 72
   100
 73
     1
 74
     3
 75
     0
 76
     0
 77
     0
 78
     0
  0
ENDTAB
  0
TABLE
  2
LTYPE
  5
5
330
0
100
AcDbSymbolTable
 70
     1
  0
LTYPE
  5
14
330
5
100
AcDbSymbolTableRecord
100
AcDbLinetypeTableRecord
  2
BYBLOCK
 70
     0
  3

 72
    65
 73
     0
 40
0.0
  0
LTYPE
  5
15
330
5
100
AcDbSymbolTableRecord
100
AcDbLinetypeTableRecord
  2
BYLAYER
 70
     0
  3

 72
    65
 73
     0
 40
0.0
  0
LTYPE
  5
16
330
5
100
AcDbSymbolTableRecord
100
AcDbLinetypeTableRecord
  2
CONTINUOUS
 70
     0
  3
Solid line
 72
    65
 73
     0
 40
0.0
  0
ENDTAB
  0
TABLE
  2
LAYER
  5
2
100
AcDbSymbolTable
 70
1
  0
LAYER
  5
50
100
AcDbSymbolTableRecord
100
AcDbLayerTableRecord
  2
0
 70
0
  6
CONTINUOUS
  0
ENDTAB
  0
TABLE
  2
STYLE
  5
3
330
0
100
AcDbSymbolTable
 70
     1
  0
STYLE
  5
11
330
3
100
AcDbSymbolTableRecord
100
AcDbTextStyleTableRecord
  2
STANDARD
 70
     0
 40
0.0
 41
1.0
 50
0.0
 71
     0
 42
2.5
  3
txt
  4

  0
ENDTAB
  0
TABLE
  2
VIEW
  5
6
330
0
100
AcDbSymbolTable
 70
     0
  0
ENDTAB
  0
TABLE
  2
UCS
  5
7
330
0
100
AcDbSymbolTable
 70
     0
  0
ENDTAB
  0
TABLE
  2
APPID
  5
9
330
0
100
AcDbSymbolTable
 70
     2
  0
APPID
  5
12
330
9
100
AcDbSymbolTableRecord
100
AcDbRegAppTableRecord
  2
ACAD
 70
     0
  0
ENDTAB
  0
TABLE
  2
DIMSTYLE
  5
A
330
0
100
AcDbSymbolTable
 70
     1
  0
DIMSTYLE
105
27
330
A
100
AcDbSymbolTableRecord
100
AcDbDimStyleTableRecord
  2
ISO-25
 70
     0
  3

  4

  5

  6

  7

 40
1.0
 41
2.5
 42
0.625
 43
3.75
 44
1.25
 45
0.0
 46
0.0
 47
0.0
 48
0.0
140
2.5
141
2.5
142
0.0
143
0.03937007874016
144
1.0
145
0.0
146
1.0
147
0.625
 71
     0
 72
     0
 73
     0
 74
     0
 75
     0
 76
     0
 77
     1
 78
     8
170
     0
171
     3
172
     1
173
     0
174
     0
175
     0
176
     0
177
     0
178
     0
270
     2
271
     2
272
     2
273
     2
274
     3
340
11
275
     0
280
     0
281
     0
282
     0
283
     0
284
     8
285
     0
286
     0
287
     3
288
     0
  0
ENDTAB
  0
TABLE
  2
BLOCK_RECORD
  5
1
330
0
100
AcDbSymbolTable
 70
     1
  0
BLOCK_RECORD
  5
1F
330
1
100
AcDbSymbolTableRecord
100
AcDbBlockTableRecord
  2
*MODEL_SPACE
  0
BLOCK_RECORD
  5
1B
330
1
100
AcDbSymbolTableRecord
100
AcDbBlockTableRecord
  2
*PAPER_SPACE
  0
ENDTAB
  0
ENDSEC
  0
SECTION
  2
BLOCKS
  0
BLOCK
  5
20
330
1F
100
AcDbEntity
  8
0
100
AcDbBlockBegin
  2
*MODEL_SPACE
 70
     0
 10
0.0
 20
0.0
 30
0.0
  3
*MODEL_SPACE
  1

  0
ENDBLK
  5
21
330
1F
100
AcDbEntity
  8
0
100
AcDbBlockEnd
  0
BLOCK
  5
1C
330
1B
100
AcDbEntity
 67
     1
  8
0
100
AcDbBlockBegin
  2
*PAPER_SPACE
  1

  0
ENDBLK
  5
1D
330
1B
100
AcDbEntity
 67
     1
  8
0
100
AcDbBlockEnd
  0
ENDSEC
  0
SECTION
  2
ENTITIES
  0
LWPOLYLINE
  5
100
100
AcDbEntity
  8
0
 62
7
100
AcDbPolyline
 90
5
 70
1
 10
44.881247
 20
961.131876
 30
0.0
 10
121.838199
 20
961.131876
 30
0.0
 10
121.838199
 20
866.586836
 30
0.0
 10
44.881247
 20
866.586836
 30
0.0
 10
44.881247
 20
961.131876
 30
0.0
  0
LWPOLYLINE
  5
101
100
AcDbEntity
  8
0
 62
7
100
AcDbPolyline
 90
5
 70
1
 10
44.881247
 20
837.931876
 30
0.0
 10
121.838199
 20
837.931876
 30
0.0
 10
121.838199
 20
743.386836
 30
0.0
 10
44.881247
 20
743.386836
 30
0.0
 10
44.881247
 20
837.931876
 30
0.0
  0
LWPOLYLINE
  5
102
100
AcDbEntity
  8
0
 62
7
100
AcDbPolyline
 90
5
 70
1
 10
44.881247
 20
716.331900
 30
0.0
 10
121.838199
 20
716.331900
 30
0.0
 10
121.838199
 20
621.786860
 30
0.0
 10
44.881247
 20
621.786860
 30
0.0
 10
44.881247
 20
716.331900
 30
0.0
  0
LWPOLYLINE
  5
103
100
AcDbEntity
  8
0
 62
7
100
AcDbPolyline
 90
5
 70
1
 10
40.717624
 20
1078.671332
 30
0.0
 10
64.595996
 20
1078.671332
 30
0.0
 10
64.595996
 20
1037.052356
 30
0.0
 10
40.717624
 20
1037.052356
 30
0.0
 10
40.717624
 20
1078.671332
 30
0.0
  0
LWPOLYLINE
  5
104
100
AcDbEntity
  8
0
 62
7
100
AcDbPolyline
 90
5
 70
1
 10
72.717621
 20
1078.671332
 30
0.0
 10
96.595993
 20
1078.671332
 30
0.0
 10
96.595993
 20
1037.052356
 30
0.0
 10
72.717621
 20
1037.052356
 30
0.0
 10
72.717621
 20
1078.671332
 30
0.0
  0
LWPOLYLINE
  5
105
100
AcDbEntity
  8
0
 62
7
100
AcDbPolyline
 90
5
 70
1
 10
104.717624
 20
1078.671332
 30
0.0
 10
128.595996
 20
1078.671332
 30
0.0
 10
128.595996
 20
1037.052356
 30
0.0
 10
104.717624
 20
1037.052356
 30
0.0
 10
104.717624
 20
1078.671332
 30
0.0
  0
LWPOLYLINE
  5
106
100
AcDbEntity
  8
0
 62
7
100
AcDbPolyline
 90
5
 70
1
 10
40.717624
 20
1027.471332
 30
0.0
 10
64.595996
 20
1027.471332
 30
0.0
 10
64.595996
 20
985.852356
 30
0.0
 10
40.717624
 20
985.852356
 30
0.0
 10
40.717624
 20
1027.471332
 30
0.0
  0
LWPOLYLINE
  5
107
100
AcDbEntity
  8
0
 62
7
100
AcDbPolyline
 90
5
 70
1
 10
72.717621
 20
1027.471332
 30
0.0
 10
96.595993
 20
1027.471332
 30
0.0
 10
96.595993
 20
985.852356
 30
0.0
 10
72.717621
 20
985.852356
 30
0.0
 10
72.717621
 20
1027.471332
 30
0.0
  0
LWPOLYLINE
  5
108
100
AcDbEntity
  8
0
 62
7
100
AcDbPolyline
 90
5
 70
1
 10
104.717624
 20
1027.471332
 30
0.0
 10
128.595996
 20
1027.471332
 30
0.0
 10
128.595996
 20
985.852356
 30
0.0
 10
104.717624
 20
985.852356
 30
0.0
 10
104.717624
 20
1027.471332
 30
0.0
  0
LWPOLYLINE
  5
109
100
AcDbEntity
  8
0
 62
7
100
AcDbPolyline
 90
5
 70
1
 10
204.881248
 20
961.131876
 30
0.0
 10
281.838200
 20
961.131876
 30
0.0
 10
281.838200
 20
866.586836
 30
0.0
 10
204.881248
 20
866.586836
 30
0.0
 10
204.881248
 20
961.131876
 30
0.0
  0
LWPOLYLINE
  5
10a
100
AcDbEntity
  8
0
 62
7
100
AcDbPolyline
 90
5
 70
1
 10
204.881248
 20
837.931876
 30
0.0
 10
281.838200
 20
837.931876
 30
0.0
 10
281.838200
 20
743.386836
 30
0.0
 10
204.881248
 20
743.386836
 30
0.0
 10
204.881248
 20
837.931876
 30
0.0
  0
LWPOLYLINE
  5
10b
100
AcDbEntity
  8
0
 62
7
100
AcDbPolyline
 90
5
 70
1
 10
204.881248
 20
716.331900
 30
0.0
 10
281.838200
 20
716.331900
 30
0.0
 10
281.838200
 20
621.786860
 30
0.0
 10
204.881248
 20
621.786860
 30
0.0
 10
204.881248
 20
716.331900
 30
0.0
  0
LWPOLYLINE
  5
10c
100
AcDbEntity
  8
0
 62
7
100
AcDbPolyline
 90
5
 70
1
 10
200.717624
 20
1078.671332
 30
0.0
 10
224.595996
 20
1078.671332
 30
0.0
 10
224.595996
 20
1037.052356
 30
0.0
 10
200.717624
 20
1037.052356
 30
0.0
 10
200.717624
 20
1078.671332
 30
0.0
  0
LWPOLYLINE
  5
10d
100
AcDbEntity
  8
0
 62
7
100
AcDbPolyline
 90
5
 70
1
 10
232.717624
 20
1078.671332
 30
0.0
 10
256.595996
 20
1078.671332
 30
0.0
 10
256.595996
 20
1037.052356
 30
0.0
 10
232.717624
 20
1037.052356
 30
0.0
 10
232.717624
 20
1078.671332
 30
0.0
  0
LWPOLYLINE
  5
10e
100
AcDbEntity
  8
0
 62
7
100
AcDbPolyline
 90
5
 70
1
 10
264.717624
 20
1078.671332
 30
0.0
 10
288.595996
 20
1078.671332
 30
0.0
 10
288.595996
 20
1037.052356
 30
0.0
 10
264.717624
 20
1037.052356
 30
0.0
 10
264.717624
 20
1078.671332
 30
0.0
  0
LWPOLYLINE
  5
10f
100
AcDbEntity
  8
0
 62
7
100
AcDbPolyline
 90
5
 70
1
 10
200.717624
 20
1027.471332
 30
0.0
 10
224.595996
 20
1027.471332
 30
0.0
 10
224.595996
 20
985.852356
 30
0.0
 10
200.717624
 20
985.852356
 30
0.0
 10
200.717624
 20
1027.471332
 30
0.0
  0
LWPOLYLINE
  5
110
100
AcDbEntity
  8
0
 62
7
100
AcDbPolyline
 90
5
 70
1
 10
232.717624
 20
1027.471332
 30
0.0
 10
256.595996
 20
1027.471332
 30
0.0
 10
256.595996
 20
985.852356
 30
0.0
 10
232.717624
 20
985.852356
 30
0.0
 10
232.717624
 20
1027.471332
 30
0.0
  0
LWPOLYLINE
  5
111
100
AcDbEntity
  8
0
 62
7
100
AcDbPolyline
 90
5
 70
1
 10
264.717624
 20
1027.471332
 30
0.0
 10
288.595996
 20
1027.471332
 30
0.0
 10
288.595996
 20
985.852356
 30
0.0
 10
264.717624
 20
985.852356
 30
0.0
 10
264.717624
 20
1027.471332
 30
0.0
  0
LWPOLYLINE
  5
112
100
AcDbEntity
  8
0
 62
7
100
AcDbPolyline
 90
5
 70
1
 10
28.675821
 20
1122.968491
 30
0.0
 10
300.121621
 20
1122.968491
 30
0.0
 10
300.121621
 20
1103.413520
 30
0.0
 10
28.675821
 20
1103.413520
 30
0.0
 10
28.675821
 20
1122.968491
 30
0.0
  0
LWPOLYLINE
  5
113
100
AcDbEntity
  8
0
 62
7
100
AcDbPolyline
 90
5
 70
1
 10
160.743504
 20
1079.281300
 30
0.0
 10
168.117484
 20
1079.281300
 30
0.0
 10
168.117484
 20
617.255228
 30
0.0
 10
160.743504
 20
617.255228
 30
0.0
 10
160.743504
 20
1079.281300
 30
0.0
  0
LWPOLYLINE
  5
114
100
AcDbEntity
  8
0
 62
7
100
AcDbPolyline
 90
73
 70
1
 10
1007.620748
 20
1151.743593
 30
0.0
 10
1007.620748
 20
1143.239649
 30
0.0
 10
1060.061736
 20
1143.239649
 30
0.0
 10
1060.061736
 20
1151.743593
 30
0.0
 10
1094.077512
 20
1151.743593
 30
0.0
 10
1094.077512
 20
1143.239649
 30
0.0
 10
1128.093288
 20
1143.239649
 30
0.0
 10
1128.093288
 20
1151.743593
 30
0.0
 10
1162.109064
 20
1151.743593
 30
0.0
 10
1162.109064
 20
1143.239649
 30
0.0
 10
1214.550048
 20
1143.239649
 30
0.0
 10
1214.550048
 20
1151.743593
 30
0.0
 10
1266.991040
 20
1151.743593
 30
0.0
 10
1266.991040
 20
1103.554577
 30
0.0
 10
1258.487096
 20
1103.554577
 30
0.0
 10
1258.487096
 20
1055.365561
 30
0.0
 10
1266.991040
 20
1055.365561
 30
0.0
 10
1266.991040
 20
1021.349785
 30
0.0
 10
1258.487096
 20
1021.349785
 30
0.0
 10
1258.487096
 20
987.334009
 30
0.0
 10
1266.991040
 20
987.334009
 30
0.0
 10
1266.991040
 20
953.318233
 30
0.0
 10
1258.487096
 20
953.318233
 30
0.0
 10
1258.487096
 20
919.302457
 30
0.0
 10
1266.991040
 20
919.302457
 30
0.0
 10
1266.991040
 20
885.286681
 30
0.0
 10
1258.487096
 20
885.286681
 30
0.0
 10
1258.487096
 20
851.270905
 30
0.0
 10
1266.991040
 20
851.270905
 30
0.0
 10
1266.991040
 20
817.255129
 30
0.0
 10
1258.487096
 20
817.255129
 30
0.0
 10
1258.487096
 20
783.239353
 30
0.0
 10
1266.991040
 20
783.239353
 30
0.0
 10
1266.991040
 20
749.223577
 30
0.0
 10
1258.487096
 20
749.223577
 30
0.0
 10
1258.487096
 20
715.207801
 30
0.0
 10
1266.991040
 20
715.207801
 30
0.0
 10
1266.991040
 20
681.192025
 30
0.0
 10
1258.487096
 20
681.192025
 30
0.0
 10
1258.487096
 20
633.003009
 30
0.0
 10
1266.991040
 20
633.003009
 30
0.0
 10
1266.991040
 20
584.813993
 30
0.0
 10
955.179760
 20
584.813993
 30
0.0
 10
955.179760
 20
633.003009
 30
0.0
 10
963.683704
 20
633.003009
 30
0.0
 10
963.683704
 20
681.192025
 30
0.0
 10
955.179760
 20
681.192025
 30
0.0
 10
955.179760
 20
715.207801
 30
0.0
 10
963.683704
 20
715.207801
 30
0.0
 10
963.683704
 20
749.223577
 30
0.0
 10
955.179760
 20
749.223577
 30
0.0
 10
955.179760
 20
783.239353
 30
0.0
 10
963.683704
 20
783.239353
 30
0.0
 10
963.683704
 20
817.255129
 30
0.0
 10
955.179760
 20
817.255129
 30
0.0
 10
955.179760
 20
851.270905
 30
0.0
 10
963.683704
 20
851.270905
 30
0.0
 10
963.683704
 20
885.286681
 30
0.0
 10
955.179760
 20
885.286681
 30
0.0
 10
955.179760
 20
919.302457
 30
0.0
 10
963.683704
 20
919.302457
 30
0.0
 10
963.683704
 20
953.318233
 30
0.0
 10
955.179760
 20
953.318233
 30
0.0
 10
955.179760
 20
987.334009
 30
0.0
 10
963.683704
 20
987.334009
 30
0.0
 10
963.683704
 20
1021.349785
 30
0.0
 10
955.179760
 20
1021.349785
 30
0.0
 10
955.179760
 20
1055.365561
 30
0.0
 10
963.683704
 20
1055.365561
 30
0.0
 10
963.683704
 20
1103.554577
 30
0.0
 10
955.179760
 20
1103.554577
 30
0.0
 10
955.179760
 20
1151.743593
 30
0.0
 10
1007.620748
 20
1151.743593
 30
0.0
  0
LWPOLYLINE
  5
115
100
AcDbEntity
  8
0
 62
7
100
AcDbPolyline
 90
73
 70
1
 10
329.811295
 20
1151.858253
 30
0.0
 10
382.252283
 20
1151.858253
 30
0.0
 10
382.252283
 20
1143.354309
 30
0.0
 10
434.693271
 20
1143.354309
 30
0.0
 10
434.693271
 20
1151.858253
 30
0.0
 10
468.709047
 20
1151.858253
 30
0.0
 10
468.709047
 20
1143.354309
 30
0.0
 10
502.724823
 20
1143.354309
 30
0.0
 10
502.724823
 20
1151.858253
 30
0.0
 10
536.740599
 20
1151.858253
 30
0.0
 10
536.740599
 20
1143.354309
 30
0.0
 10
589.181583
 20
1143.354309
 30
0.0
 10
589.181583
 20
1151.858253
 30
0.0
 10
641.622575
 20
1151.858253
 30
0.0
 10
641.622575
 20
1103.669237
 30
0.0
 10
633.118631
 20
1103.669237
 30
0.0
 10
633.118631
 20
1055.480221
 30
0.0
 10
641.622575
 20
1055.480221
 30
0.0
 10
641.622575
 20
1021.464445
 30
0.0
 10
633.118631
 20
1021.464445
 30
0.0
 10
633.118631
 20
987.448669
 30
0.0
 10
641.622575
 20
987.448669
 30
0.0
 10
641.622575
 20
953.432893
 30
0.0
 10
633.118631
 20
953.432893
 30
0.0
 10
633.118631
 20
919.417117
 30
0.0
 10
641.622575
 20
919.417117
 30
0.0
 10
641.622575
 20
885.401341
 30
0.0
 10
633.118631
 20
885.401341
 30
0.0
 10
633.118631
 20
851.385565
 30
0.0
 10
641.622575
 20
851.385565
 30
0.0
 10
641.622575
 20
817.369789
 30
0.0
 10
633.118631
 20
817.369789
 30
0.0
 10
633.118631
 20
783.354013
 30
0.0
 10
641.622575
 20
783.354013
 30
0.0
 10
641.622575
 20
749.338237
 30
0.0
 10
633.118631
 20
749.338237
 30
0.0
 10
633.118631
 20
715.322461
 30
0.0
 10
641.622575
 20
715.322461
 30
0.0
 10
641.622575
 20
681.306685
 30
0.0
 10
633.118631
 20
681.306685
 30
0.0
 10
633.118631
 20
633.117669
 30
0.0
 10
641.622575
 20
633.117669
 30
0.0
 10
641.622575
 20
584.928653
 30
0.0
 10
329.811295
 20
584.928653
 30
0.0
 10
329.811295
 20
633.117669
 30
0.0
 10
338.315239
 20
633.117669
 30
0.0
 10
338.315239
 20
681.306685
 30
0.0
 10
329.811295
 20
681.306685
 30
0.0
 10
329.811295
 20
715.322461
 30
0.0
 10
338.315239
 20
715.322461
 30
0.0
 10
338.315239
 20
749.338237
 30
0.0
 10
329.811295
 20
749.338237
 30
0.0
 10
329.811295
 20
783.354013
 30
0.0
 10
338.315239
 20
783.354013
 30
0.0
 10
338.315239
 20
817.369789
 30
0.0
 10
329.811295
 20
817.369789
 30
0.0
 10
329.811295
 20
851.385565
 30
0.0
 10
338.315239
 20
851.385565
 30
0.0
 10
338.315239
 20
885.401341
 30
0.0
 10
329.811295
 20
885.401341
 30
0.0
 10
329.811295
 20
919.417117
 30
0.0
 10
338.315239
 20
919.417117
 30
0.0
 10
338.315239
 20
953.432893
 30
0.0
 10
329.811295
 20
953.432893
 30
0.0
 10
329.811295
 20
987.448669
 30
0.0
 10
338.315239
 20
987.448669
 30
0.0
 10
338.315239
 20
1021.464445
 30
0.0
 10
329.811295
 20
1021.464445
 30
0.0
 10
329.811295
 20
1055.480221
 30
0.0
 10
338.315239
 20
1055.480221
 30
0.0
 10
338.315239
 20
1103.669237
 30
0.0
 10
329.811295
 20
1103.669237
 30
0.0
 10
329.811295
 20
1151.858253
 30
0.0
  0
LWPOLYLINE
  5
116
100
AcDbEntity
  8
0
 62
7
100
AcDbPolyline
 90
73
 70
1
 10
650.126519
 20
1151.858253
 30
0.0
 10
694.063563
 20
1151.858253
 30
0.0
 10
694.063563
 20
1143.354309
 30
0.0
 10
746.504551
 20
1143.354309
 30
0.0
 10
746.504551
 20
1151.858253
 30
0.0
 10
780.520327
 20
1151.858253
 30
0.0
 10
780.520327
 20
1143.354309
 30
0.0
 10
814.536103
 20
1143.354309
 30
0.0
 10
814.536103
 20
1151.858253
 30
0.0
 10
848.551879
 20
1151.858253
 30
0.0
 10
848.551879
 20
1143.354309
 30
0.0
 10
900.992863
 20
1143.354309
 30
0.0
 10
900.992863
 20
1151.858253
 30
0.0
 10
944.929911
 20
1151.858253
 30
0.0
 10
944.929911
 20
1103.669237
 30
0.0
 10
953.433855
 20
1103.669237
 30
0.0
 10
953.433855
 20
1055.480221
 30
0.0
 10
944.929911
 20
1055.480221
 30
0.0
 10
944.929911
 20
1021.464445
 30
0.0
 10
953.433855
 20
1021.464445
 30
0.0
 10
953.433855
 20
987.448669
 30
0.0
 10
944.929911
 20
987.448669
 30
0.0
 10
944.929911
 20
953.432893
 30
0.0
 10
953.433855
 20
953.432893
 30
0.0
 10
953.433855
 20
919.417117
 30
0.0
 10
944.929911
 20
919.417117
 30
0.0
 10
944.929911
 20
885.401341
 30
0.0
 10
953.433855
 20
885.401341
 30
0.0
 10
953.433855
 20
851.385565
 30
0.0
 10
944.929911
 20
851.385565
 30
0.0
 10
944.929911
 20
817.369789
 30
0.0
 10
953.433855
 20
817.369789
 30
0.0
 10
953.433855
 20
783.354013
 30
0.0
 10
944.929911
 20
783.354013
 30
0.0
 10
944.929911
 20
749.338237
 30
0.0
 10
953.433855
 20
749.338237
 30
0.0
 10
953.433855
 20
715.322461
 30
0.0
 10
944.929911
 20
715.322461
 30
0.0
 10
944.929911
 20
681.306685
 30
0.0
 10
953.433855
 20
681.306685
 30
0.0
 10
953.433855
 20
633.117669
 30
0.0
 10
944.929911
 20
633.117669
 30
0.0
 10
944.929911
 20
584.928653
 30
0.0
 10
650.126519
 20
584.928653
 30
0.0
 10
650.126519
 20
633.117669
 30
0.0
 10
641.622575
 20
633.117669
 30
0.0
 10
641.622575
 20
681.306685
 30
0.0
 10
650.126519
 20
681.306685
 30
0.0
 10
650.126519
 20
715.322461
 30
0.0
 10
641.622575
 20
715.322461
 30
0.0
 10
641.622575
 20
749.338237
 30
0.0
 10
650.126519
 20
749.338237
 30
0.0
 10
650.126519
 20
783.354013
 30
0.0
 10
641.622575
 20
783.354013
 30
0.0
 10
641.622575
 20
817.369789
 30
0.0
 10
650.126519
 20
817.369789
 30
0.0
 10
650.126519
 20
851.385565
 30
0.0
 10
641.622575
 20
851.385565
 30
0.0
 10
641.622575
 20
885.401341
 30
0.0
 10
650.126519
 20
885.401341
 30
0.0
 10
650.126519
 20
919.417117
 30
0.0
 10
641.622575
 20
919.417117
 30
0.0
 10
641.622575
 20
953.432893
 30
0.0
 10
650.126519
 20
953.432893
 30
0.0
 10
650.126519
 20
987.448669
 30
0.0
 10
641.622575
 20
987.448669
 30
0.0
 10
641.622575
 20
1021.464445
 30
0.0
 10
650.126519
 20
1021.464445
 30
0.0
 10
650.126519
 20
1055.480221
 30
0.0
 10
641.622575
 20
1055.480221
 30
0.0
 10
641.622575
 20
1103.669237
 30
0.0
 10
650.126519
 20
1103.669237
 30
0.0
 10
650.126519
 20
1151.858253
 30
0.0
  0
LWPOLYLINE
  5
117
100
AcDbEntity
  8
0
 62
7
100
AcDbPolyline
 90
73
 70
1
 10
61.826895
 20
1151.683699
 30
0.0
 10
61.826895
 20
1143.179755
 30
0.0
 10
114.267883
 20
1143.179755
 30
0.0
 10
114.267883
 20
1151.683699
 30
0.0
 10
148.283659
 20
1151.683699
 30
0.0
 10
148.283659
 20
1143.179755
 30
0.0
 10
182.299435
 20
1143.179755
 30
0.0
 10
182.299435
 20
1151.683699
 30
0.0
 10
216.315211
 20
1151.683699
 30
0.0
 10
216.315211
 20
1143.179755
 30
0.0
 10
268.756195
 20
1143.179755
 30
0.0
 10
268.756195
 20
1151.683699
 30
0.0
 10
312.693243
 20
1151.683699
 30
0.0
 10
312.693243
 20
1103.494683
 30
0.0
 10
321.197187
 20
1103.494683
 30
0.0
 10
321.197187
 20
1055.305667
 30
0.0
 10
312.693243
 20
1055.305667
 30
0.0
 10
312.693243
 20
1021.289891
 30
0.0
 10
321.197187
 20
1021.289891
 30
0.0
 10
321.197187
 20
987.274115
 30
0.0
 10
312.693243
 20
987.274115
 30
0.0
 10
312.693243
 20
953.258339
 30
0.0
 10
321.197187
 20
953.258339
 30
0.0
 10
321.197187
 20
919.242563
 30
0.0
 10
312.693243
 20
919.242563
 30
0.0
 10
312.693243
 20
885.226787
 30
0.0
 10
321.197187
 20
885.226787
 30
0.0
 10
321.197187
 20
851.211011
 30
0.0
 10
312.693243
 20
851.211011
 30
0.0
 10
312.693243
 20
817.195235
 30
0.0
 10
321.197187
 20
817.195235
 30
0.0
 10
321.197187
 20
783.179459
 30
0.0
 10
312.693243
 20
783.179459
 30
0.0
 10
312.693243
 20
749.163683
 30
0.0
 10
321.197187
 20
749.163683
 30
0.0
 10
321.197187
 20
715.147907
 30
0.0
 10
312.693243
 20
715.147907
 30
0.0
 10
312.693243
 20
681.132131
 30
0.0
 10
321.197187
 20
681.132131
 30
0.0
 10
321.197187
 20
632.943115
 30
0.0
 10
312.693243
 20
632.943115
 30
0.0
 10
312.693243
 20
584.754099
 30
0.0
 10
17.889851
 20
584.754099
 30
0.0
 10
17.889851
 20
632.943115
 30
0.0
 10
9.385907
 20
632.943115
 30
0.0
 10
9.385907
 20
681.132131
 30
0.0
 10
17.889851
 20
681.132131
 30
0.0
 10
17.889851
 20
715.147907
 30
0.0
 10
9.385907
 20
715.147907
 30
0.0
 10
9.385907
 20
749.163683
 30
0.0
 10
17.889851
 20
749.163683
 30
0.0
 10
17.889851
 20
783.179459
 30
0.0
 10
9.385907
 20
783.179459
 30
0.0
 10
9.385907
 20
817.195235
 30
0.0
 10
17.889851
 20
817.195235
 30
0.0
 10
17.889851
 20
851.211011
 30
0.0
 10
9.385907
 20
851.211011
 30
0.0
 10
9.385907
 20
885.226787
 30
0.0
 10
17.889851
 20
885.226787
 30
0.0
 10
17.889851
 20
919.242563
 30
0.0
 10
9.385907
 20
919.242563
 30
0.0
 10
9.385907
 20
953.258339
 30
0.0
 10
17.889851
 20
953.258339
 30
0.0
 10
17.889851
 20
987.274115
 30
0.0
 10
9.385907
 20
987.274115
 30
0.0
 10
9.385907
 20
1021.289891
 30
0.0
 10
17.889851
 20
1021.289891
 30
0.0
 10
17.889851
 20
1055.305667
 30
0.0
 10
9.385907
 20
1055.305667
 30
0.0
 10
9.385907
 20
1103.494683
 30
0.0
 10
17.889851
 20
1103.494683
 30
0.0
 10
17.889851
 20
1151.683699
 30
0.0
 10
61.826895
 20
1151.683699
 30
0.0
  0
LWPOLYLINE
  5
118
100
AcDbEntity
  8
0
 62
7
100
AcDbPolyline
 90
53
 70
1
 10
529.676711
 20
444.717708
 30
0.0
 10
529.676711
 20
453.221652
 30
0.0
 10
563.692487
 20
453.221652
 30
0.0
 10
563.692487
 20
444.717708
 30
0.0
 10
597.708263
 20
444.717708
 30
0.0
 10
597.708263
 20
453.221652
 30
0.0
 10
650.149247
 20
453.221652
 30
0.0
 10
650.149247
 20
444.717708
 30
0.0
 10
694.086295
 20
444.717708
 30
0.0
 10
694.086295
 20
400.780664
 30
0.0
 10
702.590239
 20
400.780664
 30
0.0
 10
702.590239
 20
348.339676
 30
0.0
 10
694.086295
 20
348.339676
 30
0.0
 10
694.086295
 20
314.323900
 30
0.0
 10
702.590239
 20
314.323900
 30
0.0
 10
702.590239
 20
280.308124
 30
0.0
 10
694.086295
 20
280.308124
 30
0.0
 10
694.086295
 20
246.292348
 30
0.0
 10
702.590239
 20
246.292348
 30
0.0
 10
702.590239
 20
193.851364
 30
0.0
 10
694.086295
 20
193.851364
 30
0.0
 10
694.086295
 20
149.914316
 30
0.0
 10
650.149247
 20
149.914316
 30
0.0
 10
650.149247
 20
141.410372
 30
0.0
 10
597.708263
 20
141.410372
 30
0.0
 10
597.708263
 20
149.914316
 30
0.0
 10
563.692487
 20
149.914316
 30
0.0
 10
563.692487
 20
141.410372
 30
0.0
 10
529.676711
 20
141.410372
 30
0.0
 10
529.676711
 20
149.914316
 30
0.0
 10
495.660935
 20
149.914316
 30
0.0
 10
495.660935
 20
141.410372
 30
0.0
 10
443.219947
 20
141.410372
 30
0.0
 10
443.219947
 20
149.914316
 30
0.0
 10
399.282903
 20
149.914316
 30
0.0
 10
399.282903
 20
193.851364
 30
0.0
 10
390.778959
 20
193.851364
 30
0.0
 10
390.778959
 20
246.292348
 30
0.0
 10
399.282903
 20
246.292348
 30
0.0
 10
399.282903
 20
280.308124
 30
0.0
 10
390.778959
 20
280.308124
 30
0.0
 10
390.778959
 20
314.323900
 30
0.0
 10
399.282903
 20
314.323900
 30
0.0
 10
399.282903
 20
348.339676
 30
0.0
 10
390.778959
 20
348.339676
 30
0.0
 10
390.778959
 20
400.780664
 30
0.0
 10
399.282903
 20
400.780664
 30
0.0
 10
399.282903
 20
444.717708
 30
0.0
 10
443.219947
 20
444.717708
 30
0.0
 10
443.219947
 20
453.221652
 30
0.0
 10
495.660935
 20
453.221652
 30
0.0
 10
495.660935
 20
444.717708
 30
0.0
 10
529.676711
 20
444.717708
 30
0.0
  0
LWPOLYLINE
  5
119
100
AcDbEntity
  8
0
 62
7
100
AcDbPolyline
 90
2
 70
1
 10
588.170783
 20
297.918044
 30
0.0
 10
588.170783
 20
297.918044
 30
0.0
  0
SPLINE
  5
11a
100
AcDbEntity
  8
0
 62
7
100
AcDbSpline
 70
0
 71
3
 72
22
 73
18
 74
16
 40
0.000000
 40
0.000000
 40
0.000000
 40
0.000000
 40
10.986430
 40
21.881944
 40
32.868374
 40
43.854804
 40
54.750318
 40
65.736748
 40
87.680621
 40
108.973645
 40
130.917517
 40
152.861387
 40
174.154409
 40
196.098279
 40
218.042152
 40
239.335176
 40
261.279049
 40
261.279049
 40
261.279049
 40
261.279049
 10
588.170783
 20
297.918044
 30
0.0
 10
587.891000
 20
294.245412
 30
0.0
 10
587.333749
 20
286.930542
 30
0.0
 10
582.930259
 20
276.693618
 30
0.0
 10
576.230168
 20
267.898852
 30
0.0
 10
567.424983
 20
261.154173
 30
0.0
 10
557.185115
 20
256.917736
 30
0.0
 10
542.564364
 20
254.964556
 30
0.0
 10
524.207156
 20
259.887726
 30
0.0
 10
508.182622
 20
275.943754
 30
0.0
 10
502.228709
 20
297.917608
 30
0.0
 10
508.180407
 20
319.894042
 30
0.0
 10
524.215832
 20
335.942475
 30
0.0
 10
546.240316
 20
341.888997
 30
0.0
 10
568.035896
 20
335.942507
 30
0.0
 10
584.744464
 20
319.893933
 30
0.0
 10
587.017273
 20
305.316485
 30
0.0
 10
588.170783
 20
297.918044
 30
0.0
 11
588.170783
 21
297.918044
 31
0.0
 11
586.732904
 21
287.026113
 31
0.0
 11
582.563372
 21
276.959971
 31
0.0
 11
575.878349
 21
268.241478
 31
0.0
 11
567.159856
 21
261.556455
 31
0.0
 11
557.093714
 21
257.386923
 31
0.0
 11
546.201783
 21
255.949044
 31
0.0
 11
525.019228
 21
261.679044
 31
0.0
 11
509.962788
 21
276.735487
 31
0.0
 11
504.232791
 21
297.918044
 31
0.0
 11
509.962790
 21
319.100597
 31
0.0
 11
525.019230
 21
334.157037
 31
0.0
 11
546.201783
 21
339.887036
 31
0.0
 11
567.384339
 21
334.157039
 31
0.0
 11
582.440783
 21
319.100599
 31
0.0
 11
588.170783
 21
297.918044
 31
0.0
  0
LWPOLYLINE
  5
11b
100
AcDbEntity
  8
0
 62
7
100
AcDbPolyline
 90
3
 70
1
 10
427.764183
 20
416.357884
 30
0.0
 10
427.764183
 20
311.531324
 30
0.0
 10
482.221999
 20
311.531324
 30
0.0
  0
LWPOLYLINE
  5
11c
100
AcDbEntity
  8
0
 62
7
100
AcDbPolyline
 90
4
 70
1
 10
534.518871
 20
362.281324
 30
0.0
 10
534.518871
 20
416.357884
 30
0.0
 10
427.764183
 20
416.357884
 30
0.0
 10
427.764183
 20
416.357884
 30
0.0
  0
SPLINE
  5
11d
100
AcDbEntity
  8
0
 62
7
100
AcDbSpline
 70
0
 71
3
 72
10
 73
6
 74
4
 40
0.000000
 40
0.000000
 40
0.000000
 40
0.000000
 40
25.750472
 40
51.040296
 40
76.790770
 40
76.790770
 40
76.790770
 40
76.790770
 10
482.221999
 20
311.531324
 30
0.0
 10
485.007127
 20
319.734676
 30
0.0
 10
490.527559
 20
335.994632
 30
0.0
 10
509.817286
 20
354.713793
 30
0.0
 10
526.235616
 20
359.743682
 30
0.0
 10
534.518871
 20
362.281324
 30
0.0
 11
482.221999
 21
311.531324
 31
0.0
 11
492.435680
 21
335.169588
 31
0.0
 11
510.584683
 21
352.781768
 31
0.0
 11
534.518871
 21
362.281324
 31
0.0
  0
LWPOLYLINE
  5
11e
100
AcDbEntity
  8
0
 62
7
100
AcDbPolyline
 90
2
 70
1
 10
561.839191
 20
416.357884
 30
0.0
 10
561.839191
 20
361.379764
 30
0.0
  0
LWPOLYLINE
  5
11f
100
AcDbEntity
  8
0
 62
7
100
AcDbPolyline
 90
5
 70
1
 10
610.129815
 20
311.531324
 30
0.0
 10
665.195439
 20
311.531324
 30
0.0
 10
665.195439
 20
416.357884
 30
0.0
 10
561.839191
 20
416.357884
 30
0.0
 10
561.839191
 20
416.357884
 30
0.0
  0
SPLINE
  5
120
100
AcDbEntity
  8
0
 62
7
100
AcDbSpline
 70
0
 71
3
 72
10
 73
6
 74
4
 40
0.000000
 40
0.000000
 40
0.000000
 40
0.000000
 40
24.375279
 40
48.356567
 40
72.731843
 40
72.731843
 40
72.731843
 40
72.731843
 10
561.839191
 20
361.379764
 30
0.0
 10
569.524580
 20
358.543646
 30
0.0
 10
584.771134
 20
352.917253
 30
0.0
 10
602.399409
 20
334.720305
 30
0.0
 10
607.539055
 20
319.302856
 30
0.0
 10
610.129815
 20
311.531324
 30
0.0
 11
561.839191
 21
361.379764
 31
0.0
 11
583.999383
 21
351.226926
 31
0.0
 11
600.685439
 21
334.002591
 31
0.0
 11
610.129815
 21
311.531324
 31
0.0
  0
LWPOLYLINE
  5
121
100
AcDbEntity
  8
0
 62
7
100
AcDbPolyline
 90
3
 70
1
 10
427.764183
 20
284.209452
 30
0.0
 10
427.764183
 20
179.382885
 30
0.0
 10
534.518871
 20
179.382885
 30
0.0
  0
SPLINE
  5
122
100
AcDbEntity
  8
0
 62
7
100
AcDbSpline
 70
0
 71
3
 72
13
 73
9
 74
7
 40
0.000000
 40
0.000000
 40
0.000000
 40
0.000000
 40
14.051851
 40
40.148147
 40
54.199998
 40
79.895433
 40
105.133009
 40
130.828441
 40
130.828441
 40
130.828441
 40
130.828441
 10
534.518871
 20
179.382885
 30
0.0
 10
534.576694
 20
184.109021
 30
0.0
 10
534.741902
 20
197.612265
 30
0.0
 10
533.053240
 20
214.446957
 30
0.0
 10
538.147578
 20
240.111424
 30
0.0
 10
507.491656
 20
239.407827
 30
0.0
 10
491.222935
 20
260.252196
 30
0.0
 10
485.288010
 20
276.175985
 30
0.0
 10
482.293871
 20
284.209452
 30
0.0
 11
534.518871
 21
179.382885
 31
0.0
 11
534.518871
 21
193.434737
 31
0.0
 11
534.518871
 21
219.531032
 31
0.0
 11
534.518871
 21
233.582884
 31
0.0
 11
510.638749
 21
243.069460
 31
0.0
 11
492.517934
 21
260.635657
 31
0.0
 11
482.293871
 21
284.209452
 31
0.0
  0
LWPOLYLINE
  5
123
100
AcDbEntity
  8
0
 62
7
100
AcDbPolyline
 90
3
 70
1
 10
482.293871
 20
284.209452
 30
0.0
 10
427.764183
 20
284.209452
 30
0.0
 10
427.764183
 20
284.209452
 30
0.0
  0
LWPOLYLINE
  5
124
100
AcDbEntity
  8
0
 62
7
100
AcDbPolyline
 90
6
 70
1
 10
561.839191
 20
234.443820
 30
0.0
 10
561.839191
 20
179.382885
 30
0.0
 10
665.195439
 20
179.382885
 30
0.0
 10
665.195439
 20
284.209452
 30
0.0
 10
610.156375
 20
284.209452
 30
0.0
 10
610.156375
 20
284.209452
 30
0.0
  0
LWPOLYLINE
  5
125
100
AcDbEntity
  8
0
 62
5
100
AcDbPolyline
 90
14
 70
1
 10
33.181480
 20
481.019631
 30
0.0
 10
33.210360
 20
499.545523
 30
0.0
 10
157.987200
 20
521.673489
 30
0.0
 10
158.248608
 20
529.609865
 30
0.0
 10
164.933720
 20
529.572689
 30
0.0
 10
164.635128
 20
555.753081
 30
0.0
 10
178.528128
 20
560.851138
 30
0.0
 10
192.011032
 20
555.323198
 30
0.0
 10
191.581160
 20
529.815510
 30
0.0
 10
199.554704
 20
529.572689
 30
0.0
 10
200.096104
 20
521.374905
 30
0.0
 10
326.329880
 20
499.339873
 30
0.0
 10
326.145344
 20
481.565430
 30
0.0
 10
33.181480
 20
481.019631
 30
0.0
  0
LWPOLYLINE
  5
126
100
AcDbEntity
  8
0
 62
5
100
AcDbPolyline
 90
5
 70
1
 10
172.892672
 20
551.263799
 30
0.0
 10
184.394640
 20
551.263799
 30
0.0
 10
184.394640
 20
532.703805
 30
0.0
 10
172.892672
 20
532.703805
 30
0.0
 10
172.892672
 20
551.263799
 30
0.0
  0
LWPOLYLINE
  5
127
100
AcDbEntity
  8
0
 62
7
100
AcDbPolyline
 90
5
 70
1
 10
27.037506
 20
149.777388
 30
0.0
 10
346.989946
 20
149.777388
 30
0.0
 10
346.989946
 20
125.810381
 30
0.0
 10
27.037506
 20
125.810381
 30
0.0
 10
27.037506
 20
149.777388
 30
0.0
  0
LWPOLYLINE
  5
128
100
AcDbEntity
  8
0
 62
7
100
AcDbPolyline
 90
5
 70
1
 10
25.604872
 20
460.193450
 30
0.0
 10
345.519688
 20
460.193450
 30
0.0
 10
345.519688
 20
416.010729
 30
0.0
 10
25.604872
 20
416.010729
 30
0.0
 10
25.604872
 20
460.193450
 30
0.0
  0
LWPOLYLINE
  5
129
100
AcDbEntity
  8
0
 62
7
100
AcDbPolyline
 90
5
 70
1
 10
54.552776
 20
446.212667
 30
0.0
 10
325.998576
 20
446.212667
 30
0.0
 10
325.998576
 20
426.657696
 30
0.0
 10
54.552776
 20
426.657696
 30
0.0
 10
54.552776
 20
446.212667
 30
0.0
  0
LWPOLYLINE
  5
12a
100
AcDbEntity
  8
0
 62
7
100
AcDbPolyline
 90
5
 70
1
 10
364.881327
 20
961.131876
 30
0.0
 10
441.838279
 20
961.131876
 30
0.0
 10
441.838279
 20
866.586836
 30
0.0
 10
364.881327
 20
866.586836
 30
0.0
 10
364.881327
 20
961.131876
 30
0.0
  0
LWPOLYLINE
  5
12b
100
AcDbEntity
  8
0
 62
7
100
AcDbPolyline
 90
5
 70
1
 10
364.881327
 20
837.931876
 30
0.0
 10
441.838279
 20
837.931876
 30
0.0
 10
441.838279
 20
743.386836
 30
0.0
 10
364.881327
 20
743.386836
 30
0.0
 10
364.881327
 20
837.931876
 30
0.0
  0
LWPOLYLINE
  5
12c
100
AcDbEntity
  8
0
 62
7
100
AcDbPolyline
 90
5
 70
1
 10
364.881327
 20
716.331900
 30
0.0
 10
441.838279
 20
716.331900
 30
0.0
 10
441.838279
 20
621.786860
 30
0.0
 10
364.881327
 20
621.786860
 30
0.0
 10
364.881327
 20
716.331900
 30
0.0
  0
LWPOLYLINE
  5
12d
100
AcDbEntity
  8
0
 62
7
100
AcDbPolyline
 90
5
 70
1
 10
360.717704
 20
1078.671332
 30
0.0
 10
384.596076
 20
1078.671332
 30
0.0
 10
384.596076
 20
1037.052356
 30
0.0
 10
360.717704
 20
1037.052356
 30
0.0
 10
360.717704
 20
1078.671332
 30
0.0
  0
LWPOLYLINE
  5
12e
100
AcDbEntity
  8
0
 62
7
100
AcDbPolyline
 90
5
 70
1
 10
392.717701
 20
1078.671332
 30
0.0
 10
416.596073
 20
1078.671332
 30
0.0
 10
416.596073
 20
1037.052356
 30
0.0
 10
392.717701
 20
1037.052356
 30
0.0
 10
392.717701
 20
1078.671332
 30
0.0
  0
LWPOLYLINE
  5
12f
100
AcDbEntity
  8
0
 62
7
100
AcDbPolyline
 90
5
 70
1
 10
424.717704
 20
1078.671332
 30
0.0
 10
448.596076
 20
1078.671332
 30
0.0
 10
448.596076
 20
1037.052356
 30
0.0
 10
424.717704
 20
1037.052356
 30
0.0
 10
424.717704
 20
1078.671332
 30
0.0
  0
LWPOLYLINE
  5
130
100
AcDbEntity
  8
0
 62
7
100
AcDbPolyline
 90
5
 70
1
 10
360.717704
 20
1027.471332
 30
0.0
 10
384.596076
 20
1027.471332
 30
0.0
 10
384.596076
 20
985.852356
 30
0.0
 10
360.717704
 20
985.852356
 30
0.0
 10
360.717704
 20
1027.471332
 30
0.0
  0
LWPOLYLINE
  5
131
100
AcDbEntity
  8
0
 62
7
100
AcDbPolyline
 90
5
 70
1
 10
392.717701
 20
1027.471332
 30
0.0
 10
416.596073
 20
1027.471332
 30
0.0
 10
416.596073
 20
985.852356
 30
0.0
 10
392.717701
 20
985.852356
 30
0.0
 10
392.717701
 20
1027.471332
 30
0.0
  0
LWPOLYLINE
  5
132
100
AcDbEntity
  8
0
 62
7
100
AcDbPolyline
 90
5
 70
1
 10
424.717704
 20
1027.471332
 30
0.0
 10
448.596076
 20
1027.471332
 30
0.0
 10
448.596076
 20
985.852356
 30
0.0
 10
424.717704
 20
985.852356
 30
0.0
 10
424.717704
 20
1027.471332
 30
0.0
  0
LWPOLYLINE
  5
133
100
AcDbEntity
  8
0
 62
7
100
AcDbPolyline
 90
5
 70
1
 10
524.881328
 20
961.131876
 30
0.0
 10
601.838280
 20
961.131876
 30
0.0
 10
601.838280
 20
866.586836
 30
0.0
 10
524.881328
 20
866.586836
 30
0.0
 10
524.881328
 20
961.131876
 30
0.0
  0
LWPOLYLINE
  5
134
100
AcDbEntity
  8
0
 62
7
100
AcDbPolyline
 90
5
 70
1
 10
524.881328
 20
837.931876
 30
0.0
 10
601.838280
 20
837.931876
 30
0.0
 10
601.838280
 20
743.386836
 30
0.0
 10
524.881328
 20
743.386836
 30
0.0
 10
524.881328
 20
837.931876
 30
0.0
  0
LWPOLYLINE
  5
135
100
AcDbEntity
  8
0
 62
7
100
AcDbPolyline
 90
5
 70
1
 10
524.881328
 20
716.331900
 30
0.0
 10
601.838280
 20
716.331900
 30
0.0
 10
601.838280
 20
621.786860
 30
0.0
 10
524.881328
 20
621.786860
 30
0.0
 10
524.881328
 20
716.331900
 30
0.0
  0
LWPOLYLINE
  5
136
100
AcDbEntity
  8
0
 62
7
100
AcDbPolyline
 90
5
 70
1
 10
520.717704
 20
1078.671332
 30
0.0
 10
544.596076
 20
1078.671332
 30
0.0
 10
544.596076
 20
1037.052356
 30
0.0
 10
520.717704
 20
1037.052356
 30
0.0
 10
520.717704
 20
1078.671332
 30
0.0
  0
LWPOLYLINE
  5
137
100
AcDbEntity
  8
0
 62
7
100
AcDbPolyline
 90
5
 70
1
 10
552.717704
 20
1078.671332
 30
0.0
 10
576.596076
 20
1078.671332
 30
0.0
 10
576.596076
 20
1037.052356
 30
0.0
 10
552.717704
 20
1037.052356
 30
0.0
 10
552.717704
 20
1078.671332
 30
0.0
  0
LWPOLYLINE
  5
138
100
AcDbEntity
  8
0
 62
7
100
AcDbPolyline
 90
5
 70
1
 10
584.717704
 20
1078.671332
 30
0.0
 10
608.596076
 20
1078.671332
 30
0.0
 10
608.596076
 20
1037.052356
 30
0.0
 10
584.717704
 20
1037.052356
 30
0.0
 10
584.717704
 20
1078.671332
 30
0.0
  0
LWPOLYLINE
  5
139
100
AcDbEntity
  8
0
 62
7
100
AcDbPolyline
 90
5
 70
1
 10
520.717704
 20
1027.471332
 30
0.0
 10
544.596076
 20
1027.471332
 30
0.0
 10
544.596076
 20
985.852356
 30
0.0
 10
520.717704
 20
985.852356
 30
0.0
 10
520.717704
 20
1027.471332
 30
0.0
  0
LWPOLYLINE
  5
13a
100
AcDbEntity
  8
0
 62
7
100
AcDbPolyline
 90
5
 70
1
 10
552.717704
 20
1027.471332
 30
0.0
 10
576.596076
 20
1027.471332
 30
0.0
 10
576.596076
 20
985.852356
 30
0.0
 10
552.717704
 20
985.852356
 30
0.0
 10
552.717704
 20
1027.471332
 30
0.0
  0
LWPOLYLINE
  5
13b
100
AcDbEntity
  8
0
 62
7
100
AcDbPolyline
 90
5
 70
1
 10
584.717704
 20
1027.471332
 30
0.0
 10
608.596076
 20
1027.471332
 30
0.0
 10
608.596076
 20
985.852356
 30
0.0
 10
584.717704
 20
985.852356
 30
0.0
 10
584.717704
 20
1027.471332
 30
0.0
  0
LWPOLYLINE
  5
13c
100
AcDbEntity
  8
0
 62
7
100
AcDbPolyline
 90
5
 70
1
 10
348.675901
 20
1122.968491
 30
0.0
 10
620.121701
 20
1122.968491
 30
0.0
 10
620.121701
 20
1103.413520
 30
0.0
 10
348.675901
 20
1103.413520
 30
0.0
 10
348.675901
 20
1122.968491
 30
0.0
  0
LWPOLYLINE
  5
13d
100
AcDbEntity
  8
0
 62
7
100
AcDbPolyline
 90
5
 70
1
 10
480.743584
 20
1079.281300
 30
0.0
 10
488.117564
 20
1079.281300
 30
0.0
 10
488.117564
 20
617.255228
 30
0.0
 10
480.743584
 20
617.255228
 30
0.0
 10
480.743584
 20
1079.281300
 30
0.0
  0
LWPOLYLINE
  5
13e
100
AcDbEntity
  8
0
 62
7
100
AcDbPolyline
 90
5
 70
1
 10
678.481327
 20
961.131876
 30
0.0
 10
755.438279
 20
961.131876
 30
0.0
 10
755.438279
 20
866.586836
 30
0.0
 10
678.481327
 20
866.586836
 30
0.0
 10
678.481327
 20
961.131876
 30
0.0
  0
LWPOLYLINE
  5
13f
100
AcDbEntity
  8
0
 62
7
100
AcDbPolyline
 90
5
 70
1
 10
678.481327
 20
837.931876
 30
0.0
 10
755.438279
 20
837.931876
 30
0.0
 10
755.438279
 20
743.386836
 30
0.0
 10
678.481327
 20
743.386836
 30
0.0
 10
678.481327
 20
837.931876
 30
0.0
  0
LWPOLYLINE
  5
140
100
AcDbEntity
  8
0
 62
7
100
AcDbPolyline
 90
5
 70
1
 10
678.481327
 20
716.331900
 30
0.0
 10
755.438279
 20
716.331900
 30
0.0
 10
755.438279
 20
621.786860
 30
0.0
 10
678.481327
 20
621.786860
 30
0.0
 10
678.481327
 20
716.331900
 30
0.0
  0
LWPOLYLINE
  5
141
100
AcDbEntity
  8
0
 62
7
100
AcDbPolyline
 90
5
 70
1
 10
674.317704
 20
1078.671332
 30
0.0
 10
698.196076
 20
1078.671332
 30
0.0
 10
698.196076
 20
1037.052356
 30
0.0
 10
674.317704
 20
1037.052356
 30
0.0
 10
674.317704
 20
1078.671332
 30
0.0
  0
LWPOLYLINE
  5
142
100
AcDbEntity
  8
0
 62
7
100
AcDbPolyline
 90
5
 70
1
 10
706.317701
 20
1078.671332
 30
0.0
 10
730.196073
 20
1078.671332
 30
0.0
 10
730.196073
 20
1037.052356
 30
0.0
 10
706.317701
 20
1037.052356
 30
0.0
 10
706.317701
 20
1078.671332
 30
0.0
  0
LWPOLYLINE
  5
143
100
AcDbEntity
  8
0
 62
7
100
AcDbPolyline
 90
5
 70
1
 10
738.317704
 20
1078.671332
 30
0.0
 10
762.196076
 20
1078.671332
 30
0.0
 10
762.196076
 20
1037.052356
 30
0.0
 10
738.317704
 20
1037.052356
 30
0.0
 10
738.317704
 20
1078.671332
 30
0.0
  0
LWPOLYLINE
  5
144
100
AcDbEntity
  8
0
 62
7
100
AcDbPolyline
 90
5
 70
1
 10
674.317704
 20
1027.471332
 30
0.0
 10
698.196076
 20
1027.471332
 30
0.0
 10
698.196076
 20
985.852356
 30
0.0
 10
674.317704
 20
985.852356
 30
0.0
 10
674.317704
 20
1027.471332
 30
0.0
  0
LWPOLYLINE
  5
145
100
AcDbEntity
  8
0
 62
7
100
AcDbPolyline
 90
5
 70
1
 10
706.317701
 20
1027.471332
 30
0.0
 10
730.196073
 20
1027.471332
 30
0.0
 10
730.196073
 20
985.852356
 30
0.0
 10
706.317701
 20
985.852356
 30
0.0
 10
706.317701
 20
1027.471332
 30
0.0
  0
LWPOLYLINE
  5
146
100
AcDbEntity
  8
0
 62
7
100
AcDbPolyline
 90
5
 70
1
 10
738.317704
 20
1027.471332
 30
0.0
 10
762.196076
 20
1027.471332
 30
0.0
 10
762.196076
 20
985.852356
 30
0.0
 10
738.317704
 20
985.852356
 30
0.0
 10
738.317704
 20
1027.471332
 30
0.0
  0
LWPOLYLINE
  5
147
100
AcDbEntity
  8
0
 62
7
100
AcDbPolyline
 90
5
 70
1
 10
838.481328
 20
961.131876
 30
0.0
 10
915.438280
 20
961.131876
 30
0.0
 10
915.438280
 20
866.586836
 30
0.0
 10
838.481328
 20
866.586836
 30
0.0
 10
838.481328
 20
961.131876
 30
0.0
  0
LWPOLYLINE
  5
148
100
AcDbEntity
  8
0
 62
7
100
AcDbPolyline
 90
5
 70
1
 10
838.481328
 20
837.931876
 30
0.0
 10
915.438280
 20
837.931876
 30
0.0
 10
915.438280
 20
743.386836
 30
0.0
 10
838.481328
 20
743.386836
 30
0.0
 10
838.481328
 20
837.931876
 30
0.0
  0
LWPOLYLINE
  5
149
100
AcDbEntity
  8
0
 62
7
100
AcDbPolyline
 90
5
 70
1
 10
838.481328
 20
716.331900
 30
0.0
 10
915.438280
 20
716.331900
 30
0.0
 10
915.438280
 20
621.786860
 30
0.0
 10
838.481328
 20
621.786860
 30
0.0
 10
838.481328
 20
716.331900
 30
0.0
  0
LWPOLYLINE
  5
14a
100
AcDbEntity
  8
0
 62
7
100
AcDbPolyline
 90
5
 70
1
 10
834.317704
 20
1078.671332
 30
0.0
 10
858.196076
 20
1078.671332
 30
0.0
 10
858.196076
 20
1037.052356
 30
0.0
 10
834.317704
 20
1037.052356
 30
0.0
 10
834.317704
 20
1078.671332
 30
0.0
  0
LWPOLYLINE
  5
14b
100
AcDbEntity
  8
0
 62
7
100
AcDbPolyline
 90
5
 70
1
 10
866.317704
 20
1078.671332
 30
0.0
 10
890.196076
 20
1078.671332
 30
0.0
 10
890.196076
 20
1037.052356
 30
0.0
 10
866.317704
 20
1037.052356
 30
0.0
 10
866.317704
 20
1078.671332
 30
0.0
  0
LWPOLYLINE
  5
14c
100
AcDbEntity
  8
0
 62
7
100
AcDbPolyline
 90
5
 70
1
 10
898.317704
 20
1078.671332
 30
0.0
 10
922.196076
 20
1078.671332
 30
0.0
 10
922.196076
 20
1037.052356
 30
0.0
 10
898.317704
 20
1037.052356
 30
0.0
 10
898.317704
 20
1078.671332
 30
0.0
  0
LWPOLYLINE
  5
14d
100
AcDbEntity
  8
0
 62
7
100
AcDbPolyline
 90
5
 70
1
 10
834.317704
 20
1027.471332
 30
0.0
 10
858.196076
 20
1027.471332
 30
0.0
 10
858.196076
 20
985.852356
 30
0.0
 10
834.317704
 20
985.852356
 30
0.0
 10
834.317704
 20
1027.471332
 30
0.0
  0
LWPOLYLINE
  5
14e
100
AcDbEntity
  8
0
 62
7
100
AcDbPolyline
 90
5
 70
1
 10
866.317704
 20
1027.471332
 30
0.0
 10
890.196076
 20
1027.471332
 30
0.0
 10
890.196076
 20
985.852356
 30
0.0
 10
866.317704
 20
985.852356
 30
0.0
 10
866.317704
 20
1027.471332
 30
0.0
  0
LWPOLYLINE
  5
14f
100
AcDbEntity
  8
0
 62
7
100
AcDbPolyline
 90
5
 70
1
 10
898.317704
 20
1027.471332
 30
0.0
 10
922.196076
 20
1027.471332
 30
0.0
 10
922.196076
 20
985.852356
 30
0.0
 10
898.317704
 20
985.852356
 30
0.0
 10
898.317704
 20
1027.471332
 30
0.0
  0
LWPOLYLINE
  5
150
100
AcDbEntity
  8
0
 62
7
100
AcDbPolyline
 90
5
 70
1
 10
662.275901
 20
1122.968491
 30
0.0
 10
933.721701
 20
1122.968491
 30
0.0
 10
933.721701
 20
1103.413520
 30
0.0
 10
662.275901
 20
1103.413520
 30
0.0
 10
662.275901
 20
1122.968491
 30
0.0
  0
LWPOLYLINE
  5
151
100
AcDbEntity
  8
0
 62
7
100
AcDbPolyline
 90
5
 70
1
 10
794.343584
 20
1079.281300
 30
0.0
 10
801.717564
 20
1079.281300
 30
0.0
 10
801.717564
 20
617.255228
 30
0.0
 10
794.343584
 20
617.255228
 30
0.0
 10
794.343584
 20
1079.281300
 30
0.0
  0
LWPOLYLINE
  5
152
100
AcDbEntity
  8
0
 62
7
100
AcDbPolyline
 90
5
 70
1
 10
990.481327
 20
961.131876
 30
0.0
 10
1067.438279
 20
961.131876
 30
0.0
 10
1067.438279
 20
866.586836
 30
0.0
 10
990.481327
 20
866.586836
 30
0.0
 10
990.481327
 20
961.131876
 30
0.0
  0
LWPOLYLINE
  5
153
100
AcDbEntity
  8
0
 62
7
100
AcDbPolyline
 90
5
 70
1
 10
990.481327
 20
837.931876
 30
0.0
 10
1067.438279
 20
837.931876
 30
0.0
 10
1067.438279
 20
743.386836
 30
0.0
 10
990.481327
 20
743.386836
 30
0.0
 10
990.481327
 20
837.931876
 30
0.0
  0
LWPOLYLINE
  5
154
100
AcDbEntity
  8
0
 62
7
100
AcDbPolyline
 90
5
 70
1
 10
990.481327
 20
716.331900
 30
0.0
 10
1067.438279
 20
716.331900
 30
0.0
 10
1067.438279
 20
621.786860
 30
0.0
 10
990.481327
 20
621.786860
 30
0.0
 10
990.481327
 20
716.331900
 30
0.0
  0
LWPOLYLINE
  5
155
100
AcDbEntity
  8
0
 62
7
100
AcDbPolyline
 90
5
 70
1
 10
986.317704
 20
1078.671332
 30
0.0
 10
1010.196076
 20
1078.671332
 30
0.0
 10
1010.196076
 20
1037.052356
 30
0.0
 10
986.317704
 20
1037.052356
 30
0.0
 10
986.317704
 20
1078.671332
 30
0.0
  0
LWPOLYLINE
  5
156
100
AcDbEntity
  8
0
 62
7
100
AcDbPolyline
 90
5
 70
1
 10
1018.317701
 20
1078.671332
 30
0.0
 10
1042.196073
 20
1078.671332
 30
0.0
 10
1042.196073
 20
1037.052356
 30
0.0
 10
1018.317701
 20
1037.052356
 30
0.0
 10
1018.317701
 20
1078.671332
 30
0.0
  0
LWPOLYLINE
  5
157
100
AcDbEntity
  8
0
 62
7
100
AcDbPolyline
 90
5
 70
1
 10
1050.317704
 20
1078.671332
 30
0.0
 10
1074.196076
 20
1078.671332
 30
0.0
 10
1074.196076
 20
1037.052356
 30
0.0
 10
1050.317704
 20
1037.052356
 30
0.0
 10
1050.317704
 20
1078.671332
 30
0.0
  0
LWPOLYLINE
  5
158
100
AcDbEntity
  8
0
 62
7
100
AcDbPolyline
 90
5
 70
1
 10
986.317704
 20
1027.471332
 30
0.0
 10
1010.196076
 20
1027.471332
 30
0.0
 10
1010.196076
 20
985.852356
 30
0.0
 10
986.317704
 20
985.852356
 30
0.0
 10
986.317704
 20
1027.471332
 30
0.0
  0
LWPOLYLINE
  5
159
100
AcDbEntity
  8
0
 62
7
100
AcDbPolyline
 90
5
 70
1
 10
1018.317701
 20
1027.471332
 30
0.0
 10
1042.196073
 20
1027.471332
 30
0.0
 10
1042.196073
 20
985.852356
 30
0.0
 10
1018.317701
 20
985.852356
 30
0.0
 10
1018.317701
 20
1027.471332
 30
0.0
  0
LWPOLYLINE
  5
15a
100
AcDbEntity
  8
0
 62
7
100
AcDbPolyline
 90
5
 70
1
 10
1050.317704
 20
1027.471332
 30
0.0
 10
1074.196076
 20
1027.471332
 30
0.0
 10
1074.196076
 20
985.852356
 30
0.0
 10
1050.317704
 20
985.852356
 30
0.0
 10
1050.317704
 20
1027.471332
 30
0.0
  0
LWPOLYLINE
  5
15b
100
AcDbEntity
  8
0
 62
7
100
AcDbPolyline
 90
5
 70
1
 10
1150.481328
 20
961.131876
 30
0.0
 10
1227.438280
 20
961.131876
 30
0.0
 10
1227.438280
 20
866.586836
 30
0.0
 10
1150.481328
 20
866.586836
 30
0.0
 10
1150.481328
 20
961.131876
 30
0.0
  0
LWPOLYLINE
  5
15c
100
AcDbEntity
  8
0
 62
7
100
AcDbPolyline
 90
5
 70
1
 10
1150.481328
 20
837.931876
 30
0.0
 10
1227.438280
 20
837.931876
 30
0.0
 10
1227.438280
 20
743.386836
 30
0.0
 10
1150.481328
 20
743.386836
 30
0.0
 10
1150.481328
 20
837.931876
 30
0.0
  0
LWPOLYLINE
  5
15d
100
AcDbEntity
  8
0
 62
7
100
AcDbPolyline
 90
5
 70
1
 10
1150.481328
 20
716.331900
 30
0.0
 10
1227.438280
 20
716.331900
 30
0.0
 10
1227.438280
 20
621.786860
 30
0.0
 10
1150.481328
 20
621.786860
 30
0.0
 10
1150.481328
 20
716.331900
 30
0.0
  0
LWPOLYLINE
  5
15e
100
AcDbEntity
  8
0
 62
7
100
AcDbPolyline
 90
5
 70
1
 10
1146.317704
 20
1078.671332
 30
0.0
 10
1170.196076
 20
1078.671332
 30
0.0
 10
1170.196076
 20
1037.052356
 30
0.0
 10
1146.317704
 20
1037.052356
 30
0.0
 10
1146.317704
 20
1078.671332
 30
0.0
  0
LWPOLYLINE
  5
15f
100
AcDbEntity
  8
0
 62
7
100
AcDbPolyline
 90
5
 70
1
 10
1178.317704
 20
1078.671332
 30
0.0
 10
1202.196076
 20
1078.671332
 30
0.0
 10
1202.196076
 20
1037.052356
 30
0.0
 10
1178.317704
 20
1037.052356
 30
0.0
 10
1178.317704
 20
1078.671332
 30
0.0
  0
LWPOLYLINE
  5
160
100
AcDbEntity
  8
0
 62
7
100
AcDbPolyline
 90
5
 70
1
 10
1210.317704
 20
1078.671332
 30
0.0
 10
1234.196076
 20
1078.671332
 30
0.0
 10
1234.196076
 20
1037.052356
 30
0.0
 10
1210.317704
 20
1037.052356
 30
0.0
 10
1210.317704
 20
1078.671332
 30
0.0
  0
LWPOLYLINE
  5
161
100
AcDbEntity
  8
0
 62
7
100
AcDbPolyline
 90
5
 70
1
 10
1146.317704
 20
1027.471332
 30
0.0
 10
1170.196076
 20
1027.471332
 30
0.0
 10
1170.196076
 20
985.852356
 30
0.0
 10
1146.317704
 20
985.852356
 30
0.0
 10
1146.317704
 20
1027.471332
 30
0.0
  0
LWPOLYLINE
  5
162
100
AcDbEntity
  8
0
 62
7
100
AcDbPolyline
 90
5
 70
1
 10
1178.317704
 20
1027.471332
 30
0.0
 10
1202.196076
 20
1027.471332
 30
0.0
 10
1202.196076
 20
985.852356
 30
0.0
 10
1178.317704
 20
985.852356
 30
0.0
 10
1178.317704
 20
1027.471332
 30
0.0
  0
LWPOLYLINE
  5
163
100
AcDbEntity
  8
0
 62
7
100
AcDbPolyline
 90
5
 70
1
 10
1210.317704
 20
1027.471332
 30
0.0
 10
1234.196076
 20
1027.471332
 30
0.0
 10
1234.196076
 20
985.852356
 30
0.0
 10
1210.317704
 20
985.852356
 30
0.0
 10
1210.317704
 20
1027.471332
 30
0.0
  0
LWPOLYLINE
  5
164
100
AcDbEntity
  8
0
 62
7
100
AcDbPolyline
 90
5
 70
1
 10
974.275901
 20
1122.968491
 30
0.0
 10
1245.721701
 20
1122.968491
 30
0.0
 10
1245.721701
 20
1103.413520
 30
0.0
 10
974.275901
 20
1103.413520
 30
0.0
 10
974.275901
 20
1122.968491
 30
0.0
  0
LWPOLYLINE
  5
165
100
AcDbEntity
  8
0
 62
7
100
AcDbPolyline
 90
5
 70
1
 10
1106.343584
 20
1079.281300
 30
0.0
 10
1113.717564
 20
1079.281300
 30
0.0
 10
1113.717564
 20
617.255228
 30
0.0
 10
1106.343584
 20
617.255228
 30
0.0
 10
1106.343584
 20
1079.281300
 30
0.0
  0
LWPOLYLINE
  5
166
100
AcDbEntity
  8
0
 62
7
100
AcDbPolyline
 90
5
 70
1
 10
27.037506
 20
178.577388
 30
0.0
 10
346.989946
 20
178.577388
 30
0.0
 10
346.989946
 20
154.610381
 30
0.0
 10
27.037506
 20
154.610381
 30
0.0
 10
27.037506
 20
178.577388
 30
0.0
  0
LWPOLYLINE
  5
167
100
AcDbEntity
  8
0
 62
7
100
AcDbPolyline
 90
5
 70
1
 10
27.037506
 20
210.577388
 30
0.0
 10
346.989946
 20
210.577388
 30
0.0
 10
346.989946
 20
186.610381
 30
0.0
 10
27.037506
 20
186.610381
 30
0.0
 10
27.037506
 20
210.577388
 30
0.0
  0
LWPOLYLINE
  5
168
100
AcDbEntity
  8
0
 62
7
100
AcDbPolyline
 90
5
 70
1
 10
27.037506
 20
240.977388
 30
0.0
 10
346.989946
 20
240.977388
 30
0.0
 10
346.989946
 20
217.010381
 30
0.0
 10
27.037506
 20
217.010381
 30
0.0
 10
27.037506
 20
240.977388
 30
0.0
  0
LWPOLYLINE
  5
169
100
AcDbEntity
  8
0
 62
7
100
AcDbPolyline
 90
5
 70
1
 10
25.604872
 20
408.993402
 30
0.0
 10
345.519688
 20
408.993402
 30
0.0
 10
345.519688
 20
364.810681
 30
0.0
 10
25.604872
 20
364.810681
 30
0.0
 10
25.604872
 20
408.993402
 30
0.0
  0
LWPOLYLINE
  5
16a
100
AcDbEntity
  8
0
 62
7
100
AcDbPolyline
 90
5
 70
1
 10
54.552776
 20
395.012619
 30
0.0
 10
325.998576
 20
395.012619
 30
0.0
 10
325.998576
 20
375.457648
 30
0.0
 10
54.552776
 20
375.457648
 30
0.0
 10
54.552776
 20
395.012619
 30
0.0
  0
LWPOLYLINE
  5
16b
100
AcDbEntity
  8
0
 62
7
100
AcDbPolyline
 90
5
 70
1
 10
25.604872
 20
359.393338
 30
0.0
 10
345.519688
 20
359.393338
 30
0.0
 10
345.519688
 20
315.210617
 30
0.0
 10
25.604872
 20
315.210617
 30
0.0
 10
25.604872
 20
359.393338
 30
0.0
  0
LWPOLYLINE
  5
16c
100
AcDbEntity
  8
0
 62
7
100
AcDbPolyline
 90
5
 70
1
 10
54.552776
 20
345.412555
 30
0.0
 10
325.998576
 20
345.412555
 30
0.0
 10
325.998576
 20
325.857584
 30
0.0
 10
54.552776
 20
325.857584
 30
0.0
 10
54.552776
 20
345.412555
 30
0.0
  0
LWPOLYLINE
  5
16d
100
AcDbEntity
  8
0
 62
7
100
AcDbPolyline
 90
5
 70
1
 10
25.604872
 20
303.393354
 30
0.0
 10
345.519688
 20
303.393354
 30
0.0
 10
345.519688
 20
259.210633
 30
0.0
 10
25.604872
 20
259.210633
 30
0.0
 10
25.604872
 20
303.393354
 30
0.0
  0
LWPOLYLINE
  5
16e
100
AcDbEntity
  8
0
 62
7
100
AcDbPolyline
 90
5
 70
1
 10
54.552776
 20
289.412571
 30
0.0
 10
325.998576
 20
289.412571
 30
0.0
 10
325.998576
 20
269.857600
 30
0.0
 10
54.552776
 20
269.857600
 30
0.0
 10
54.552776
 20
289.412571
 30
0.0
  0
LWPOLYLINE
  5
16f
100
AcDbEntity
  8
0
 62
5
100
AcDbPolyline
 90
14
 70
1
 10
499.686448
 20
548.468513
 30
0.0
 10
499.657568
 20
529.942621
 30
0.0
 10
374.880728
 20
507.814654
 30
0.0
 10
374.619320
 20
499.878278
 30
0.0
 10
367.934208
 20
499.915454
 30
0.0
 10
368.232800
 20
473.735063
 30
0.0
 10
354.339800
 20
468.637005
 30
0.0
 10
340.856896
 20
474.164945
 30
0.0
 10
341.286768
 20
499.672633
 30
0.0
 10
333.313224
 20
499.915454
 30
0.0
 10
332.771824
 20
508.113239
 30
0.0
 10
206.538048
 20
530.148270
 30
0.0
 10
206.722584
 20
547.922713
 30
0.0
 10
499.686448
 20
548.468513
 30
0.0
  0
LWPOLYLINE
  5
170
100
AcDbEntity
  8
0
 62
5
100
AcDbPolyline
 90
5
 70
1
 10
359.975256
 20
478.224345
 30
0.0
 10
348.473288
 20
478.224345
 30
0.0
 10
348.473288
 20
496.784339
 30
0.0
 10
359.975256
 20
496.784339
 30
0.0
 10
359.975256
 20
478.224345
 30
0.0
  0
LWPOLYLINE
  5
171
100
AcDbEntity
  8
0
 62
5
100
AcDbPolyline
 90
14
 70
1
 10
381.958416
 20
474.828327
 30
0.0
 10
381.987296
 20
493.354219
 30
0.0
 10
506.764136
 20
515.482185
 30
0.0
 10
507.025544
 20
523.418561
 30
0.0
 10
513.710656
 20
523.381385
 30
0.0
 10
513.412064
 20
549.561777
 30
0.0
 10
527.305064
 20
554.659834
 30
0.0
 10
540.787968
 20
549.131894
 30
0.0
 10
540.358096
 20
523.624206
 30
0.0
 10
548.331640
 20
523.381385
 30
0.0
 10
548.873040
 20
515.183601
 30
0.0
 10
675.106816
 20
493.148569
 30
0.0
 10
674.922280
 20
475.374126
 30
0.0
 10
381.958416
 20
474.828327
 30
0.0
  0
LWPOLYLINE
  5
172
100
AcDbEntity
  8
0
 62
5
100
AcDbPolyline
 90
5
 70
1
 10
521.669608
 20
545.072495
 30
0.0
 10
533.171576
 20
545.072495
 30
0.0
 10
533.171576
 20
526.512501
 30
0.0
 10
521.669608
 20
526.512501
 30
0.0
 10
521.669608
 20
545.072495
 30
0.0
  0
LWPOLYLINE
  5
173
100
AcDbEntity
  8
0
 62
5
100
AcDbPolyline
 90
14
 70
1
 10
848.463384
 20
542.277209
 30
0.0
 10
848.434504
 20
523.751317
 30
0.0
 10
723.657664
 20
501.623350
 30
0.0
 10
723.396256
 20
493.686974
 30
0.0
 10
716.711144
 20
493.724150
 30
0.0
 10
717.009736
 20
467.543759
 30
0.0
 10
703.116736
 20
462.445701
 30
0.0
 10
689.633832
 20
467.973641
 30
0.0
 10
690.063704
 20
493.481329
 30
0.0
 10
682.090160
 20
493.724150
 30
0.0
 10
681.548760
 20
501.921935
 30
0.0
 10
555.314984
 20
523.956966
 30
0.0
 10
555.499520
 20
541.731409
 30
0.0
 10
848.463384
 20
542.277209
 30
0.0
  0
SPLINE
  5
174
100
AcDbEntity
  8
0
 62
7
100
AcDbSpline
 70
0
 71
3
 72
10
 73
6
 74
4
 40
0.000000
 40
0.000000
 40
0.000000
 40
0.000000
 40
24.359207
 40
48.325167
 40
72.684376
 40
72.684376
 40
72.684376
 40
72.684376
 10
610.156375
 20
284.209452
 30
0.0
 10
607.556468
 20
276.446772
 30
0.0
 10
602.398625
 20
261.046732
 30
0.0
 10
584.762735
 20
242.882155
 30
0.0
 10
569.521714
 20
237.271816
 30
0.0
 10
561.839191
 20
234.443820
 30
0.0
 11
610.156375
 21
284.209452
 31
0.0
 11
600.687919
 21
261.765760
 31
0.0
 11
583.993506
 21
244.570883
 31
0.0
 11
561.839191
 21
234.443820
 31
0.0
  0
LWPOLYLINE
  5
175
100
AcDbEntity
  8
0
 62
5
100
AcDbPolyline
 90
5
 70
1
 10
708.752192
 20
472.033041
 30
0.0
 10
697.250224
 20
472.033041
 30
0.0
 10
697.250224
 20
490.593035
 30
0.0
 10
708.752192
 20
490.593035
 30
0.0
 10
708.752192
 20
472.033041
 30
0.0
  0
ENDSEC
  0
SECTION
  2
OBJECTS
  0
DICTIONARY
  5
C
330
0
100
AcDbDictionary
  3
ACAD_GROUP
350
D
  3
ACAD_MLINESTYLE
350
17
  0
DICTIONARY
  5
D
330
C
100
AcDbDictionary
  0
DICTIONARY
  5
1A
330
C
100
AcDbDictionary
  0
DICTIONARY
  5
17
330
C
100
AcDbDictionary
  3
STANDARD
350
18
  0
DICTIONARY
  5
19
330
C
100
AcDbDictionary
  0
ENDSEC
  0
EOF
