  0
SECTION
  2
HEADER
  9
$ACADVER
  1
AC1027
  9
$ACADMAINTVER
 70
     8
  9
$DWGCODEPAGE
  3
ANSI_1252
  9
$REQUIREDVERSIONS
160
                 0
  9
$LASTSAVEDBY
  1
matthewd
  9
$INSBASE
 10
0.0
 20
0.0
 30
0.0
  9
$EXTMIN
 10
6.833332
 20
0.0
 30
0.0
  9
$EXTMAX
 10
246.833277
 20
179.999968
 30
0.0
  9
$LIMMIN
 10
0.0
 20
0.0
  9
$LIMMAX
 10
12.0
 20
9.0
  9
$ORTHOMODE
 70
     0
  9
$REGENMODE
 70
     1
  9
$FILLMODE
 70
     1
  9
$QTEXTMODE
 70
     0
  9
$MIRRTEXT
 70
     1
  9
$LTSCALE
 40
1.0
  9
$ATTMODE
 70
     1
  9
$TEXTSIZE
 40
0.2
  9
$TRACEWID
 40
0.05
  9
$TEXTSTYLE
  7
Standard
  9
$CLAYER
  8
0
  9
$CELTYPE
  6
ByBlock
  9
$CECOLOR
 62
   256
  9
$CELTSCALE
 40
1.0
  9
$DISPSILH
 70
     0
  9
$DIMSCALE
 40
1.0
  9
$DIMASZ
 40
0.18
  9
$DIMEXO
 40
0.0625
  9
$DIMDLI
 40
0.38
  9
$DIMRND
 40
0.0
  9
$DIMDLE
 40
0.0
  9
$DIMEXE
 40
0.18
  9
$DIMTP
 40
0.0
  9
$DIMTM
 40
0.0
  9
$DIMTXT
 40
0.18
  9
$DIMCEN
 40
0.09
  9
$DIMTSZ
 40
0.0
  9
$DIMTOL
 70
     0
  9
$DIMLIM
 70
     0
  9
$DIMTIH
 70
     1
  9
$DIMTOH
 70
     1
  9
$DIMSE1
 70
     0
  9
$DIMSE2
 70
     0
  9
$DIMTAD
 70
     0
  9
$DIMZIN
 70
     0
  9
$DIMBLK
  1

  9
$DIMASO
 70
     1
  9
$DIMSHO
 70
     1
  9
$DIMPOST
  1

  9
$DIMAPOST
  1

  9
$DIMALT
 70
     0
  9
$DIMALTD
 70
     2
  9
$DIMALTF
 40
25.4
  9
$DIMLFAC
 40
1.0
  9
$DIMTOFL
 70
     0
  9
$DIMTVP
 40
0.0
  9
$DIMTIX
 70
     0
  9
$DIMSOXD
 70
     0
  9
$DIMSAH
 70
     0
  9
$DIMBLK1
  1

  9
$DIMBLK2
  1

  9
$DIMSTYLE
  2
Standard
  9
$DIMCLRD
 70
     0
  9
$DIMCLRE
 70
     0
  9
$DIMCLRT
 70
     0
  9
$DIMTFAC
 40
1.0
  9
$DIMGAP
 40
0.09
  9
$DIMJUST
 70
     0
  9
$DIMSD1
 70
     0
  9
$DIMSD2
 70
     0
  9
$DIMTOLJ
 70
     1
  9
$DIMTZIN
 70
     0
  9
$DIMALTZ
 70
     0
  9
$DIMALTTZ
 70
     0
  9
$DIMUPT
 70
     0
  9
$DIMDEC
 70
     4
  9
$DIMTDEC
 70
     4
  9
$DIMALTU
 70
     2
  9
$DIMALTTD
 70
     2
  9
$DIMTXSTY
  7
Standard
  9
$DIMAUNIT
 70
     0
  9
$DIMADEC
 70
     0
  9
$DIMALTRND
 40
0.0
  9
$DIMAZIN
 70
     0
  9
$DIMDSEP
 70
    46
  9
$DIMATFIT
 70
     3
  9
$DIMFRAC
 70
     0
  9
$DIMLDRBLK
  1

  9
$DIMLUNIT
 70
     2
  9
$DIMLWD
 70
    -2
  9
$DIMLWE
 70
    -2
  9
$DIMTMOVE
 70
     2
  9
$DIMFXL
 40
1.0
  9
$DIMFXLON
 70
     0
  9
$DIMJOGANG
 40
0.7853981633974483
  9
$DIMTFILL
 70
     0
  9
$DIMTFILLCLR
 70
     0
  9
$DIMARCSYM
 70
     0
  9
$DIMLTYPE
  6

  9
$DIMLTEX1
  6

  9
$DIMLTEX2
  6

  9
$DIMTXTDIRECTION
 70
     0
  9
$LUNITS
 70
     2
  9
$LUPREC
 70
     4
  9
$SKETCHINC
 40
0.1
  9
$FILLETRAD
 40
0.5
  9
$AUNITS
 70
     0
  9
$AUPREC
 70
     0
  9
$MENU
  1
.
  9
$ELEVATION
 40
0.0
  9
$PELEVATION
 40
0.0
  9
$THICKNESS
 40
0.0
  9
$LIMCHECK
 70
     0
  9
$CHAMFERA
 40
0.0
  9
$CHAMFERB
 40
0.0
  9
$CHAMFERC
 40
0.0
  9
$CHAMFERD
 40
0.0
  9
$SKPOLY
 70
     0
  9
$TDCREATE
 40
2457059.587713889
  9
$TDUCREATE
 40
2457059.921047222
  9
$TDUPDATE
 40
2457059.588018981
  9
$TDUUPDATE
 40
2457059.921352315
  9
$TDINDWG
 40
0.000304294
  9
$TDUSRTIMER
 40
2457059.921048264
  9
$USRTIMER
 70
     1
  9
$ANGBASE
 50
0.0
  9
$ANGDIR
 70
     0
  9
$PDMODE
 70
     0
  9
$PDSIZE
 40
0.0
  9
$PLINEWID
 40
0.0
  9
$SPLFRAME
 70
     0
  9
$SPLINETYPE
 70
     6
  9
$SPLINESEGS
 70
     8
  9
$HANDSEED
  5
618
  9
$SURFTAB1
 70
     6
  9
$SURFTAB2
 70
     6
  9
$SURFTYPE
 70
     6
  9
$SURFU
 70
     6
  9
$SURFV
 70
     6
  9
$UCSBASE
  2

  9
$UCSNAME
  2

  9
$UCSORG
 10
0.0
 20
0.0
 30
0.0
  9
$UCSXDIR
 10
1.0
 20
0.0
 30
0.0
  9
$UCSYDIR
 10
0.0
 20
1.0
 30
0.0
  9
$UCSORTHOREF
  2

  9
$UCSORTHOVIEW
 70
     0
  9
$UCSORGTOP
 10
0.0
 20
0.0
 30
0.0
  9
$UCSORGBOTTOM
 10
0.0
 20
0.0
 30
0.0
  9
$UCSORGLEFT
 10
0.0
 20
0.0
 30
0.0
  9
$UCSORGRIGHT
 10
0.0
 20
0.0
 30
0.0
  9
$UCSORGFRONT
 10
0.0
 20
0.0
 30
0.0
  9
$UCSORGBACK
 10
0.0
 20
0.0
 30
0.0
  9
$PUCSBASE
  2

  9
$PUCSNAME
  2

  9
$PUCSORG
 10
0.0
 20
0.0
 30
0.0
  9
$PUCSXDIR
 10
1.0
 20
0.0
 30
0.0
  9
$PUCSYDIR
 10
0.0
 20
1.0
 30
0.0
  9
$PUCSORTHOREF
  2

  9
$PUCSORTHOVIEW
 70
     0
  9
$PUCSORGTOP
 10
0.0
 20
0.0
 30
0.0
  9
$PUCSORGBOTTOM
 10
0.0
 20
0.0
 30
0.0
  9
$PUCSORGLEFT
 10
0.0
 20
0.0
 30
0.0
  9
$PUCSORGRIGHT
 10
0.0
 20
0.0
 30
0.0
  9
$PUCSORGFRONT
 10
0.0
 20
0.0
 30
0.0
  9
$PUCSORGBACK
 10
0.0
 20
0.0
 30
0.0
  9
$USERI1
 70
     0
  9
$USERI2
 70
     0
  9
$USERI3
 70
     0
  9
$USERI4
 70
     0
  9
$USERI5
 70
     0
  9
$USERR1
 40
0.0
  9
$USERR2
 40
0.0
  9
$USERR3
 40
0.0
  9
$USERR4
 40
0.0
  9
$USERR5
 40
0.0
  9
$WORLDVIEW
 70
     1
  9
$SHADEDGE
 70
     3
  9
$SHADEDIF
 70
    70
  9
$TILEMODE
 70
     1
  9
$MAXACTVP
 70
    64
  9
$PINSBASE
 10
0.0
 20
0.0
 30
0.0
  9
$PLIMCHECK
 70
     0
  9
$PEXTMIN
 10
1.000000000000000E+20
 20
1.000000000000000E+20
 30
1.000000000000000E+20
  9
$PEXTMAX
 10
-1.000000000000000E+20
 20
-1.000000000000000E+20
 30
-1.000000000000000E+20
  9
$PLIMMIN
 10
0.0
 20
0.0
  9
$PLIMMAX
 10
0.0
 20
0.0
  9
$UNITMODE
 70
     0
  9
$VISRETAIN
 70
     1
  9
$PLINEGEN
 70
     0
  9
$PSLTSCALE
 70
     1
  9
$TREEDEPTH
 70
  3020
  9
$CMLSTYLE
  2
Standard
  9
$CMLJUST
 70
     0
  9
$CMLSCALE
 40
1.0
  9
$PROXYGRAPHICS
 70
     1
  9
$MEASUREMENT
 70
     0
  9
$CELWEIGHT
370
    -1
  9
$ENDCAPS
280
     0
  9
$JOINSTYLE
280
     0
  9
$LWDISPLAY
290
     0
  9
$INSUNITS
 70
     0
  9
$HYPERLINKBASE
  1

  9
$STYLESHEET
  1

  9
$XEDIT
290
     1
  9
$CEPSNTYPE
380
     0
  9
$PSTYLEMODE
290
     1
  9
$FINGERPRINTGUID
  2
{7CED93D9-1D1F-4984-8579-F1BB51282D95}
  9
$VERSIONGUID
  2
{FAEB1C32-E019-11D5-929B-00C0DF256EC4}
  9
$EXTNAMES
290
     1
  9
$PSVPSCALE
 40
0.0
  9
$OLESTARTUP
290
     0
  9
$SORTENTS
280
   127
  9
$INDEXCTL
280
     0
  9
$HIDETEXT
280
     1
  9
$XCLIPFRAME
280
     2
  9
$HALOGAP
280
     0
  9
$OBSCOLOR
 70
   257
  9
$OBSLTYPE
280
     0
  9
$INTERSECTIONDISPLAY
280
     0
  9
$INTERSECTIONCOLOR
 70
   257
  9
$DIMASSOC
280
     2
  9
$PROJECTNAME
  1

  9
$CAMERADISPLAY
290
     0
  9
$LENSLENGTH
 40
50.0
  9
$CAMERAHEIGHT
 40
0.0
  9
$STEPSPERSEC
 40
2.0
  9
$STEPSIZE
 40
6.0
  9
$3DDWFPREC
 40
2.0
  9
$PSOLWIDTH
 40
0.25
  9
$PSOLHEIGHT
 40
4.0
  9
$LOFTANG1
 40
1.570796326794897
  9
$LOFTANG2
 40
1.570796326794897
  9
$LOFTMAG1
 40
0.0
  9
$LOFTMAG2
 40
0.0
  9
$LOFTPARAM
 70
     7
  9
$LOFTNORMALS
280
     1
  9
$LATITUDE
 40
37.795
  9
$LONGITUDE
 40
-122.394
  9
$NORTHDIRECTION
 40
0.0
  9
$TIMEZONE
 70
 -8000
  9
$LIGHTGLYPHDISPLAY
280
     1
  9
$TILEMODELIGHTSYNCH
280
     1
  9
$SOLIDHIST
280
     0
  9
$SHOWHIST
280
     1
  9
$DWFFRAME
280
     2
  9
$DGNFRAME
280
     2
  9
$REALWORLDSCALE
290
     1
  9
$INTERFERECOLOR
 62
   256
  9
$CSHADOW
280
     0
  9
$SHADOWPLANELOCATION
 40
0.0
  0
ENDSEC
  0
SECTION
  2
CLASSES
  0
CLASS
  1
ACDBDICTIONARYWDFLT
  2
AcDbDictionaryWithDefault
  3
ObjectDBX Classes
 90
        0
 91
        6
280
     0
281
     0
  0
CLASS
  1
SCALE
  2
AcDbScale
  3
ObjectDBX Classes
 90
     1153
 91
        6
280
     0
281
     0
  0
CLASS
  1
VISUALSTYLE
  2
AcDbVisualStyle
  3
ObjectDBX Classes
 90
     4095
 91
        6
280
     0
281
     0
  0
CLASS
  1
MATERIAL
  2
AcDbMaterial
  3
ObjectDBX Classes
 90
     1153
 91
        6
280
     0
281
     0
  0
CLASS
  1
TABLESTYLE
  2
AcDbTableStyle
  3
ObjectDBX Classes
 90
     4095
 91
        6
280
     0
281
     0
  0
CLASS
  1
MLEADERSTYLE
  2
AcDbMLeaderStyle
  3
ACDB_MLEADERSTYLE_CLASS
 90
     4095
 91
        6
280
     0
281
     0
  0
CLASS
  1
SUN
  2
AcDbSun
  3
SCENEOE
 90
     1153
 91
        6
280
     0
281
     0
  0
CLASS
  1
RASTERVARIABLES
  2
AcDbRasterVariables
  3
ISM
 90
        0
 91
        6
280
     0
281
     0
  0
CLASS
  1
DICTIONARYVAR
  2
AcDbDictionaryVar
  3
ObjectDBX Classes
 90
        0
 91
        6
280
     0
281
     0
  0
CLASS
  1
CELLSTYLEMAP
  2
AcDbCellStyleMap
  3
ObjectDBX Classes
 90
     1152
 91
        6
280
     0
281
     0
  0
ENDSEC
  0
SECTION
  2
TABLES
  0
TABLE
  2
VPORT
  5
8
330
0
100
AcDbSymbolTable
 70
     1
  0
VPORT
  5
5C1
330
8
100
AcDbSymbolTableRecord
100
AcDbViewportTableRecord
  2
*Active
 70
     0
 10
0.0
 20
0.0
 11
1.0
 21
1.0
 12
170.3872538884434
 22
88.18632153902129
 13
0.0
 23
0.0
 14
0.5
 24
0.5
 15
0.5
 25
0.5
 16
0.0
 26
0.0
 36
1.0
 17
0.0
 27
0.0
 37
0.0
 40
235.4162738369899
 41
1.71501272264631
 42
50.0
 43
0.0
 44
0.0
 50
0.0
 51
0.0
 71
    16
 72
   100
 73
     1
 74
     3
 75
     0
 76
     0
 77
     0
 78
     0
281
     0
 65
     1
110
0.0
120
0.0
130
0.0
111
1.0
121
0.0
131
0.0
112
0.0
122
1.0
132
0.0
 79
     0
146
0.0
348
5EF
 60
     3
 61
     5
292
     1
282
     1
141
0.0
142
0.0
 63
   250
361
60C
  0
ENDTAB
  0
TABLE
  2
LTYPE
  5
5
330
0
100
AcDbSymbolTable
 70
     1
  0
LTYPE
  5
14
330
5
100
AcDbSymbolTableRecord
100
AcDbLinetypeTableRecord
  2
ByBlock
 70
     0
  3

 72
    65
 73
     0
 40
0.0
  0
LTYPE
  5
15
330
5
100
AcDbSymbolTableRecord
100
AcDbLinetypeTableRecord
  2
ByLayer
 70
     0
  3

 72
    65
 73
     0
 40
0.0
  0
LTYPE
  5
16
330
5
100
AcDbSymbolTableRecord
100
AcDbLinetypeTableRecord
  2
Continuous
 70
     0
  3
Solid line
 72
    65
 73
     0
 40
0.0
  0
ENDTAB
  0
TABLE
  2
LAYER
  5
2
330
0
100
AcDbSymbolTable
 70
     3
  0
LAYER
  5
10
330
2
100
AcDbSymbolTableRecord
100
AcDbLayerTableRecord
  2
0
 70
     0
 62
     7
  6
Continuous
370
    -3
390
F
347
606
348
0
  0
LAYER
  5
5C2
330
2
100
AcDbSymbolTableRecord
100
AcDbLayerTableRecord
  2
CutLine
 70
     0
 62
     7
  6
Continuous
370
    -3
390
F
347
606
348
0
  0
LAYER
  5
5C3
330
2
100
AcDbSymbolTableRecord
100
AcDbLayerTableRecord
  2
MountainLine
 70
     0
 62
     7
  6
Continuous
370
    -3
390
F
347
606
348
0
  0
ENDTAB
  0
TABLE
  2
STYLE
  5
3
330
0
100
AcDbSymbolTable
 70
     1
  0
STYLE
  5
11
330
3
100
AcDbSymbolTableRecord
100
AcDbTextStyleTableRecord
  2
Standard
 70
     0
 40
0.0
 41
1.0
 50
0.0
 71
     0
 42
0.2
  3
txt
  4

  0
ENDTAB
  0
TABLE
  2
VIEW
  5
6
330
0
100
AcDbSymbolTable
 70
     0
  0
ENDTAB
  0
TABLE
  2
UCS
  5
7
330
0
100
AcDbSymbolTable
 70
     0
  0
ENDTAB
  0
TABLE
  2
APPID
  5
9
330
0
100
AcDbSymbolTable
 70
     1
  0
APPID
  5
12
330
9
100
AcDbSymbolTableRecord
100
AcDbRegAppTableRecord
  2
ACAD
 70
     0
  0
ENDTAB
  0
TABLE
  2
DIMSTYLE
  5
A
330
0
100
AcDbSymbolTable
 70
     1
100
AcDbDimStyleTable
  0
DIMSTYLE
105
20
330
A
100
AcDbSymbolTableRecord
100
AcDbDimStyleTableRecord
  2
Standard
 70
     0
178
     0
340
11
  0
ENDTAB
  0
TABLE
  2
BLOCK_RECORD
  5
1
330
0
100
AcDbSymbolTable
 70
     0
  0
BLOCK_RECORD
  5
1D
330
1
100
AcDbSymbolTableRecord
100
AcDbBlockTableRecord
  2
*Model_Space
340
1E
 70
     0
280
     1
281
     0
  0
BLOCK_RECORD
  5
1B
330
1
100
AcDbSymbolTableRecord
100
AcDbBlockTableRecord
  2
*Paper_Space
340
1C
 70
     0
280
     1
281
     0
  0
ENDTAB
  0
ENDSEC
  0
SECTION
  2
BLOCKS
  0
BLOCK
  5
5E6
330
1D
100
AcDbEntity
  8
0
100
AcDbBlockBegin
  2
*Model_Space
 70
     0
 10
0.0
 20
0.0
 30
0.0
  3
*Model_Space
  1
*Model_Space
  0
ENDBLK
  5
5E7
330
1D
100
AcDbEntity
  8
0
100
AcDbBlockEnd
  0
BLOCK
  5
5E8
330
1B
100
AcDbEntity
 67
     1
  8
0
100
AcDbBlockBegin
  2
*Paper_Space
 70
     0
 10
0.0
 20
0.0
 30
0.0
  3
*Paper_Space
  1
*Paper_Space
  0
ENDBLK
  5
5E9
330
1B
100
AcDbEntity
 67
     1
  8
0
100
AcDbBlockEnd
  0
ENDSEC
  0
SECTION
  2
ENTITIES
  0
LINE
  5
21
330
1D
100
AcDbEntity
  8
CutLine
  6
Continuous
 62
     8
100
AcDbLine
 10
164.831172
 20
82.078348
 30
0.0
 11
164.762427
 21
83.003014
 31
0.0
  0
LINE
  5
22
330
1D
100
AcDbEntity
  8
CutLine
  6
Continuous
 62
     8
100
AcDbLine
 10
164.482069
 20
80.687867
 30
0.0
 11
164.796701
 21
81.06016
 31
0.0
  0
LINE
  5
23
330
1D
100
AcDbEntity
  8
CutLine
  6
Continuous
 62
     8
100
AcDbLine
 10
164.796701
 20
81.06016
 30
0.0
 11
164.831172
 21
82.078348
 31
0.0
  0
LINE
  5
24
330
1D
100
AcDbEntity
  8
CutLine
  6
Continuous
 62
     8
100
AcDbLine
 10
164.452384
 20
67.936952
 30
0.0
 11
164.21088
 21
67.968192
 31
0.0
  0
LINE
  5
25
330
1D
100
AcDbEntity
  8
CutLine
  6
Continuous
 62
     8
100
AcDbLine
 10
165.868522
 20
69.005876
 30
0.0
 11
164.452384
 21
67.936952
 31
0.0
  0
LINE
  5
26
330
1D
100
AcDbEntity
  8
CutLine
  6
Continuous
 62
     8
100
AcDbLine
 10
162.870456
 20
86.223525
 30
0.0
 11
162.182411
 21
86.587063
 31
0.0
  0
LINE
  5
27
330
1D
100
AcDbEntity
  8
CutLine
  6
Continuous
 62
     8
100
AcDbLine
 10
163.936894
 20
85.215884
 30
0.0
 11
163.455282
 21
85.766465
 31
0.0
  0
LINE
  5
28
330
1D
100
AcDbEntity
  8
CutLine
  6
Continuous
 62
     8
100
AcDbLine
 10
163.455282
 20
85.766465
 30
0.0
 11
162.870456
 21
86.223525
 31
0.0
  0
LINE
  5
29
330
1D
100
AcDbEntity
  8
CutLine
  6
Continuous
 62
     8
100
AcDbLine
 10
162.182411
 20
86.587063
 30
0.0
 11
161.391151
 21
86.857081
 31
0.0
  0
LINE
  5
2A
330
1D
100
AcDbEntity
  8
CutLine
  6
Continuous
 62
     8
100
AcDbLine
 10
164.315288
 20
84.571782
 30
0.0
 11
163.936894
 21
85.215884
 31
0.0
  0
LINE
  5
2B
330
1D
100
AcDbEntity
  8
CutLine
  6
Continuous
 62
     8
100
AcDbLine
 10
161.391151
 20
86.857081
 30
0.0
 11
160.496674
 21
87.033577
 31
0.0
  0
LINE
  5
2C
330
1D
100
AcDbEntity
  8
CutLine
  6
Continuous
 62
     8
100
AcDbLine
 10
164.590466
 20
83.834159
 30
0.0
 11
164.315288
 21
84.571782
 31
0.0
  0
LINE
  5
2D
330
1D
100
AcDbEntity
  8
CutLine
  6
Continuous
 62
     8
100
AcDbLine
 10
153.068271
 20
84.484225
 30
0.0
 11
153.417574
 21
83.126775
 31
0.0
  0
LINE
  5
2E
330
1D
100
AcDbEntity
  8
CutLine
  6
Continuous
 62
     8
100
AcDbLine
 10
152.872995
 20
87.220615
 30
0.0
 11
152.886745
 21
85.848838
 31
0.0
  0
LINE
  5
2F
330
1D
100
AcDbEntity
  8
CutLine
  6
Continuous
 62
     8
100
AcDbLine
 10
152.886745
 20
85.848838
 30
0.0
 11
153.068271
 21
84.484225
 31
0.0
  0
LINE
  5
30
330
1D
100
AcDbEntity
  8
CutLine
  6
Continuous
 62
     8
100
AcDbLine
 10
153.027023
 20
88.599554
 30
0.0
 11
152.872995
 21
87.220615
 31
0.0
  0
LINE
  5
31
330
1D
100
AcDbEntity
  8
CutLine
  6
Continuous
 62
     8
100
AcDbLine
 10
153.417574
 20
83.126775
 30
0.0
 11
153.934653
 21
81.776489
 31
0.0
  0
LINE
  5
32
330
1D
100
AcDbEntity
  8
CutLine
  6
Continuous
 62
     8
100
AcDbLine
 10
160.496674
 20
87.033577
 30
0.0
 11
159.49898
 21
87.116552
 31
0.0
  0
LINE
  5
33
330
1D
100
AcDbEntity
  8
CutLine
  6
Continuous
 62
     8
100
AcDbLine
 10
164.762427
 20
83.003014
 30
0.0
 11
164.590466
 21
83.834159
 31
0.0
  0
LINE
  5
34
330
1D
100
AcDbEntity
  8
CutLine
  6
Continuous
 62
     8
100
AcDbLine
 10
153.934653
 20
81.776489
 30
0.0
 11
154.61951
 21
80.433367
 31
0.0
  0
LINE
  5
35
330
1D
100
AcDbEntity
  8
CutLine
  6
Continuous
 62
     8
100
AcDbLine
 10
153.348827
 20
89.985657
 30
0.0
 11
153.027023
 21
88.599554
 31
0.0
  0
LINE
  5
36
330
1D
100
AcDbEntity
  8
CutLine
  6
Continuous
 62
     8
100
AcDbLine
 10
154.61951
 20
80.433367
 30
0.0
 11
155.472143
 21
79.097407
 31
0.0
  0
LINE
  5
37
330
1D
100
AcDbEntity
  8
CutLine
  6
Continuous
 62
     8
100
AcDbLine
 10
153.838408
 20
91.378924
 30
0.0
 11
153.348827
 21
89.985657
 31
0.0
  0
LINE
  5
38
330
1D
100
AcDbEntity
  8
CutLine
  6
Continuous
 62
     8
100
AcDbLine
 10
155.591502
 20
69.176204
 30
0.0
 11
155.095146
 21
69.165858
 31
0.0
  0
LINE
  5
39
330
1D
100
AcDbEntity
  8
CutLine
  6
Continuous
 62
     8
100
AcDbLine
 10
156.073113
 20
69.21361
 30
0.0
 11
155.591502
 21
69.176204
 31
0.0
  0
LINE
  5
3A
330
1D
100
AcDbEntity
  8
CutLine
  6
Continuous
 62
     8
100
AcDbLine
 10
155.472143
 20
79.097407
 30
0.0
 11
156.492552
 21
77.76861
 31
0.0
  0
LINE
  5
3B
330
1D
100
AcDbEntity
  8
CutLine
  6
Continuous
 62
     8
100
AcDbLine
 10
156.492552
 20
77.76861
 30
0.0
 11
157.680739
 21
76.446977
 31
0.0
  0
LINE
  5
3C
330
1D
100
AcDbEntity
  8
CutLine
  6
Continuous
 62
     8
100
AcDbLine
 10
157.070996
 20
99.212024
 30
0.0
 11
156.50729
 21
98.269251
 31
0.0
  0
LINE
  5
3D
330
1D
100
AcDbEntity
  8
CutLine
  6
Continuous
 62
     8
100
AcDbLine
 10
156.50729
 20
98.269251
 30
0.0
 11
155.997385
 21
97.274741
 31
0.0
  0
LINE
  5
3E
330
1D
100
AcDbEntity
  8
CutLine
  6
Continuous
 62
     8
100
AcDbLine
 10
155.997385
 20
97.274741
 30
0.0
 11
155.54128
 21
96.228498
 31
0.0
  0
LINE
  5
3F
330
1D
100
AcDbEntity
  8
CutLine
  6
Continuous
 62
     8
100
AcDbLine
 10
155.54128
 20
96.228498
 30
0.0
 11
155.138975
 21
95.130519
 31
0.0
  0
LINE
  5
40
330
1D
100
AcDbEntity
  8
CutLine
  6
Continuous
 62
     8
100
AcDbLine
 10
155.138975
 20
95.130519
 30
0.0
 11
154.79047
 21
93.980805
 31
0.0
  0
LINE
  5
41
330
1D
100
AcDbEntity
  8
CutLine
  6
Continuous
 62
     8
100
AcDbLine
 10
154.79047
 20
93.980805
 30
0.0
 11
154.495766
 21
92.779356
 31
0.0
  0
LINE
  5
42
330
1D
100
AcDbEntity
  8
CutLine
  6
Continuous
 62
     8
100
AcDbLine
 10
161.309656
 20
78.214728
 30
0.0
 11
161.692434
 21
78.411521
 31
0.0
  0
LINE
  5
43
330
1D
100
AcDbEntity
  8
CutLine
  6
Continuous
 62
     8
100
AcDbLine
 10
161.692434
 20
78.411521
 30
0.0
 11
162.06764
 21
78.627813
 31
0.0
  0
LINE
  5
44
330
1D
100
AcDbEntity
  8
CutLine
  6
Continuous
 62
     8
100
AcDbLine
 10
162.06764
 20
78.627813
 30
0.0
 11
162.435274
 21
78.863606
 31
0.0
  0
LINE
  5
45
330
1D
100
AcDbEntity
  8
CutLine
  6
Continuous
 62
     8
100
AcDbLine
 10
162.435274
 20
78.863606
 30
0.0
 11
162.795336
 21
79.1189
 31
0.0
  0
LINE
  5
46
330
1D
100
AcDbEntity
  8
CutLine
  6
Continuous
 62
     8
100
AcDbLine
 10
162.795336
 20
79.1189
 30
0.0
 11
163.147827
 21
79.393692
 31
0.0
  0
LINE
  5
47
330
1D
100
AcDbEntity
  8
CutLine
  6
Continuous
 62
     8
100
AcDbLine
 10
163.147827
 20
79.393692
 30
0.0
 11
163.492745
 21
79.687986
 31
0.0
  0
LINE
  5
48
330
1D
100
AcDbEntity
  8
CutLine
  6
Continuous
 62
     8
100
AcDbLine
 10
159.49898
 20
87.116552
 30
0.0
 11
158.39807
 21
87.106005
 31
0.0
  0
LINE
  5
49
330
1D
100
AcDbEntity
  8
CutLine
  6
Continuous
 62
     8
100
AcDbLine
 10
163.492745
 20
79.687986
 30
0.0
 11
163.830092
 21
80.001779
 31
0.0
  0
LINE
  5
4A
330
1D
100
AcDbEntity
  8
CutLine
  6
Continuous
 62
     8
100
AcDbLine
 10
163.830092
 20
80.001779
 30
0.0
 11
164.159867
 21
80.335073
 31
0.0
  0
LINE
  5
4B
330
1D
100
AcDbEntity
  8
CutLine
  6
Continuous
 62
     8
100
AcDbLine
 10
161.822154
 20
68.482158
 30
0.0
 11
161.532829
 21
68.565131
 31
0.0
  0
LINE
  5
4C
330
1D
100
AcDbEntity
  8
CutLine
  6
Continuous
 62
     8
100
AcDbLine
 10
161.532829
 20
68.565131
 30
0.0
 11
161.238722
 21
68.653283
 31
0.0
  0
LINE
  5
4D
330
1D
100
AcDbEntity
  8
CutLine
  6
Continuous
 62
     8
100
AcDbLine
 10
163.20062
 20
107.080741
 30
0.0
 11
163.041612
 21
106.84256
 31
0.0
  0
LINE
  5
4E
330
1D
100
AcDbEntity
  8
CutLine
  6
Continuous
 62
     8
100
AcDbLine
 10
163.041612
 20
106.84256
 30
0.0
 11
162.884993
 21
106.592042
 31
0.0
  0
LINE
  5
4F
330
1D
100
AcDbEntity
  8
CutLine
  6
Continuous
 62
     8
100
AcDbLine
 10
155.571961
 20
111.523393
 30
0.0
 11
155.940791
 21
111.480414
 31
0.0
  0
LINE
  5
50
330
1D
100
AcDbEntity
  8
CutLine
  6
Continuous
 62
     8
100
AcDbLine
 10
155.940791
 20
111.480414
 30
0.0
 11
156.319584
 21
111.446984
 31
0.0
  0
LINE
  5
51
330
1D
100
AcDbEntity
  8
CutLine
  6
Continuous
 62
     8
100
AcDbLine
 10
155.213095
 20
111.575923
 30
0.0
 11
155.571961
 21
111.523393
 31
0.0
  0
LINE
  5
52
330
1D
100
AcDbEntity
  8
CutLine
  6
Continuous
 62
     8
100
AcDbLine
 10
162.884993
 20
106.592042
 30
0.0
 11
162.730767
 21
106.329186
 31
0.0
  0
LINE
  5
53
330
1D
100
AcDbEntity
  8
CutLine
  6
Continuous
 62
     8
100
AcDbLine
 10
162.730767
 20
106.329186
 30
0.0
 11
162.578931
 21
106.053995
 31
0.0
  0
LINE
  5
54
330
1D
100
AcDbEntity
  8
CutLine
  6
Continuous
 62
     8
100
AcDbLine
 10
156.708339
 20
111.423108
 30
0.0
 11
157.107058
 21
111.408781
 31
0.0
  0
LINE
  5
55
330
1D
100
AcDbEntity
  8
CutLine
  6
Continuous
 62
     8
100
AcDbLine
 10
157.107058
 20
111.408781
 30
0.0
 11
157.51574
 21
111.404005
 31
0.0
  0
LINE
  5
56
330
1D
100
AcDbEntity
  8
CutLine
  6
Continuous
 62
     8
100
AcDbLine
 10
162.578931
 20
106.053995
 30
0.0
 11
162.429487
 21
105.766469
 31
0.0
  0
LINE
  5
57
330
1D
100
AcDbEntity
  8
CutLine
  6
Continuous
 62
     8
100
AcDbLine
 10
162.429487
 20
105.766469
 30
0.0
 11
162.282433
 21
105.466603
 31
0.0
  0
LINE
  5
58
330
1D
100
AcDbEntity
  8
CutLine
  6
Continuous
 62
     8
100
AcDbLine
 10
157.51574
 20
111.404005
 30
0.0
 11
157.934384
 21
111.408781
 31
0.0
  0
LINE
  5
59
330
1D
100
AcDbEntity
  8
CutLine
  6
Continuous
 62
     8
100
AcDbLine
 10
157.934384
 20
111.408781
 30
0.0
 11
158.362992
 21
111.423109
 31
0.0
  0
LINE
  5
5A
330
1D
100
AcDbEntity
  8
CutLine
  6
Continuous
 62
     8
100
AcDbLine
 10
162.282433
 20
105.466603
 30
0.0
 11
162.137771
 21
105.154401
 31
0.0
  0
LINE
  5
5B
330
1D
100
AcDbEntity
  8
CutLine
  6
Continuous
 62
     8
100
AcDbLine
 10
162.137771
 20
105.154401
 30
0.0
 11
161.9955
 21
104.829863
 31
0.0
  0
LINE
  5
5C
330
1D
100
AcDbEntity
  8
CutLine
  6
Continuous
 62
     8
100
AcDbLine
 10
158.362992
 20
111.423109
 30
0.0
 11
158.801562
 21
111.446984
 31
0.0
  0
LINE
  5
5D
330
1D
100
AcDbEntity
  8
CutLine
  6
Continuous
 62
     8
100
AcDbLine
 10
158.801562
 20
111.446984
 30
0.0
 11
159.250096
 21
111.480415
 31
0.0
  0
LINE
  5
5E
330
1D
100
AcDbEntity
  8
CutLine
  6
Continuous
 62
     8
100
AcDbLine
 10
161.9955
 20
104.829863
 30
0.0
 11
161.855619
 21
104.492987
 31
0.0
  0
LINE
  5
5F
330
1D
100
AcDbEntity
  8
CutLine
  6
Continuous
 62
     8
100
AcDbLine
 10
161.855619
 20
104.492987
 30
0.0
 11
161.71813
 21
104.143774
 31
0.0
  0
LINE
  5
60
330
1D
100
AcDbEntity
  8
CutLine
  6
Continuous
 62
     8
100
AcDbLine
 10
159.250096
 20
111.480415
 30
0.0
 11
159.708593
 21
111.523394
 31
0.0
  0
LINE
  5
61
330
1D
100
AcDbEntity
  8
CutLine
  6
Continuous
 62
     8
100
AcDbLine
 10
159.708593
 20
111.523394
 30
0.0
 11
160.177052
 21
111.575925
 31
0.0
  0
LINE
  5
62
330
1D
100
AcDbEntity
  8
CutLine
  6
Continuous
 62
     8
100
AcDbLine
 10
160.404818
 20
75.304427
 30
0.0
 11
160.421755
 21
76.142934
 31
0.0
  0
LINE
  5
63
330
1D
100
AcDbEntity
  8
CutLine
  6
Continuous
 62
     8
100
AcDbLine
 10
160.421755
 20
76.142934
 30
0.0
 11
160.46061
 21
77.00134
 31
0.0
  0
LINE
  5
64
330
1D
100
AcDbEntity
  8
CutLine
  6
Continuous
 62
     8
100
AcDbLine
 10
157.680739
 20
76.446977
 30
0.0
 11
156.992099
 21
69.369614
 31
0.0
  0
LINE
  5
65
330
1D
100
AcDbEntity
  8
CutLine
  6
Continuous
 62
     8
100
AcDbLine
 10
160.89998
 20
69.992029
 30
0.0
 11
160.763487
 21
70.691247
 31
0.0
  0
LINE
  5
66
330
1D
100
AcDbEntity
  8
CutLine
  6
Continuous
 62
     8
100
AcDbLine
 10
160.648912
 20
71.410366
 30
0.0
 11
160.556256
 21
72.149382
 31
0.0
  0
LINE
  5
67
330
1D
100
AcDbEntity
  8
CutLine
  6
Continuous
 62
     8
100
AcDbLine
 10
160.763487
 20
70.691247
 30
0.0
 11
160.648912
 21
71.410366
 31
0.0
  0
LINE
  5
68
330
1D
100
AcDbEntity
  8
MountainLine
  6
Continuous
 62
     5
100
AcDbLine
 10
186.833263
 20
59.999999
 30
0.0
 11
186.833279
 21
119.999969
 31
0.0
  0
LINE
  5
69
330
1D
100
AcDbEntity
  8
CutLine
  6
Continuous
 62
     8
100
AcDbLine
 10
172.333498
 20
77.513522
 30
0.0
 11
171.779357
 21
76.188307
 31
0.0
  0
LINE
  5
6A
330
1D
100
AcDbEntity
  8
CutLine
  6
Continuous
 62
     8
100
AcDbLine
 10
163.964596
 20
68.004603
 30
0.0
 11
163.713529
 21
68.046192
 31
0.0
  0
LINE
  5
6B
330
1D
100
AcDbEntity
  8
CutLine
  6
Continuous
 62
     8
100
AcDbLine
 10
164.21088
 20
67.968192
 30
0.0
 11
163.964596
 21
68.004603
 31
0.0
  0
LINE
  5
6C
330
1D
100
AcDbEntity
  8
CutLine
  6
Continuous
 62
     8
100
AcDbLine
 10
158.39807
 20
87.106005
 30
0.0
 11
156.619079
 21
88.882509
 31
0.0
  0
LINE
  5
6D
330
1D
100
AcDbEntity
  8
CutLine
  6
Continuous
 62
     8
100
AcDbLine
 10
160.4098
 20
74.485819
 30
0.0
 11
160.404818
 21
75.304427
 31
0.0
  0
LINE
  5
6E
330
1D
100
AcDbEntity
  8
CutLine
  6
Continuous
 62
     8
100
AcDbLine
 10
160.485519
 20
72.908294
 30
0.0
 11
160.4367
 21
73.687107
 31
0.0
  0
LINE
  5
6F
330
1D
100
AcDbEntity
  8
CutLine
  6
Continuous
 62
     8
100
AcDbLine
 10
160.4367
 20
73.687107
 30
0.0
 11
160.4098
 21
74.485819
 31
0.0
  0
LINE
  5
70
330
1D
100
AcDbEntity
  8
CutLine
  6
Continuous
 62
     8
100
AcDbLine
 10
156.631831
 20
90.62081
 30
0.0
 11
156.733851
 21
91.46847
 31
0.0
  0
LINE
  5
71
330
1D
100
AcDbEntity
  8
CutLine
  6
Continuous
 62
     8
100
AcDbLine
 10
156.593573
 20
89.758823
 30
0.0
 11
156.631831
 21
90.62081
 31
0.0
  0
LINE
  5
72
330
1D
100
AcDbEntity
  8
CutLine
  6
Continuous
 62
     8
100
AcDbLine
 10
161.71813
 20
104.143774
 30
0.0
 11
161.583031
 21
103.782226
 31
0.0
  0
LINE
  5
73
330
1D
100
AcDbEntity
  8
CutLine
  6
Continuous
 62
     8
100
AcDbLine
 10
157.422492
 20
93.92549
 30
0.0
 11
157.779565
 21
94.715844
 31
0.0
  0
LINE
  5
74
330
1D
100
AcDbEntity
  8
CutLine
  6
Continuous
 62
     8
100
AcDbLine
 10
157.129182
 20
93.12081
 30
0.0
 11
157.422492
 21
93.92549
 31
0.0
  0
LINE
  5
75
330
1D
100
AcDbEntity
  8
CutLine
  6
Continuous
 62
     8
100
AcDbLine
 10
167.439674
 20
95.966243
 30
0.0
 11
168.754789
 21
94.937711
 31
0.0
  0
LINE
  5
76
330
1D
100
AcDbEntity
  8
CutLine
  6
Continuous
 62
     8
100
AcDbLine
 10
165.958776
 20
96.832011
 30
0.0
 11
167.439674
 21
95.966243
 31
0.0
  0
LINE
  5
77
330
1D
100
AcDbEntity
  8
CutLine
  6
Continuous
 62
     8
100
AcDbLine
 10
168.754789
 20
94.937711
 30
0.0
 11
169.904121
 21
93.74641
 31
0.0
  0
LINE
  5
78
330
1D
100
AcDbEntity
  8
CutLine
  6
Continuous
 62
     8
100
AcDbLine
 10
162.386459
 20
68.331727
 30
0.0
 11
162.106698
 21
68.404356
 31
0.0
  0
LINE
  5
79
330
1D
100
AcDbEntity
  8
CutLine
  6
Continuous
 62
     8
100
AcDbLine
 10
154.584045
 20
69.18257
 30
0.0
 11
154.058199
 21
69.226346
 31
0.0
  0
LINE
  5
7A
330
1D
100
AcDbEntity
  8
MountainLine
  6
Continuous
 62
     5
100
AcDbLine
 10
126.833297
 20
119.999967
 30
0.0
 11
126.833303
 21
60.000009
 31
0.0
  0
LINE
  5
7B
330
1D
100
AcDbEntity
  8
CutLine
  6
Continuous
 62
     8
100
AcDbLine
 10
143.758062
 20
77.239714
 30
0.0
 11
142.764553
 21
79.244251
 31
0.0
  0
LINE
  5
7C
330
1D
100
AcDbEntity
  8
CutLine
  6
Continuous
 62
     8
100
AcDbLine
 10
141.651884
 20
88.098121
 30
0.0
 11
142.089059
 21
90.520519
 31
0.0
  0
LINE
  5
7D
330
1D
100
AcDbEntity
  8
CutLine
  6
Continuous
 62
     8
100
AcDbLine
 10
141.500847
 20
85.759295
 30
0.0
 11
141.651884
 21
88.098121
 31
0.0
  0
LINE
  5
7E
330
1D
100
AcDbEntity
  8
CutLine
  6
Continuous
 62
     8
100
AcDbLine
 10
144.216554
 20
97.123315
 30
0.0
 11
144.712113
 21
98.598361
 31
0.0
  0
LINE
  5
7F
330
1D
100
AcDbEntity
  8
CutLine
  6
Continuous
 62
     8
100
AcDbLine
 10
142.812371
 20
93.026488
 30
0.0
 11
143.821819
 21
95.616031
 31
0.0
  0
LINE
  5
80
330
1D
100
AcDbEntity
  8
CutLine
  6
Continuous
 62
     8
100
AcDbLine
 10
143.821819
 20
95.616031
 30
0.0
 11
144.216554
 21
97.123315
 31
0.0
  0
LINE
  5
81
330
1D
100
AcDbEntity
  8
CutLine
  6
Continuous
 62
     8
100
AcDbLine
 10
153.709282
 20
110.423225
 30
0.0
 11
155.213095
 21
111.575923
 31
0.0
  0
LINE
  5
82
330
1D
100
AcDbEntity
  8
CutLine
  6
Continuous
 62
     8
100
AcDbLine
 10
162.764839
 20
108.572701
 30
0.0
 11
162.978645
 21
108.165385
 31
0.0
  0
LINE
  5
83
330
1D
100
AcDbEntity
  8
CutLine
  6
Continuous
 62
     8
100
AcDbLine
 10
162.536288
 20
108.96529
 30
0.0
 11
162.764839
 21
108.572701
 31
0.0
  0
LINE
  5
84
330
1D
100
AcDbEntity
  8
CutLine
  6
Continuous
 62
     8
100
AcDbLine
 10
162.978645
 20
108.165385
 30
0.0
 11
163.177706
 21
107.743347
 31
0.0
  0
LINE
  5
85
330
1D
100
AcDbEntity
  8
CutLine
  6
Continuous
 62
     8
100
AcDbLine
 10
162.292992
 20
109.343158
 30
0.0
 11
162.536288
 21
108.96529
 31
0.0
  0
LINE
  5
86
330
1D
100
AcDbEntity
  8
CutLine
  6
Continuous
 62
     8
100
AcDbLine
 10
162.03495
 20
109.706299
 30
0.0
 11
162.292992
 21
109.343158
 31
0.0
  0
LINE
  5
87
330
1D
100
AcDbEntity
  8
CutLine
  6
Continuous
 62
     8
100
AcDbLine
 10
161.762164
 20
110.054714
 30
0.0
 11
162.03495
 21
109.706299
 31
0.0
  0
LINE
  5
88
330
1D
100
AcDbEntity
  8
CutLine
  6
Continuous
 62
     8
100
AcDbLine
 10
161.474632
 20
110.388407
 30
0.0
 11
161.762164
 21
110.054714
 31
0.0
  0
LINE
  5
89
330
1D
100
AcDbEntity
  8
CutLine
  6
Continuous
 62
     8
100
AcDbLine
 10
161.172355
 20
110.70737
 30
0.0
 11
161.474632
 21
110.388407
 31
0.0
  0
LINE
  5
8A
330
1D
100
AcDbEntity
  8
CutLine
  6
Continuous
 62
     8
100
AcDbLine
 10
160.855332
 20
111.011614
 30
0.0
 11
161.172355
 21
110.70737
 31
0.0
  0
LINE
  5
8B
330
1D
100
AcDbEntity
  8
CutLine
  6
Continuous
 62
     8
100
AcDbLine
 10
160.523565
 20
111.301132
 30
0.0
 11
160.855332
 21
111.011614
 31
0.0
  0
LINE
  5
8C
330
1D
100
AcDbEntity
  8
CutLine
  6
Continuous
 62
     8
100
AcDbLine
 10
160.177052
 20
111.575925
 30
0.0
 11
160.523565
 21
111.301132
 31
0.0
  0
LINE
  5
8D
330
1D
100
AcDbEntity
  8
MountainLine
  6
Continuous
 62
     5
100
AcDbLine
 10
186.833279
 20
119.999969
 30
0.0
 11
126.833297
 21
119.999967
 31
0.0
  0
LINE
  5
8E
330
1D
100
AcDbEntity
  8
CutLine
  6
Continuous
 62
     8
100
AcDbLine
 10
163.177706
 20
107.743347
 30
0.0
 11
163.36202
 21
107.306583
 31
0.0
  0
LINE
  5
8F
330
1D
100
AcDbEntity
  8
CutLine
  6
Continuous
 62
     8
100
AcDbLine
 10
152.306294
 20
109.238288
 30
0.0
 11
153.709282
 21
110.423225
 31
0.0
  0
LINE
  5
90
330
1D
100
AcDbEntity
  8
CutLine
  6
Continuous
 62
     8
100
AcDbLine
 10
151.004132
 20
108.021119
 30
0.0
 11
152.306294
 21
109.238288
 31
0.0
  0
LINE
  5
91
330
1D
100
AcDbEntity
  8
CutLine
  6
Continuous
 62
     8
100
AcDbLine
 10
149.802796
 20
106.771716
 30
0.0
 11
151.004132
 21
108.021119
 31
0.0
  0
LINE
  5
92
330
1D
100
AcDbEntity
  8
CutLine
  6
Continuous
 62
     8
100
AcDbLine
 10
148.702285
 20
105.490077
 30
0.0
 11
149.802796
 21
106.771716
 31
0.0
  0
LINE
  5
93
330
1D
100
AcDbEntity
  8
CutLine
  6
Continuous
 62
     8
100
AcDbLine
 10
147.7026
 20
104.176204
 30
0.0
 11
148.702285
 21
105.490077
 31
0.0
  0
LINE
  5
94
330
1D
100
AcDbEntity
  8
CutLine
  6
Continuous
 62
     8
100
AcDbLine
 10
146.80374
 20
102.830094
 30
0.0
 11
147.7026
 21
104.176204
 31
0.0
  0
LINE
  5
95
330
1D
100
AcDbEntity
  8
CutLine
  6
Continuous
 62
     8
100
AcDbLine
 10
146.005706
 20
101.451752
 30
0.0
 11
146.80374
 21
102.830094
 31
0.0
  0
LINE
  5
96
330
1D
100
AcDbEntity
  8
CutLine
  6
Continuous
 62
     8
100
AcDbLine
 10
145.308496
 20
100.041174
 30
0.0
 11
146.005706
 21
101.451752
 31
0.0
  0
LINE
  5
97
330
1D
100
AcDbEntity
  8
CutLine
  6
Continuous
 62
     8
100
AcDbLine
 10
144.712113
 20
98.598361
 30
0.0
 11
145.308496
 21
100.041174
 31
0.0
  0
LINE
  5
98
330
1D
100
AcDbEntity
  8
CutLine
  6
Continuous
 62
     8
100
AcDbLine
 10
142.089059
 20
90.520519
 30
0.0
 11
142.812371
 21
93.026488
 31
0.0
  0
LINE
  5
99
330
1D
100
AcDbEntity
  8
CutLine
  6
Continuous
 62
     8
100
AcDbLine
 10
141.635945
 20
83.504042
 30
0.0
 11
141.500847
 21
85.759295
 31
0.0
  0
LINE
  5
9A
330
1D
100
AcDbEntity
  8
CutLine
  6
Continuous
 62
     8
100
AcDbLine
 10
142.057181
 20
81.33236
 30
0.0
 11
141.635945
 21
83.504042
 31
0.0
  0
LINE
  5
9B
330
1D
100
AcDbEntity
  8
CutLine
  6
Continuous
 62
     8
100
AcDbLine
 10
142.764553
 20
79.244251
 30
0.0
 11
142.057181
 21
81.33236
 31
0.0
  0
LINE
  5
9C
330
1D
100
AcDbEntity
  8
CutLine
  6
Continuous
 62
     8
100
AcDbLine
 10
145.037709
 20
75.318749
 30
0.0
 11
143.758062
 21
77.239714
 31
0.0
  0
LINE
  5
9D
330
1D
100
AcDbEntity
  8
CutLine
  6
Continuous
 62
     8
100
AcDbLine
 10
146.603492
 20
73.481357
 30
0.0
 11
145.037709
 21
75.318749
 31
0.0
  0
LINE
  5
9E
330
1D
100
AcDbEntity
  8
CutLine
  6
Continuous
 62
     8
100
AcDbLine
 10
148.455412
 20
71.727537
 30
0.0
 11
146.603492
 21
73.481357
 31
0.0
  0
LINE
  5
9F
330
1D
100
AcDbEntity
  8
CutLine
  6
Continuous
 62
     8
100
AcDbLine
 10
150.59347
 20
70.057289
 30
0.0
 11
148.455412
 21
71.727537
 31
0.0
  0
LINE
  5
A0
330
1D
100
AcDbEntity
  8
CutLine
  6
Continuous
 62
     8
100
AcDbLine
 10
151.207788
 20
69.851147
 30
0.0
 11
150.59347
 21
70.057289
 31
0.0
  0
LINE
  5
A1
330
1D
100
AcDbEntity
  8
CutLine
  6
Continuous
 62
     8
100
AcDbLine
 10
151.80736
 20
69.672065
 30
0.0
 11
151.207788
 21
69.851147
 31
0.0
  0
LINE
  5
A2
330
1D
100
AcDbEntity
  8
CutLine
  6
Continuous
 62
     8
100
AcDbLine
 10
152.392188
 20
69.520043
 30
0.0
 11
151.80736
 21
69.672065
 31
0.0
  0
LINE
  5
A3
330
1D
100
AcDbEntity
  8
CutLine
  6
Continuous
 62
     8
100
AcDbLine
 10
152.96227
 20
69.395082
 30
0.0
 11
152.392188
 21
69.520043
 31
0.0
  0
LINE
  5
A4
330
1D
100
AcDbEntity
  8
CutLine
  6
Continuous
 62
     8
100
AcDbLine
 10
153.517607
 20
69.297182
 30
0.0
 11
152.96227
 21
69.395082
 31
0.0
  0
LINE
  5
A5
330
1D
100
AcDbEntity
  8
CutLine
  6
Continuous
 62
     8
100
AcDbLine
 10
154.058199
 20
69.226346
 30
0.0
 11
153.517607
 21
69.297182
 31
0.0
  0
LINE
  5
A6
330
1D
100
AcDbEntity
  8
CutLine
  6
Continuous
 62
     8
100
AcDbLine
 10
162.661437
 20
68.264274
 30
0.0
 11
162.386459
 21
68.331727
 31
0.0
  0
LINE
  5
A7
330
1D
100
AcDbEntity
  8
CutLine
  6
Continuous
 62
     8
100
AcDbLine
 10
169.904121
 20
93.74641
 30
0.0
 11
170.887667
 21
92.392344
 31
0.0
  0
LINE
  5
A8
330
1D
100
AcDbEntity
  8
CutLine
  6
Continuous
 62
     8
100
AcDbLine
 10
164.312093
 20
97.53501
 30
0.0
 11
165.958776
 21
96.832011
 31
0.0
  0
LINE
  5
A9
330
1D
100
AcDbEntity
  8
CutLine
  6
Continuous
 62
     8
100
AcDbLine
 10
170.887667
 20
92.392344
 30
0.0
 11
171.705429
 21
90.87551
 31
0.0
  0
LINE
  5
AA
330
1D
100
AcDbEntity
  8
CutLine
  6
Continuous
 62
     8
100
AcDbLine
 10
162.499626
 20
98.075242
 30
0.0
 11
164.312093
 21
97.53501
 31
0.0
  0
LINE
  5
AB
330
1D
100
AcDbEntity
  8
CutLine
  6
Continuous
 62
     8
100
AcDbLine
 10
171.705429
 20
90.87551
 30
0.0
 11
172.357408
 21
89.195909
 31
0.0
  0
LINE
  5
AC
330
1D
100
AcDbEntity
  8
CutLine
  6
Continuous
 62
     8
100
AcDbLine
 10
160.521377
 20
98.452712
 30
0.0
 11
162.499626
 21
98.075242
 31
0.0
  0
LINE
  5
AD
330
1D
100
AcDbEntity
  8
CutLine
  6
Continuous
 62
     8
100
AcDbLine
 10
172.357408
 20
89.195909
 30
0.0
 11
172.843604
 21
87.353543
 31
0.0
  0
LINE
  5
AE
330
1D
100
AcDbEntity
  8
CutLine
  6
Continuous
 62
     8
100
AcDbLine
 10
159.845489
 20
97.733992
 30
0.0
 11
160.521377
 21
98.452712
 31
0.0
  0
LINE
  5
AF
330
1D
100
AcDbEntity
  8
CutLine
  6
Continuous
 62
     8
100
AcDbLine
 10
172.843604
 20
87.353543
 30
0.0
 11
173.164013
 21
85.348409
 31
0.0
  0
LINE
  5
B0
330
1D
100
AcDbEntity
  8
CutLine
  6
Continuous
 62
     8
100
AcDbLine
 10
159.233363
 20
97.000945
 30
0.0
 11
159.845489
 21
97.733992
 31
0.0
  0
LINE
  5
B1
330
1D
100
AcDbEntity
  8
CutLine
  6
Continuous
 62
     8
100
AcDbLine
 10
173.164013
 20
85.348409
 30
0.0
 11
173.318639
 21
83.180508
 31
0.0
  0
LINE
  5
B2
330
1D
100
AcDbEntity
  8
CutLine
  6
Continuous
 62
     8
100
AcDbLine
 10
158.685001
 20
96.25357
 30
0.0
 11
159.233363
 21
97.000945
 31
0.0
  0
LINE
  5
B3
330
1D
100
AcDbEntity
  8
CutLine
  6
Continuous
 62
     8
100
AcDbLine
 10
173.318639
 20
83.180508
 30
0.0
 11
173.257065
 21
81.708842
 31
0.0
  0
LINE
  5
B4
330
1D
100
AcDbEntity
  8
CutLine
  6
Continuous
 62
     8
100
AcDbLine
 10
158.200401
 20
95.49187
 30
0.0
 11
158.685001
 21
96.25357
 31
0.0
  0
LINE
  5
B5
330
1D
100
AcDbEntity
  8
CutLine
  6
Continuous
 62
     8
100
AcDbLine
 10
173.257065
 20
81.708842
 30
0.0
 11
173.072352
 21
80.27379
 31
0.0
  0
LINE
  5
B6
330
1D
100
AcDbEntity
  8
CutLine
  6
Continuous
 62
     8
100
AcDbLine
 10
157.779565
 20
94.715844
 30
0.0
 11
158.200401
 21
95.49187
 31
0.0
  0
LINE
  5
B7
330
1D
100
AcDbEntity
  8
CutLine
  6
Continuous
 62
     8
100
AcDbLine
 10
173.072352
 20
80.27379
 30
0.0
 11
172.764496
 21
78.87535
 31
0.0
  0
LINE
  5
B8
330
1D
100
AcDbEntity
  8
CutLine
  6
Continuous
 62
     8
100
AcDbLine
 10
172.764496
 20
78.87535
 30
0.0
 11
172.333498
 21
77.513522
 31
0.0
  0
LINE
  5
B9
330
1D
100
AcDbEntity
  8
CutLine
  6
Continuous
 62
     8
100
AcDbLine
 10
156.899635
 20
92.301803
 30
0.0
 11
157.129182
 21
93.12081
 31
0.0
  0
LINE
  5
BA
330
1D
100
AcDbEntity
  8
CutLine
  6
Continuous
 62
     8
100
AcDbLine
 10
156.733851
 20
91.46847
 30
0.0
 11
156.899635
 21
92.301803
 31
0.0
  0
LINE
  5
BB
330
1D
100
AcDbEntity
  8
CutLine
  6
Continuous
 62
     8
100
AcDbLine
 10
162.931633
 20
68.201994
 30
0.0
 11
162.661437
 21
68.264274
 31
0.0
  0
LINE
  5
BC
330
1D
100
AcDbEntity
  8
CutLine
  6
Continuous
 62
     8
100
AcDbLine
 10
163.197047
 20
68.144886
 30
0.0
 11
162.931633
 21
68.201994
 31
0.0
  0
LINE
  5
BD
330
1D
100
AcDbEntity
  8
CutLine
  6
Continuous
 62
     8
100
AcDbLine
 10
156.619079
 20
88.882509
 30
0.0
 11
156.593573
 21
89.758823
 31
0.0
  0
LINE
  5
BE
330
1D
100
AcDbEntity
  8
CutLine
  6
Continuous
 62
     8
100
AcDbLine
 10
163.457679
 20
68.092951
 30
0.0
 11
163.197047
 21
68.144886
 31
0.0
  0
LINE
  5
BF
330
1D
100
AcDbEntity
  8
CutLine
  6
Continuous
 62
     8
100
AcDbLine
 10
163.713529
 20
68.046192
 30
0.0
 11
163.457679
 21
68.092951
 31
0.0
  0
LINE
  5
C0
330
1D
100
AcDbEntity
  8
CutLine
  6
Continuous
 62
     8
100
AcDbLine
 10
160.556256
 20
72.149382
 30
0.0
 11
160.485519
 21
72.908294
 31
0.0
  0
LINE
  5
C1
330
1D
100
AcDbEntity
  8
CutLine
  6
Continuous
 62
     8
100
AcDbLine
 10
171.779357
 20
76.188307
 30
0.0
 11
171.102074
 21
74.899704
 31
0.0
  0
LINE
  5
C2
330
1D
100
AcDbEntity
  8
CutLine
  6
Continuous
 62
     8
100
AcDbLine
 10
171.102074
 20
74.899704
 30
0.0
 11
170.301648
 21
73.647714
 31
0.0
  0
LINE
  5
C3
330
1D
100
AcDbEntity
  8
CutLine
  6
Continuous
 62
     8
100
AcDbLine
 10
162.106698
 20
68.404356
 30
0.0
 11
161.822154
 21
68.482158
 31
0.0
  0
LINE
  5
C4
330
1D
100
AcDbEntity
  8
CutLine
  6
Continuous
 62
     8
100
AcDbLine
 10
155.095146
 20
69.165858
 30
0.0
 11
154.584045
 21
69.18257
 31
0.0
  0
LINE
  5
C5
330
1D
100
AcDbEntity
  8
CutLine
  6
Continuous
 62
     8
100
AcDbLine
 10
170.301648
 20
73.647714
 30
0.0
 11
169.37808
 21
72.432335
 31
0.0
  0
LINE
  5
C6
330
1D
100
AcDbEntity
  8
CutLine
  6
Continuous
 62
     8
100
AcDbLine
 10
169.37808
 20
72.432335
 30
0.0
 11
168.33137
 21
71.253571
 31
0.0
  0
LINE
  5
C7
330
1D
100
AcDbEntity
  8
CutLine
  6
Continuous
 62
     8
100
AcDbLine
 10
161.058391
 20
69.312708
 30
0.0
 11
160.89998
 21
69.992029
 31
0.0
  0
LINE
  5
C8
330
1D
100
AcDbEntity
  8
CutLine
  6
Continuous
 62
     8
100
AcDbLine
 10
156.992099
 20
69.369614
 30
0.0
 11
156.539979
 21
69.27808
 31
0.0
  0
LINE
  5
C9
330
1D
100
AcDbEntity
  8
CutLine
  6
Continuous
 62
     8
100
AcDbLine
 10
156.539979
 20
69.27808
 30
0.0
 11
156.073113
 21
69.21361
 31
0.0
  0
LINE
  5
CA
330
1D
100
AcDbEntity
  8
CutLine
  6
Continuous
 62
     8
100
AcDbLine
 10
168.33137
 20
71.253571
 30
0.0
 11
167.161516
 21
70.111419
 31
0.0
  0
LINE
  5
CB
330
1D
100
AcDbEntity
  8
CutLine
  6
Continuous
 62
     8
100
AcDbLine
 10
160.46061
 20
77.00134
 30
0.0
 11
160.521384
 21
77.879644
 31
0.0
  0
LINE
  5
CC
330
1D
100
AcDbEntity
  8
CutLine
  6
Continuous
 62
     8
100
AcDbLine
 10
161.238722
 20
68.653283
 30
0.0
 11
161.058391
 21
69.312708
 31
0.0
  0
LINE
  5
CD
330
1D
100
AcDbEntity
  8
CutLine
  6
Continuous
 62
     8
100
AcDbLine
 10
167.161516
 20
70.111419
 30
0.0
 11
165.868522
 21
69.005876
 31
0.0
  0
LINE
  5
CE
330
1D
100
AcDbEntity
  8
MountainLine
  6
Continuous
 62
     5
100
AcDbLine
 10
126.833303
 20
60.000009
 30
0.0
 11
186.833263
 21
59.999999
 31
0.0
  0
LINE
  5
CF
330
1D
100
AcDbEntity
  8
CutLine
  6
Continuous
 62
     8
100
AcDbLine
 10
156.319584
 20
111.446984
 30
0.0
 11
156.708339
 21
111.423108
 31
0.0
  0
LINE
  5
D0
330
1D
100
AcDbEntity
  8
CutLine
  6
Continuous
 62
     8
100
AcDbLine
 10
163.36202
 20
107.306583
 30
0.0
 11
163.20062
 21
107.080741
 31
0.0
  0
LINE
  5
D1
330
1D
100
AcDbEntity
  8
CutLine
  6
Continuous
 62
     8
100
AcDbLine
 10
160.521384
 20
77.879644
 30
0.0
 11
160.919307
 21
78.037435
 31
0.0
  0
LINE
  5
D2
330
1D
100
AcDbEntity
  8
CutLine
  6
Continuous
 62
     8
100
AcDbLine
 10
160.919307
 20
78.037435
 30
0.0
 11
161.309656
 21
78.214728
 31
0.0
  0
LINE
  5
D3
330
1D
100
AcDbEntity
  8
CutLine
  6
Continuous
 62
     8
100
AcDbLine
 10
157.688501
 20
100.103063
 30
0.0
 11
157.070996
 21
99.212024
 31
0.0
  0
LINE
  5
D4
330
1D
100
AcDbEntity
  8
CutLine
  6
Continuous
 62
     8
100
AcDbLine
 10
161.583031
 20
103.782226
 30
0.0
 11
160.696525
 21
103.149863
 31
0.0
  0
LINE
  5
D5
330
1D
100
AcDbEntity
  8
CutLine
  6
Continuous
 62
     8
100
AcDbLine
 10
158.359807
 20
100.942365
 30
0.0
 11
157.688501
 21
100.103063
 31
0.0
  0
LINE
  5
D6
330
1D
100
AcDbEntity
  8
CutLine
  6
Continuous
 62
     8
100
AcDbLine
 10
160.696525
 20
103.149863
 30
0.0
 11
159.863819
 21
102.465765
 31
0.0
  0
LINE
  5
D7
330
1D
100
AcDbEntity
  8
CutLine
  6
Continuous
 62
     8
100
AcDbLine
 10
159.863819
 20
102.465765
 30
0.0
 11
159.084913
 21
101.729934
 31
0.0
  0
LINE
  5
D8
330
1D
100
AcDbEntity
  8
CutLine
  6
Continuous
 62
     8
100
AcDbLine
 10
159.084913
 20
101.729934
 30
0.0
 11
158.359807
 21
100.942365
 31
0.0
  0
LINE
  5
D9
330
1D
100
AcDbEntity
  8
CutLine
  6
Continuous
 62
     8
100
AcDbLine
 10
154.495766
 20
92.779356
 30
0.0
 11
153.838408
 21
91.378924
 31
0.0
  0
LINE
  5
DA
330
1D
100
AcDbEntity
  8
CutLine
  6
Continuous
 62
     8
100
AcDbLine
 10
164.159867
 20
80.335073
 30
0.0
 11
164.482069
 21
80.687867
 31
0.0
  0
LINE
  5
DB
330
1D
100
AcDbEntity
  8
CutLine
  6
Continuous
 62
     8
100
AcDbLine
 10
80.74474
 20
93.676306
 30
0.0
 11
80.232164
 21
93.936374
 31
0.0
  0
LINE
  5
DC
330
1D
100
AcDbEntity
  8
CutLine
  6
Continuous
 62
     8
100
AcDbLine
 10
82.97333
 20
92.226728
 30
0.0
 11
82.572184
 21
92.536542
 31
0.0
  0
LINE
  5
DD
330
1D
100
AcDbEntity
  8
CutLine
  6
Continuous
 62
     8
100
AcDbLine
 10
82.572184
 20
92.536542
 30
0.0
 11
82.148752
 21
92.836407
 31
0.0
  0
LINE
  5
DE
330
1D
100
AcDbEntity
  8
CutLine
  6
Continuous
 62
     8
100
AcDbLine
 10
82.148752
 20
92.836407
 30
0.0
 11
81.703034
 21
93.126322
 31
0.0
  0
LINE
  5
DF
330
1D
100
AcDbEntity
  8
CutLine
  6
Continuous
 62
     8
100
AcDbLine
 10
81.703034
 20
93.126322
 30
0.0
 11
81.235029
 21
93.406288
 31
0.0
  0
LINE
  5
E0
330
1D
100
AcDbEntity
  8
CutLine
  6
Continuous
 62
     8
100
AcDbLine
 10
81.235029
 20
93.406288
 30
0.0
 11
80.74474
 21
93.676306
 31
0.0
  0
LINE
  5
E1
330
1D
100
AcDbEntity
  8
CutLine
  6
Continuous
 62
     8
100
AcDbLine
 10
83.656432
 20
91.600335
 30
0.0
 11
83.35219
 21
91.906965
 31
0.0
  0
LINE
  5
E2
330
1D
100
AcDbEntity
  8
CutLine
  6
Continuous
 62
     8
100
AcDbLine
 10
83.35219
 20
91.906965
 30
0.0
 11
82.97333
 21
92.226728
 31
0.0
  0
LINE
  5
E3
330
1D
100
AcDbEntity
  8
CutLine
  6
Continuous
 62
     8
100
AcDbLine
 10
83.681704
 20
86.735048
 30
0.0
 11
83.893022
 21
86.530892
 31
0.0
  0
LINE
  5
E4
330
1D
100
AcDbEntity
  8
CutLine
  6
Continuous
 62
     8
100
AcDbLine
 10
83.893022
 20
86.530892
 30
0.0
 11
84.116278
 21
86.329125
 31
0.0
  0
LINE
  5
E5
330
1D
100
AcDbEntity
  8
CutLine
  6
Continuous
 62
     8
100
AcDbLine
 10
105.096459
 20
93.33426
 30
0.0
 11
104.71322
 21
93.572838
 31
0.0
  0
LINE
  5
E6
330
1D
100
AcDbEntity
  8
CutLine
  6
Continuous
 62
     8
100
AcDbLine
 10
103.8966
 20
94.027311
 30
0.0
 11
102.929751
 21
94.265494
 31
0.0
  0
LINE
  5
E7
330
1D
100
AcDbEntity
  8
CutLine
  6
Continuous
 62
     8
100
AcDbLine
 10
104.71322
 20
93.572838
 30
0.0
 11
104.313268
 21
93.803855
 31
0.0
  0
LINE
  5
E8
330
1D
100
AcDbEntity
  8
CutLine
  6
Continuous
 62
     8
100
AcDbLine
 10
104.313268
 20
93.803855
 30
0.0
 11
103.8966
 21
94.027311
 31
0.0
  0
LINE
  5
E9
330
1D
100
AcDbEntity
  8
CutLine
  6
Continuous
 62
     8
100
AcDbLine
 10
110.528051
 20
87.444217
 30
0.0
 11
111.485748
 21
87.316073
 31
0.0
  0
LINE
  5
EA
330
1D
100
AcDbEntity
  8
CutLine
  6
Continuous
 62
     8
100
AcDbLine
 10
111.485748
 20
87.316073
 30
0.0
 11
112.455781
 21
87.151318
 31
0.0
  0
LINE
  5
EB
330
1D
100
AcDbEntity
  8
CutLine
  6
Continuous
 62
     8
100
AcDbLine
 10
112.455781
 20
87.151318
 30
0.0
 11
113.438147
 21
86.949948
 31
0.0
  0
LINE
  5
EC
330
1D
100
AcDbEntity
  8
CutLine
  6
Continuous
 62
     8
100
AcDbLine
 10
113.438147
 20
86.949948
 30
0.0
 11
116.274827
 21
86.949948
 31
0.0
  0
LINE
  5
ED
330
1D
100
AcDbEntity
  8
CutLine
  6
Continuous
 62
     8
100
AcDbLine
 10
119.111503
 20
92.623301
 30
0.0
 11
118.767661
 21
90.846796
 31
0.0
  0
LINE
  5
EE
330
1D
100
AcDbEntity
  8
CutLine
  6
Continuous
 62
     8
100
AcDbLine
 10
116.274827
 20
86.949948
 30
0.0
 11
118.051329
 21
85.173445
 31
0.0
  0
LINE
  5
EF
330
1D
100
AcDbEntity
  8
CutLine
  6
Continuous
 62
     8
100
AcDbLine
 10
107.043094
 20
73.67094
 30
0.0
 11
105.081735
 21
73.413658
 31
0.0
  0
LINE
  5
F0
330
1D
100
AcDbEntity
  8
CutLine
  6
Continuous
 62
     8
100
AcDbLine
 10
105.081735
 20
73.413658
 30
0.0
 11
102.972734
 21
73.360528
 31
0.0
  0
LINE
  5
F1
330
1D
100
AcDbEntity
  8
CutLine
  6
Continuous
 62
     8
100
AcDbLine
 10
108.856809
 20
74.132375
 30
0.0
 11
107.043094
 21
73.67094
 31
0.0
  0
LINE
  5
F2
330
1D
100
AcDbEntity
  8
CutLine
  6
Continuous
 62
     8
100
AcDbLine
 10
110.522878
 20
74.797968
 30
0.0
 11
108.856809
 21
74.132375
 31
0.0
  0
LINE
  5
F3
330
1D
100
AcDbEntity
  8
CutLine
  6
Continuous
 62
     8
100
AcDbLine
 10
112.041306
 20
75.667715
 30
0.0
 11
110.522878
 21
74.797968
 31
0.0
  0
LINE
  5
F4
330
1D
100
AcDbEntity
  8
CutLine
  6
Continuous
 62
     8
100
AcDbLine
 10
113.412086
 20
76.741615
 30
0.0
 11
112.041306
 21
75.667715
 31
0.0
  0
LINE
  5
F5
330
1D
100
AcDbEntity
  8
CutLine
  6
Continuous
 62
     8
100
AcDbLine
 10
114.635222
 20
78.019672
 30
0.0
 11
113.412086
 21
76.741615
 31
0.0
  0
LINE
  5
F6
330
1D
100
AcDbEntity
  8
CutLine
  6
Continuous
 62
     8
100
AcDbLine
 10
115.710717
 20
79.501882
 30
0.0
 11
114.635222
 21
78.019672
 31
0.0
  0
LINE
  5
F7
330
1D
100
AcDbEntity
  8
CutLine
  6
Continuous
 62
     8
100
AcDbLine
 10
116.638563
 20
81.188248
 30
0.0
 11
115.710717
 21
79.501882
 31
0.0
  0
LINE
  5
F8
330
1D
100
AcDbEntity
  8
CutLine
  6
Continuous
 62
     8
100
AcDbLine
 10
117.418769
 20
83.078768
 30
0.0
 11
116.638563
 21
81.188248
 31
0.0
  0
LINE
  5
F9
330
1D
100
AcDbEntity
  8
CutLine
  6
Continuous
 62
     8
100
AcDbLine
 10
118.051329
 20
85.173445
 30
0.0
 11
117.418769
 21
83.078768
 31
0.0
  0
LINE
  5
FA
330
1D
100
AcDbEntity
  8
CutLine
  6
Continuous
 62
     8
100
AcDbLine
 10
102.972734
 20
73.360528
 30
0.0
 11
100.716087
 21
73.511554
 31
0.0
  0
LINE
  5
FB
330
1D
100
AcDbEntity
  8
CutLine
  6
Continuous
 62
     8
100
AcDbLine
 10
109.582691
 20
87.535748
 30
0.0
 11
110.528051
 21
87.444217
 31
0.0
  0
LINE
  5
FC
330
1D
100
AcDbEntity
  8
CutLine
  6
Continuous
 62
     8
100
AcDbLine
 10
93.228617
 20
95.975732
 30
0.0
 11
93.479532
 21
95.679647
 31
0.0
  0
LINE
  5
FD
330
1D
100
AcDbEntity
  8
CutLine
  6
Continuous
 62
     8
100
AcDbLine
 10
93.479532
 20
95.679647
 30
0.0
 11
93.74756
 21
95.383564
 31
0.0
  0
LINE
  5
FE
330
1D
100
AcDbEntity
  8
CutLine
  6
Continuous
 62
     8
100
AcDbLine
 10
94.0327
 20
95.08748
 30
0.0
 11
94.334953
 21
94.791397
 31
0.0
  0
LINE
  5
FF
330
1D
100
AcDbEntity
  8
CutLine
  6
Continuous
 62
     8
100
AcDbLine
 10
94.334953
 20
94.791397
 30
0.0
 11
94.654318
 21
94.495313
 31
0.0
  0
LINE
  5
100
330
1D
100
AcDbEntity
  8
CutLine
  6
Continuous
 62
     8
100
AcDbLine
 10
94.654318
 20
94.495313
 30
0.0
 11
94.990796
 21
94.199229
 31
0.0
  0
LINE
  5
101
330
1D
100
AcDbEntity
  8
CutLine
  6
Continuous
 62
     8
100
AcDbLine
 10
94.990796
 20
94.199229
 30
0.0
 11
95.344386
 21
93.903146
 31
0.0
  0
LINE
  5
102
330
1D
100
AcDbEntity
  8
CutLine
  6
Continuous
 62
     8
100
AcDbLine
 10
102.063586
 20
94.626646
 30
0.0
 11
101.298105
 21
95.110767
 31
0.0
  0
LINE
  5
103
330
1D
100
AcDbEntity
  8
CutLine
  6
Continuous
 62
     8
100
AcDbLine
 10
101.298105
 20
95.110767
 30
0.0
 11
100.633309
 21
95.717857
 31
0.0
  0
LINE
  5
104
330
1D
100
AcDbEntity
  8
CutLine
  6
Continuous
 62
     8
100
AcDbLine
 10
102.929751
 20
94.265494
 30
0.0
 11
102.063586
 21
94.626646
 31
0.0
  0
LINE
  5
105
330
1D
100
AcDbEntity
  8
CutLine
  6
Continuous
 62
     8
100
AcDbLine
 10
109.817488
 20
90.576182
 30
0.0
 11
108.815218
 21
90.697958
 31
0.0
  0
LINE
  5
106
330
1D
100
AcDbEntity
  8
CutLine
  6
Continuous
 62
     8
100
AcDbLine
 10
108.815218
 20
90.697958
 30
0.0
 11
107.793449
 21
90.846795
 31
0.0
  0
LINE
  5
107
330
1D
100
AcDbEntity
  8
CutLine
  6
Continuous
 62
     8
100
AcDbLine
 10
117.133627
 20
90.576183
 30
0.0
 11
116.287361
 21
90.48147
 31
0.0
  0
LINE
  5
108
330
1D
100
AcDbEntity
  8
CutLine
  6
Continuous
 62
     8
100
AcDbLine
 10
116.287361
 20
90.48147
 30
0.0
 11
115.421596
 21
90.413814
 31
0.0
  0
LINE
  5
109
330
1D
100
AcDbEntity
  8
CutLine
  6
Continuous
 62
     8
100
AcDbLine
 10
108.649669
 20
87.590668
 30
0.0
 11
109.582691
 21
87.535748
 31
0.0
  0
LINE
  5
10A
330
1D
100
AcDbEntity
  8
CutLine
  6
Continuous
 62
     8
100
AcDbLine
 10
117.960396
 20
90.697959
 30
0.0
 11
117.133627
 21
90.576183
 31
0.0
  0
LINE
  5
10B
330
1D
100
AcDbEntity
  8
CutLine
  6
Continuous
 62
     8
100
AcDbLine
 10
118.767661
 20
90.846796
 30
0.0
 11
117.960396
 21
90.697959
 31
0.0
  0
LINE
  5
10C
330
1D
100
AcDbEntity
  8
CutLine
  6
Continuous
 62
     8
100
AcDbLine
 10
115.421596
 20
90.413814
 30
0.0
 11
114.536325
 21
90.373222
 31
0.0
  0
LINE
  5
10D
330
1D
100
AcDbEntity
  8
CutLine
  6
Continuous
 62
     8
100
AcDbLine
 10
114.536325
 20
90.373222
 30
0.0
 11
113.63156
 21
90.359691
 31
0.0
  0
LINE
  5
10E
330
1D
100
AcDbEntity
  8
CutLine
  6
Continuous
 62
     8
100
AcDbLine
 10
113.63156
 20
90.359691
 30
0.0
 11
112.707293
 21
90.373222
 31
0.0
  0
LINE
  5
10F
330
1D
100
AcDbEntity
  8
CutLine
  6
Continuous
 62
     8
100
AcDbLine
 10
112.707293
 20
90.373222
 30
0.0
 11
111.763524
 21
90.413814
 31
0.0
  0
LINE
  5
110
330
1D
100
AcDbEntity
  8
CutLine
  6
Continuous
 62
     8
100
AcDbLine
 10
111.763524
 20
90.413814
 30
0.0
 11
110.800257
 21
90.481469
 31
0.0
  0
LINE
  5
111
330
1D
100
AcDbEntity
  8
CutLine
  6
Continuous
 62
     8
100
AcDbLine
 10
110.800257
 20
90.481469
 30
0.0
 11
109.817488
 21
90.576182
 31
0.0
  0
LINE
  5
112
330
1D
100
AcDbEntity
  8
CutLine
  6
Continuous
 62
     8
100
AcDbLine
 10
107.728983
 20
87.608974
 30
0.0
 11
108.649669
 21
87.590668
 31
0.0
  0
LINE
  5
113
330
1D
100
AcDbEntity
  8
CutLine
  6
Continuous
 62
     8
100
AcDbLine
 10
106.820633
 20
87.590667
 30
0.0
 11
107.728983
 21
87.608974
 31
0.0
  0
LINE
  5
114
330
1D
100
AcDbEntity
  8
CutLine
  6
Continuous
 62
     8
100
AcDbLine
 10
105.924621
 20
87.535747
 30
0.0
 11
106.820633
 21
87.590667
 31
0.0
  0
LINE
  5
115
330
1D
100
AcDbEntity
  8
CutLine
  6
Continuous
 62
     8
100
AcDbLine
 10
105.040946
 20
87.444217
 30
0.0
 11
105.924621
 21
87.535747
 31
0.0
  0
LINE
  5
116
330
1D
100
AcDbEntity
  8
CutLine
  6
Continuous
 62
     8
100
AcDbLine
 10
104.169607
 20
87.316072
 30
0.0
 11
105.040946
 21
87.444217
 31
0.0
  0
LINE
  5
117
330
1D
100
AcDbEntity
  8
CutLine
  6
Continuous
 62
     8
100
AcDbLine
 10
100.633309
 20
95.717857
 30
0.0
 11
100.069198
 21
96.447919
 31
0.0
  0
LINE
  5
118
330
1D
100
AcDbEntity
  8
CutLine
  6
Continuous
 62
     8
100
AcDbLine
 10
98.223248
 20
91.534474
 30
0.0
 11
99.28342
 21
90.130463
 31
0.0
  0
LINE
  5
119
330
1D
100
AcDbEntity
  8
CutLine
  6
Continuous
 62
     8
100
AcDbLine
 10
99.28342
 20
90.130463
 30
0.0
 11
100.343593
 21
89.070291
 31
0.0
  0
LINE
  5
11A
330
1D
100
AcDbEntity
  8
CutLine
  6
Continuous
 62
     8
100
AcDbLine
 10
95.715089
 20
93.607062
 30
0.0
 11
96.102905
 21
93.310977
 31
0.0
  0
LINE
  5
11B
330
1D
100
AcDbEntity
  8
CutLine
  6
Continuous
 62
     8
100
AcDbLine
 10
96.102905
 20
93.310977
 30
0.0
 11
96.819236
 21
92.250806
 31
0.0
  0
LINE
  5
11C
330
1D
100
AcDbEntity
  8
CutLine
  6
Continuous
 62
     8
100
AcDbLine
 10
96.819236
 20
92.250806
 30
0.0
 11
98.223248
 21
91.534474
 31
0.0
  0
LINE
  5
11D
330
1D
100
AcDbEntity
  8
CutLine
  6
Continuous
 62
     8
100
AcDbLine
 10
103.310605
 20
87.151318
 30
0.0
 11
104.169607
 21
87.316072
 31
0.0
  0
LINE
  5
11E
330
1D
100
AcDbEntity
  8
CutLine
  6
Continuous
 62
     8
100
AcDbLine
 10
100.343593
 20
89.070291
 30
0.0
 11
101.403765
 21
88.01012
 31
0.0
  0
LINE
  5
11F
330
1D
100
AcDbEntity
  8
CutLine
  6
Continuous
 62
     8
100
AcDbLine
 10
101.403765
 20
88.01012
 30
0.0
 11
102.463937
 21
86.949947
 31
0.0
  0
LINE
  5
120
330
1D
100
AcDbEntity
  8
CutLine
  6
Continuous
 62
     8
100
AcDbLine
 10
102.463937
 20
86.949947
 30
0.0
 11
103.310605
 21
87.151318
 31
0.0
  0
LINE
  5
121
330
1D
100
AcDbEntity
  8
CutLine
  6
Continuous
 62
     8
100
AcDbLine
 10
100.069198
 20
96.447919
 30
0.0
 11
99.605771
 21
97.300951
 31
0.0
  0
LINE
  5
122
330
1D
100
AcDbEntity
  8
CutLine
  6
Continuous
 62
     8
100
AcDbLine
 10
99.605771
 20
97.300951
 30
0.0
 11
99.243027
 21
98.276952
 31
0.0
  0
LINE
  5
123
330
1D
100
AcDbEntity
  8
CutLine
  6
Continuous
 62
     8
100
AcDbLine
 10
95.344386
 20
93.903146
 30
0.0
 11
95.715089
 21
93.607062
 31
0.0
  0
LINE
  5
124
330
1D
100
AcDbEntity
  8
CutLine
  6
Continuous
 62
     8
100
AcDbLine
 10
99.243027
 20
98.276952
 30
0.0
 11
98.980967
 21
99.375926
 31
0.0
  0
LINE
  5
125
330
1D
100
AcDbEntity
  8
CutLine
  6
Continuous
 62
     8
100
AcDbLine
 10
93.74756
 20
95.383564
 30
0.0
 11
94.0327
 21
95.08748
 31
0.0
  0
LINE
  5
126
330
1D
100
AcDbEntity
  8
CutLine
  6
Continuous
 62
     8
100
AcDbLine
 10
86.658462
 20
77.370194
 30
0.0
 11
86.769493
 21
76.677739
 31
0.0
  0
LINE
  5
127
330
1D
100
AcDbEntity
  8
CutLine
  6
Continuous
 62
     8
100
AcDbLine
 10
86.769493
 20
76.677739
 30
0.0
 11
86.905199
 21
75.975735
 31
0.0
  0
LINE
  5
128
330
1D
100
AcDbEntity
  8
CutLine
  6
Continuous
 62
     8
100
AcDbLine
 10
80.232164
 20
93.936374
 30
0.0
 11
79.697302
 21
94.186494
 31
0.0
  0
LINE
  5
129
330
1D
100
AcDbEntity
  8
CutLine
  6
Continuous
 62
     8
100
AcDbLine
 10
79.697302
 20
94.186494
 30
0.0
 11
79.140155
 21
94.426664
 31
0.0
  0
LINE
  5
12A
330
1D
100
AcDbEntity
  8
CutLine
  6
Continuous
 62
     8
100
AcDbLine
 10
95.248878
 20
79.935461
 30
0.0
 11
94.974881
 21
80.256019
 31
0.0
  0
LINE
  5
12B
330
1D
100
AcDbEntity
  8
CutLine
  6
Continuous
 62
     8
100
AcDbLine
 10
94.974881
 20
80.256019
 30
0.0
 11
94.698895
 21
80.588914
 31
0.0
  0
LINE
  5
12C
330
1D
100
AcDbEntity
  8
CutLine
  6
Continuous
 62
     8
100
AcDbLine
 10
94.698895
 20
80.588914
 30
0.0
 11
93.982562
 21
81.276593
 31
0.0
  0
LINE
  5
12D
330
1D
100
AcDbEntity
  8
CutLine
  6
Continuous
 62
     8
100
AcDbLine
 10
93.982562
 20
81.276593
 30
0.0
 11
93.26623
 21
82.336766
 31
0.0
  0
LINE
  5
12E
330
1D
100
AcDbEntity
  8
CutLine
  6
Continuous
 62
     8
100
AcDbLine
 10
93.26623
 20
82.336766
 30
0.0
 11
92.206059
 21
83.425592
 31
0.0
  0
LINE
  5
12F
330
1D
100
AcDbEntity
  8
CutLine
  6
Continuous
 62
     8
100
AcDbLine
 10
92.206059
 20
83.425592
 30
0.0
 11
91.518379
 21
83.769431
 31
0.0
  0
LINE
  5
130
330
1D
100
AcDbEntity
  8
CutLine
  6
Continuous
 62
     8
100
AcDbLine
 10
91.518379
 20
83.769431
 30
0.0
 11
90.802047
 21
84.829604
 31
0.0
  0
LINE
  5
131
330
1D
100
AcDbEntity
  8
CutLine
  6
Continuous
 62
     8
100
AcDbLine
 10
90.802047
 20
84.829604
 30
0.0
 11
89.741875
 21
85.173442
 31
0.0
  0
LINE
  5
132
330
1D
100
AcDbEntity
  8
CutLine
  6
Continuous
 62
     8
100
AcDbLine
 10
84.116278
 20
86.329125
 30
0.0
 11
84.351474
 21
86.129746
 31
0.0
  0
LINE
  5
133
330
1D
100
AcDbEntity
  8
CutLine
  6
Continuous
 62
     8
100
AcDbLine
 10
84.351474
 20
86.129746
 30
0.0
 11
84.598608
 21
85.932755
 31
0.0
  0
LINE
  5
134
330
1D
100
AcDbEntity
  8
CutLine
  6
Continuous
 62
     8
100
AcDbLine
 10
86.295322
 20
73.819577
 30
0.0
 11
86.26846
 21
73.693023
 31
0.0
  0
LINE
  5
135
330
1D
100
AcDbEntity
  8
CutLine
  6
Continuous
 62
     8
100
AcDbLine
 10
86.26846
 20
73.693023
 30
0.0
 11
86.244383
 21
73.561695
 31
0.0
  0
LINE
  5
136
330
1D
100
AcDbEntity
  8
CutLine
  6
Continuous
 62
     8
100
AcDbLine
 10
79.140155
 20
94.426664
 30
0.0
 11
78.560721
 21
94.656885
 31
0.0
  0
LINE
  5
137
330
1D
100
AcDbEntity
  8
CutLine
  6
Continuous
 62
     8
100
AcDbLine
 10
78.560721
 20
94.656885
 30
0.0
 11
77.959003
 21
94.877157
 31
0.0
  0
LINE
  5
138
330
1D
100
AcDbEntity
  8
CutLine
  6
Continuous
 62
     8
100
AcDbLine
 10
86.244383
 20
73.561695
 30
0.0
 11
86.223092
 21
73.425594
 31
0.0
  0
LINE
  5
139
330
1D
100
AcDbEntity
  8
CutLine
  6
Continuous
 62
     8
100
AcDbLine
 10
86.223092
 20
73.425594
 30
0.0
 11
86.204587
 21
73.284712
 31
0.0
  0
LINE
  5
13A
330
1D
100
AcDbEntity
  8
CutLine
  6
Continuous
 62
     8
100
AcDbLine
 10
88.843873
 20
86.782805
 30
0.0
 11
88.652254
 21
86.959501
 31
0.0
  0
LINE
  5
13B
330
1D
100
AcDbEntity
  8
CutLine
  6
Continuous
 62
     8
100
AcDbLine
 10
88.652254
 20
86.959501
 30
0.0
 11
88.450686
 21
87.136195
 31
0.0
  0
LINE
  5
13C
330
1D
100
AcDbEntity
  8
CutLine
  6
Continuous
 62
     8
100
AcDbLine
 10
77.959003
 20
94.877157
 30
0.0
 11
77.334996
 21
95.08748
 31
0.0
  0
LINE
  5
13D
330
1D
100
AcDbEntity
  8
CutLine
  6
Continuous
 62
     8
100
AcDbLine
 10
88.450686
 20
87.136195
 30
0.0
 11
88.239169
 21
87.31289
 31
0.0
  0
LINE
  5
13E
330
1D
100
AcDbEntity
  8
CutLine
  6
Continuous
 62
     8
100
AcDbLine
 10
88.239169
 20
87.31289
 30
0.0
 11
88.017702
 21
87.489585
 31
0.0
  0
LINE
  5
13F
330
1D
100
AcDbEntity
  8
CutLine
  6
Continuous
 62
     8
100
AcDbLine
 10
88.017702
 20
87.489585
 30
0.0
 11
87.786287
 21
87.66628
 31
0.0
  0
LINE
  5
140
330
1D
100
AcDbEntity
  8
CutLine
  6
Continuous
 62
     8
100
AcDbLine
 10
87.786287
 20
87.66628
 30
0.0
 11
87.544924
 21
87.842976
 31
0.0
  0
LINE
  5
141
330
1D
100
AcDbEntity
  8
CutLine
  6
Continuous
 62
     8
100
AcDbLine
 10
87.544924
 20
87.842976
 30
0.0
 11
87.29361
 21
88.01967
 31
0.0
  0
LINE
  5
142
330
1D
100
AcDbEntity
  8
CutLine
  6
Continuous
 62
     8
100
AcDbLine
 10
87.29361
 20
88.01967
 30
0.0
 11
87.032348
 21
88.196365
 31
0.0
  0
LINE
  5
143
330
1D
100
AcDbEntity
  8
CutLine
  6
Continuous
 62
     8
100
AcDbLine
 10
87.032348
 20
88.196365
 30
0.0
 11
86.761136
 21
88.37306
 31
0.0
  0
LINE
  5
144
330
1D
100
AcDbEntity
  8
CutLine
  6
Continuous
 62
     8
100
AcDbLine
 10
86.761136
 20
88.37306
 30
0.0
 11
86.479976
 21
88.549754
 31
0.0
  0
LINE
  5
145
330
1D
100
AcDbEntity
  8
CutLine
  6
Continuous
 62
     8
100
AcDbLine
 10
85.839455
 20
89.180923
 30
0.0
 11
85.646244
 21
89.419502
 31
0.0
  0
LINE
  5
146
330
1D
100
AcDbEntity
  8
CutLine
  6
Continuous
 62
     8
100
AcDbLine
 10
85.646244
 20
89.419502
 30
0.0
 11
85.440696
 21
89.665641
 31
0.0
  0
LINE
  5
147
330
1D
100
AcDbEntity
  8
CutLine
  6
Continuous
 62
     8
100
AcDbLine
 10
85.440696
 20
89.665641
 30
0.0
 11
85.222811
 21
89.919342
 31
0.0
  0
LINE
  5
148
330
1D
100
AcDbEntity
  8
CutLine
  6
Continuous
 62
     8
100
AcDbLine
 10
85.222811
 20
89.919342
 30
0.0
 11
84.99259
 21
90.180604
 31
0.0
  0
LINE
  5
149
330
1D
100
AcDbEntity
  8
CutLine
  6
Continuous
 62
     8
100
AcDbLine
 10
84.99259
 20
90.180604
 30
0.0
 11
84.750032
 21
90.449427
 31
0.0
  0
LINE
  5
14A
330
1D
100
AcDbEntity
  8
CutLine
  6
Continuous
 62
     8
100
AcDbLine
 10
84.750032
 20
90.449427
 30
0.0
 11
84.495137
 21
90.725814
 31
0.0
  0
LINE
  5
14B
330
1D
100
AcDbEntity
  8
CutLine
  6
Continuous
 62
     8
100
AcDbLine
 10
84.495137
 20
90.725814
 30
0.0
 11
84.227905
 21
91.009758
 31
0.0
  0
LINE
  5
14C
330
1D
100
AcDbEntity
  8
CutLine
  6
Continuous
 62
     8
100
AcDbLine
 10
84.227905
 20
91.009758
 30
0.0
 11
83.948337
 21
91.301266
 31
0.0
  0
LINE
  5
14D
330
1D
100
AcDbEntity
  8
CutLine
  6
Continuous
 62
     8
100
AcDbLine
 10
85.434327
 20
102.579522
 30
0.0
 11
85.809208
 21
102.20882
 31
0.0
  0
LINE
  5
14E
330
1D
100
AcDbEntity
  8
CutLine
  6
Continuous
 62
     8
100
AcDbLine
 10
85.809208
 20
102.20882
 30
0.0
 11
86.188864
 21
101.821006
 31
0.0
  0
LINE
  5
14F
330
1D
100
AcDbEntity
  8
CutLine
  6
Continuous
 62
     8
100
AcDbLine
 10
86.188864
 20
101.821006
 30
0.0
 11
87.249036
 21
101.104674
 31
0.0
  0
LINE
  5
150
330
1D
100
AcDbEntity
  8
CutLine
  6
Continuous
 62
     8
100
AcDbLine
 10
76.550614
 20
99.113268
 30
0.0
 11
76.575685
 21
99.528741
 31
0.0
  0
LINE
  5
151
330
1D
100
AcDbEntity
  8
CutLine
  6
Continuous
 62
     8
100
AcDbLine
 10
76.575685
 20
99.528741
 30
0.0
 11
76.60792
 21
99.953765
 31
0.0
  0
LINE
  5
152
330
1D
100
AcDbEntity
  8
CutLine
  6
Continuous
 62
     8
100
AcDbLine
 10
76.518379
 20
97.924156
 30
0.0
 11
76.521959
 21
98.310975
 31
0.0
  0
LINE
  5
153
330
1D
100
AcDbEntity
  8
CutLine
  6
Continuous
 62
     8
100
AcDbLine
 10
76.521959
 20
98.310975
 30
0.0
 11
76.532705
 21
98.707346
 31
0.0
  0
LINE
  5
154
330
1D
100
AcDbEntity
  8
CutLine
  6
Continuous
 62
     8
100
AcDbLine
 10
76.532705
 20
98.707346
 30
0.0
 11
76.550614
 21
99.113268
 31
0.0
  0
LINE
  5
155
330
1D
100
AcDbEntity
  8
CutLine
  6
Continuous
 62
     8
100
AcDbLine
 10
98.454266
 20
76.230033
 30
0.0
 11
98.252698
 21
76.607701
 31
0.0
  0
LINE
  5
156
330
1D
100
AcDbEntity
  8
CutLine
  6
Continuous
 62
     8
100
AcDbLine
 10
97.625312
 20
77.60559
 30
0.0
 11
97.369223
 21
77.815117
 31
0.0
  0
LINE
  5
157
330
1D
100
AcDbEntity
  8
CutLine
  6
Continuous
 62
     8
100
AcDbLine
 10
98.252698
 20
76.607701
 30
0.0
 11
98.061079
 21
77.000488
 31
0.0
  0
LINE
  5
158
330
1D
100
AcDbEntity
  8
CutLine
  6
Continuous
 62
     8
100
AcDbLine
 10
98.061079
 20
77.000488
 30
0.0
 11
97.87941
 21
77.408399
 31
0.0
  0
LINE
  5
159
330
1D
100
AcDbEntity
  8
CutLine
  6
Continuous
 62
     8
100
AcDbLine
 10
97.87941
 20
77.408399
 30
0.0
 11
97.625312
 21
77.60559
 31
0.0
  0
LINE
  5
15A
330
1D
100
AcDbEntity
  8
CutLine
  6
Continuous
 62
     8
100
AcDbLine
 10
98.665783
 20
75.867492
 30
0.0
 11
98.454266
 21
76.230033
 31
0.0
  0
LINE
  5
15B
330
1D
100
AcDbEntity
  8
CutLine
  6
Continuous
 62
     8
100
AcDbLine
 10
97.369223
 20
77.815117
 30
0.0
 11
97.111145
 21
78.036981
 31
0.0
  0
LINE
  5
15C
330
1D
100
AcDbEntity
  8
CutLine
  6
Continuous
 62
     8
100
AcDbLine
 10
96.851076
 20
78.271182
 30
0.0
 11
96.589016
 21
78.51772
 31
0.0
  0
LINE
  5
15D
330
1D
100
AcDbEntity
  8
CutLine
  6
Continuous
 62
     8
100
AcDbLine
 10
97.111145
 20
78.036981
 30
0.0
 11
96.851076
 21
78.271182
 31
0.0
  0
LINE
  5
15E
330
1D
100
AcDbEntity
  8
CutLine
  6
Continuous
 62
     8
100
AcDbLine
 10
99.118666
 20
75.187774
 30
0.0
 11
98.88725
 21
75.520071
 31
0.0
  0
LINE
  5
15F
330
1D
100
AcDbEntity
  8
CutLine
  6
Continuous
 62
     8
100
AcDbLine
 10
98.88725
 20
75.520071
 30
0.0
 11
98.665783
 21
75.867492
 31
0.0
  0
LINE
  5
160
330
1D
100
AcDbEntity
  8
CutLine
  6
Continuous
 62
     8
100
AcDbLine
 10
76.101316
 20
82.308109
 30
0.0
 11
75.927406
 21
83.174871
 31
0.0
  0
LINE
  5
161
330
1D
100
AcDbEntity
  8
CutLine
  6
Continuous
 62
     8
100
AcDbLine
 10
76.341286
 20
81.446122
 30
0.0
 11
76.101316
 21
82.308109
 31
0.0
  0
LINE
  5
162
330
1D
100
AcDbEntity
  8
CutLine
  6
Continuous
 62
     8
100
AcDbLine
 10
76.390633
 20
79.009399
 30
0.0
 11
76.647321
 21
80.588912
 31
0.0
  0
LINE
  5
163
330
1D
100
AcDbEntity
  8
CutLine
  6
Continuous
 62
     8
100
AcDbLine
 10
76.647321
 20
80.588912
 30
0.0
 11
76.341286
 21
81.446122
 31
0.0
  0
LINE
  5
164
330
1D
100
AcDbEntity
  8
CutLine
  6
Continuous
 62
     8
100
AcDbLine
 10
75.802048
 20
85.803812
 30
0.0
 11
75.892384
 21
86.689676
 31
0.0
  0
LINE
  5
165
330
1D
100
AcDbEntity
  8
CutLine
  6
Continuous
 62
     8
100
AcDbLine
 10
76.271244
 20
88.475732
 30
0.0
 11
76.559768
 21
89.375922
 31
0.0
  0
LINE
  5
166
330
1D
100
AcDbEntity
  8
CutLine
  6
Continuous
 62
     8
100
AcDbLine
 10
75.892384
 20
86.689676
 30
0.0
 11
76.048783
 21
87.580315
 31
0.0
  0
LINE
  5
167
330
1D
100
AcDbEntity
  8
CutLine
  6
Continuous
 62
     8
100
AcDbLine
 10
76.048783
 20
87.580315
 30
0.0
 11
76.271244
 21
88.475732
 31
0.0
  0
LINE
  5
168
330
1D
100
AcDbEntity
  8
CutLine
  6
Continuous
 62
     8
100
AcDbLine
 10
76.274825
 20
102.508684
 30
0.0
 11
76.274825
 21
103.568855
 31
0.0
  0
LINE
  5
169
330
1D
100
AcDbEntity
  8
CutLine
  6
Continuous
 62
     8
100
AcDbLine
 10
126.833297
 20
119.999967
 30
0.0
 11
66.833298
 21
119.999972
 31
0.0
  0
LINE
  5
16A
330
1D
100
AcDbEntity
  8
CutLine
  6
Continuous
 62
     8
100
AcDbLine
 10
76.274825
 20
103.568855
 30
0.0
 11
76.647318
 21
104.629027
 31
0.0
  0
LINE
  5
16B
330
1D
100
AcDbEntity
  8
CutLine
  6
Continuous
 62
     8
100
AcDbLine
 10
84.338339
 20
103.588953
 30
0.0
 11
84.698893
 21
103.269588
 31
0.0
  0
LINE
  5
16C
330
1D
100
AcDbEntity
  8
CutLine
  6
Continuous
 62
     8
100
AcDbLine
 10
84.698893
 20
103.269588
 30
0.0
 11
85.064223
 21
102.933111
 31
0.0
  0
LINE
  5
16D
330
1D
100
AcDbEntity
  8
CutLine
  6
Continuous
 62
     8
100
AcDbLine
 10
83.631559
 20
104.176346
 30
0.0
 11
83.982562
 21
103.891206
 31
0.0
  0
LINE
  5
16E
330
1D
100
AcDbEntity
  8
CutLine
  6
Continuous
 62
     8
100
AcDbLine
 10
83.982562
 20
103.891206
 30
0.0
 11
84.338339
 21
103.588953
 31
0.0
  0
LINE
  5
16F
330
1D
100
AcDbEntity
  8
CutLine
  6
Continuous
 62
     8
100
AcDbLine
 10
101.127974
 20
106.148649
 30
0.0
 11
101.914746
 21
106.208941
 31
0.0
  0
LINE
  5
170
330
1D
100
AcDbEntity
  8
CutLine
  6
Continuous
 62
     8
100
AcDbLine
 10
100.343591
 20
106.061694
 30
0.0
 11
101.127974
 21
106.148649
 31
0.0
  0
LINE
  5
171
330
1D
100
AcDbEntity
  8
CutLine
  6
Continuous
 62
     8
100
AcDbLine
 10
102.703906
 20
106.242568
 30
0.0
 11
103.495452
 21
106.249532
 31
0.0
  0
LINE
  5
172
330
1D
100
AcDbEntity
  8
CutLine
  6
Continuous
 62
     8
100
AcDbLine
 10
101.914746
 20
106.208941
 30
0.0
 11
102.703906
 21
106.242568
 31
0.0
  0
LINE
  5
173
330
1D
100
AcDbEntity
  8
CutLine
  6
Continuous
 62
     8
100
AcDbLine
 10
105.884421
 20
106.110445
 30
0.0
 11
106.685519
 21
106.010756
 31
0.0
  0
LINE
  5
174
330
1D
100
AcDbEntity
  8
CutLine
  6
Continuous
 62
     8
100
AcDbLine
 10
105.08571
 20
106.183472
 30
0.0
 11
105.884421
 21
106.110445
 31
0.0
  0
LINE
  5
175
330
1D
100
AcDbEntity
  8
CutLine
  6
Continuous
 62
     8
100
AcDbLine
 10
107.489006
 20
105.884402
 30
0.0
 11
108.294883
 21
105.731386
 31
0.0
  0
LINE
  5
176
330
1D
100
AcDbEntity
  8
CutLine
  6
Continuous
 62
     8
100
AcDbLine
 10
108.294883
 20
105.731386
 30
0.0
 11
109.10314
 21
105.551706
 31
0.0
  0
LINE
  5
177
330
1D
100
AcDbEntity
  8
CutLine
  6
Continuous
 62
     8
100
AcDbLine
 10
109.10314
 20
105.551706
 30
0.0
 11
109.913792
 21
105.345363
 31
0.0
  0
LINE
  5
178
330
1D
100
AcDbEntity
  8
CutLine
  6
Continuous
 62
     8
100
AcDbLine
 10
109.913792
 20
105.345363
 30
0.0
 11
112.377976
 21
105.001524
 31
0.0
  0
LINE
  5
179
330
1D
100
AcDbEntity
  8
CutLine
  6
Continuous
 62
     8
100
AcDbLine
 10
112.377976
 20
105.001524
 30
0.0
 11
114.870814
 21
102.508688
 31
0.0
  0
LINE
  5
17A
330
1D
100
AcDbEntity
  8
CutLine
  6
Continuous
 62
     8
100
AcDbLine
 10
106.685519
 20
106.010756
 30
0.0
 11
107.489006
 21
105.884402
 31
0.0
  0
LINE
  5
17B
330
1D
100
AcDbEntity
  8
CutLine
  6
Continuous
 62
     8
100
AcDbLine
 10
104.289387
 20
106.229833
 30
0.0
 11
105.08571
 21
106.183472
 31
0.0
  0
LINE
  5
17C
330
1D
100
AcDbEntity
  8
CutLine
  6
Continuous
 62
     8
100
AcDbLine
 10
103.495452
 20
106.249532
 30
0.0
 11
104.289387
 21
106.229833
 31
0.0
  0
LINE
  5
17D
330
1D
100
AcDbEntity
  8
CutLine
  6
Continuous
 62
     8
100
AcDbLine
 10
83.285332
 20
104.444373
 30
0.0
 11
83.631559
 21
104.176346
 31
0.0
  0
LINE
  5
17E
330
1D
100
AcDbEntity
  8
CutLine
  6
Continuous
 62
     8
100
AcDbLine
 10
82.94388
 20
104.695289
 30
0.0
 11
83.285332
 21
104.444373
 31
0.0
  0
LINE
  5
17F
330
1D
100
AcDbEntity
  8
CutLine
  6
Continuous
 62
     8
100
AcDbLine
 10
82.607203
 20
104.929092
 30
0.0
 11
82.94388
 21
104.695289
 31
0.0
  0
LINE
  5
180
330
1D
100
AcDbEntity
  8
CutLine
  6
Continuous
 62
     8
100
AcDbLine
 10
82.275303
 20
105.145783
 30
0.0
 11
82.607203
 21
104.929092
 31
0.0
  0
LINE
  5
181
330
1D
100
AcDbEntity
  8
CutLine
  6
Continuous
 62
     8
100
AcDbLine
 10
81.948177
 20
105.34536
 30
0.0
 11
82.275303
 21
105.145783
 31
0.0
  0
LINE
  5
182
330
1D
100
AcDbEntity
  8
CutLine
  6
Continuous
 62
     8
100
AcDbLine
 10
76.647318
 20
104.629027
 30
0.0
 11
81.948177
 21
105.34536
 31
0.0
  0
LINE
  5
183
330
1D
100
AcDbEntity
  8
CutLine
  6
Continuous
 62
     8
100
AcDbLine
 10
98.939579
 20
105.001522
 30
0.0
 11
100.343591
 21
106.061694
 31
0.0
  0
LINE
  5
184
330
1D
100
AcDbEntity
  8
CutLine
  6
Continuous
 62
     8
100
AcDbLine
 10
29.803995
 20
79.467277
 30
0.0
 11
29.431502
 21
80.899938
 31
0.0
  0
LINE
  5
185
330
1D
100
AcDbEntity
  8
CutLine
  6
Continuous
 62
     8
100
AcDbLine
 10
42.46875
 20
68.95151
 30
0.0
 11
41.628451
 21
69.159843
 31
0.0
  0
LINE
  5
186
330
1D
100
AcDbEntity
  8
CutLine
  6
Continuous
 62
     8
100
AcDbLine
 10
41.628451
 20
69.159843
 30
0.0
 11
40.759898
 21
69.335946
 31
0.0
  0
LINE
  5
187
330
1D
100
AcDbEntity
  8
CutLine
  6
Continuous
 62
     8
100
AcDbLine
 10
29.347933
 20
96.245367
 30
0.0
 11
29.429712
 21
97.046069
 31
0.0
  0
LINE
  5
188
330
1D
100
AcDbEntity
  8
CutLine
  6
Continuous
 62
     8
100
AcDbLine
 10
29.429712
 20
97.046069
 30
0.0
 11
29.479259
 21
97.859504
 31
0.0
  0
LINE
  5
189
330
1D
100
AcDbEntity
  8
CutLine
  6
Continuous
 62
     8
100
AcDbLine
 10
40.759898
 20
69.335946
 30
0.0
 11
39.86309
 21
69.479805
 31
0.0
  0
LINE
  5
18A
330
1D
100
AcDbEntity
  8
CutLine
  6
Continuous
 62
     8
100
AcDbLine
 10
39.86309
 20
69.479805
 30
0.0
 11
38.938026
 21
69.591437
 31
0.0
  0
LINE
  5
18B
330
1D
100
AcDbEntity
  8
CutLine
  6
Continuous
 62
     8
100
AcDbLine
 10
29.479259
 20
97.859504
 30
0.0
 11
29.49657
 21
98.685675
 31
0.0
  0
LINE
  5
18C
330
1D
100
AcDbEntity
  8
CutLine
  6
Continuous
 62
     8
100
AcDbLine
 10
29.49657
 20
98.685675
 30
0.0
 11
29.481647
 21
99.524579
 31
0.0
  0
LINE
  5
18D
330
1D
100
AcDbEntity
  8
CutLine
  6
Continuous
 62
     8
100
AcDbLine
 10
29.481647
 20
99.524579
 30
0.0
 11
29.434488
 21
100.376219
 31
0.0
  0
LINE
  5
18E
330
1D
100
AcDbEntity
  8
CutLine
  6
Continuous
 62
     8
100
AcDbLine
 10
29.434488
 20
100.376219
 30
0.0
 11
29.355095
 21
101.240593
 31
0.0
  0
LINE
  5
18F
330
1D
100
AcDbEntity
  8
CutLine
  6
Continuous
 62
     8
100
AcDbLine
 10
38.938026
 20
69.591437
 30
0.0
 11
37.984708
 21
69.670831
 31
0.0
  0
LINE
  5
190
330
1D
100
AcDbEntity
  8
CutLine
  6
Continuous
 62
     8
100
AcDbLine
 10
37.984708
 20
69.670831
 30
0.0
 11
37.003133
 21
69.717989
 31
0.0
  0
LINE
  5
191
330
1D
100
AcDbEntity
  8
CutLine
  6
Continuous
 62
     8
100
AcDbLine
 10
29.486024
 20
88.967231
 30
0.0
 11
29.525421
 21
89.425088
 31
0.0
  0
LINE
  5
192
330
1D
100
AcDbEntity
  8
CutLine
  6
Continuous
 62
     8
100
AcDbLine
 10
29.525421
 20
89.425088
 30
0.0
 11
29.549697
 21
89.895281
 31
0.0
  0
LINE
  5
193
330
1D
100
AcDbEntity
  8
CutLine
  6
Continuous
 62
     8
100
AcDbLine
 10
29.243467
 20
102.117703
 30
0.0
 11
29.099604
 21
103.007547
 31
0.0
  0
LINE
  5
194
330
1D
100
AcDbEntity
  8
CutLine
  6
Continuous
 62
     8
100
AcDbLine
 10
29.099604
 20
103.007547
 30
0.0
 11
28.923506
 21
103.910125
 31
0.0
  0
LINE
  5
195
330
1D
100
AcDbEntity
  8
CutLine
  6
Continuous
 62
     8
100
AcDbLine
 10
37.003133
 20
69.717989
 30
0.0
 11
35.993304
 21
69.732917
 31
0.0
  0
LINE
  5
196
330
1D
100
AcDbEntity
  8
CutLine
  6
Continuous
 62
     8
100
AcDbLine
 10
35.993304
 20
69.732917
 30
0.0
 11
34.95522
 21
69.715602
 31
0.0
  0
LINE
  5
197
330
1D
100
AcDbEntity
  8
CutLine
  6
Continuous
 62
     8
100
AcDbLine
 10
29.549697
 20
89.895281
 30
0.0
 11
29.558852
 21
90.377811
 31
0.0
  0
LINE
  5
198
330
1D
100
AcDbEntity
  8
CutLine
  6
Continuous
 62
     8
100
AcDbLine
 10
29.558852
 20
90.377811
 30
0.0
 11
29.552882
 21
90.872676
 31
0.0
  0
LINE
  5
199
330
1D
100
AcDbEntity
  8
CutLine
  6
Continuous
 62
     8
100
AcDbLine
 10
29.534974
 20
81.645721
 30
0.0
 11
29.571189
 21
82.033535
 31
0.0
  0
LINE
  5
19A
330
1D
100
AcDbEntity
  8
CutLine
  6
Continuous
 62
     8
100
AcDbLine
 10
29.571189
 20
82.033535
 30
0.0
 11
29.597056
 21
82.431297
 31
0.0
  0
LINE
  5
19B
330
1D
100
AcDbEntity
  8
CutLine
  6
Continuous
 62
     8
100
AcDbLine
 10
34.95522
 20
69.715602
 30
0.0
 11
33.88888
 21
69.666056
 31
0.0
  0
LINE
  5
19C
330
1D
100
AcDbEntity
  8
CutLine
  6
Continuous
 62
     8
100
AcDbLine
 10
33.88888
 20
69.666056
 30
0.0
 11
32.794284
 21
69.584275
 31
0.0
  0
LINE
  5
19D
330
1D
100
AcDbEntity
  8
CutLine
  6
Continuous
 62
     8
100
AcDbLine
 10
29.552882
 20
90.872676
 30
0.0
 11
29.531792
 21
91.379878
 31
0.0
  0
LINE
  5
19E
330
1D
100
AcDbEntity
  8
CutLine
  6
Continuous
 62
     8
100
AcDbLine
 10
29.531792
 20
91.379878
 30
0.0
 11
29.495576
 21
91.899418
 31
0.0
  0
LINE
  5
19F
330
1D
100
AcDbEntity
  8
CutLine
  6
Continuous
 62
     8
100
AcDbLine
 10
29.597056
 20
82.431297
 30
0.0
 11
29.612577
 21
82.839009
 31
0.0
  0
LINE
  5
1A0
330
1D
100
AcDbEntity
  8
CutLine
  6
Continuous
 62
     8
100
AcDbLine
 10
29.612577
 20
82.839009
 30
0.0
 11
29.61775
 21
83.25667
 31
0.0
  0
LINE
  5
1A1
330
1D
100
AcDbEntity
  8
CutLine
  6
Continuous
 62
     8
100
AcDbLine
 10
29.495576
 20
91.899418
 30
0.0
 11
29.44424
 21
92.431297
 31
0.0
  0
LINE
  5
1A2
330
1D
100
AcDbEntity
  8
CutLine
  6
Continuous
 62
     8
100
AcDbLine
 10
29.44424
 20
92.431297
 30
0.0
 11
29.377779
 21
92.975509
 31
0.0
  0
LINE
  5
1A3
330
1D
100
AcDbEntity
  8
CutLine
  6
Continuous
 62
     8
100
AcDbLine
 10
32.794284
 20
69.584275
 30
0.0
 11
31.671433
 21
69.470258
 31
0.0
  0
LINE
  5
1A4
330
1D
100
AcDbEntity
  8
CutLine
  6
Continuous
 62
     8
100
AcDbLine
 10
31.671433
 20
69.470258
 30
0.0
 11
30.520328
 21
69.324007
 31
0.0
  0
LINE
  5
1A5
330
1D
100
AcDbEntity
  8
CutLine
  6
Continuous
 62
     8
100
AcDbLine
 10
40.247129
 20
90.641459
 30
0.0
 11
40.182062
 21
90.219419
 31
0.0
  0
LINE
  5
1A6
330
1D
100
AcDbEntity
  8
CutLine
  6
Continuous
 62
     8
100
AcDbLine
 10
40.182062
 20
90.219419
 30
0.0
 11
40.124556
 21
89.777084
 31
0.0
  0
LINE
  5
1A7
330
1D
100
AcDbEntity
  8
CutLine
  6
Continuous
 62
     8
100
AcDbLine
 10
29.377779
 20
92.975509
 30
0.0
 11
29.296197
 21
93.53206
 31
0.0
  0
LINE
  5
1A8
330
1D
100
AcDbEntity
  8
CutLine
  6
Continuous
 62
     8
100
AcDbLine
 10
29.296197
 20
93.53206
 30
0.0
 11
29.199493
 21
94.100947
 31
0.0
  0
LINE
  5
1A9
330
1D
100
AcDbEntity
  8
CutLine
  6
Continuous
 62
     8
100
AcDbLine
 10
29.612577
 20
83.684279
 30
0.0
 11
29.597056
 21
84.121839
 31
0.0
  0
LINE
  5
1AA
330
1D
100
AcDbEntity
  8
CutLine
  6
Continuous
 62
     8
100
AcDbLine
 10
29.597056
 20
84.121839
 30
0.0
 11
29.571189
 21
84.569347
 31
0.0
  0
LINE
  5
1AB
330
1D
100
AcDbEntity
  8
CutLine
  6
Continuous
 62
     8
100
AcDbLine
 10
40.733639
 20
102.626298
 30
0.0
 11
40.749558
 21
102.24127
 31
0.0
  0
LINE
  5
1AC
330
1D
100
AcDbEntity
  8
CutLine
  6
Continuous
 62
     8
100
AcDbLine
 10
40.704986
 20
103.000582
 30
0.0
 11
40.733639
 21
102.626298
 31
0.0
  0
LINE
  5
1AD
330
1D
100
AcDbEntity
  8
CutLine
  6
Continuous
 62
     8
100
AcDbLine
 10
40.124556
 20
89.777084
 30
0.0
 11
40.074612
 21
89.314453
 31
0.0
  0
LINE
  5
1AE
330
1D
100
AcDbEntity
  8
CutLine
  6
Continuous
 62
     8
100
AcDbLine
 10
40.074612
 20
89.314453
 30
0.0
 11
40.032228
 21
88.831525
 31
0.0
  0
LINE
  5
1AF
330
1D
100
AcDbEntity
  8
CutLine
  6
Continuous
 62
     8
100
AcDbLine
 10
29.534974
 20
85.026805
 30
0.0
 11
29.488412
 21
85.494214
 31
0.0
  0
LINE
  5
1B0
330
1D
100
AcDbEntity
  8
CutLine
  6
Continuous
 62
     8
100
AcDbLine
 10
29.488412
 20
85.494214
 30
0.0
 11
29.431502
 21
85.971569
 31
0.0
  0
LINE
  5
1B1
330
1D
100
AcDbEntity
  8
CutLine
  6
Continuous
 62
     8
100
AcDbLine
 10
40.032228
 20
88.831525
 30
0.0
 11
39.997407
 21
88.328301
 31
0.0
  0
LINE
  5
1B2
330
1D
100
AcDbEntity
  8
CutLine
  6
Continuous
 62
     8
100
AcDbLine
 10
39.997407
 20
88.328301
 30
0.0
 11
39.970147
 21
87.804783
 31
0.0
  0
LINE
  5
1B3
330
1D
100
AcDbEntity
  8
CutLine
  6
Continuous
 62
     8
100
AcDbLine
 10
39.970147
 20
87.804783
 30
0.0
 11
39.950447
 21
87.260967
 31
0.0
  0
LINE
  5
1B4
330
1D
100
AcDbEntity
  8
CutLine
  6
Continuous
 62
     8
100
AcDbLine
 10
39.950447
 20
87.260967
 30
0.0
 11
39.938309
 21
86.696855
 31
0.0
  0
LINE
  5
1B5
330
1D
100
AcDbEntity
  8
CutLine
  6
Continuous
 62
     8
100
AcDbLine
 10
39.938309
 20
86.696855
 30
0.0
 11
39.933733
 21
86.112447
 31
0.0
  0
LINE
  5
1B6
330
1D
100
AcDbEntity
  8
CutLine
  6
Continuous
 62
     8
100
AcDbLine
 10
39.933733
 20
86.112447
 30
0.0
 11
39.936717
 21
85.507742
 31
0.0
  0
LINE
  5
1B7
330
1D
100
AcDbEntity
  8
CutLine
  6
Continuous
 62
     8
100
AcDbLine
 10
36.494543
 20
111.215121
 30
0.0
 11
36.770331
 21
111.322572
 31
0.0
  0
LINE
  5
1B8
330
1D
100
AcDbEntity
  8
CutLine
  6
Continuous
 62
     8
100
AcDbLine
 10
36.225918
 20
111.102895
 30
0.0
 11
36.494543
 21
111.215121
 31
0.0
  0
LINE
  5
1B9
330
1D
100
AcDbEntity
  8
CutLine
  6
Continuous
 62
     8
100
AcDbLine
 10
29.199493
 20
94.100947
 30
0.0
 11
29.087665
 21
94.682171
 31
0.0
  0
LINE
  5
1BA
330
1D
100
AcDbEntity
  8
CutLine
  6
Continuous
 62
     8
100
AcDbLine
 10
6.83334
 20
119.999967
 30
0.0
 11
6.833332
 21
60.0
 31
0.0
  0
LINE
  5
1BB
330
1D
100
AcDbEntity
  8
CutLine
  6
Continuous
 62
     8
100
AcDbLine
 10
30.520328
 20
69.324007
 30
0.0
 11
29.4315
 21
70.04034
 31
0.0
  0
LINE
  5
1BC
330
1D
100
AcDbEntity
  8
MountainLine
  6
Continuous
 62
     5
100
AcDbLine
 10
66.833304
 20
59.999997
 30
0.0
 11
66.833298
 21
119.999972
 31
0.0
  0
LINE
  5
1BD
330
1D
100
AcDbEntity
  8
CutLine
  6
Continuous
 62
     8
100
AcDbLine
 10
46.521998
 20
74.687347
 30
0.0
 11
46.093393
 21
73.8369
 31
0.0
  0
LINE
  5
1BE
330
1D
100
AcDbEntity
  8
CutLine
  6
Continuous
 62
     8
100
AcDbLine
 10
29.282861
 20
71.915342
 30
0.0
 11
29.269134
 21
72.571384
 31
0.0
  0
LINE
  5
1BF
330
1D
100
AcDbEntity
  8
CutLine
  6
Continuous
 62
     8
100
AcDbLine
 10
29.3145
 20
71.274823
 30
0.0
 11
29.282861
 21
71.915342
 31
0.0
  0
LINE
  5
1C0
330
1D
100
AcDbEntity
  8
CutLine
  6
Continuous
 62
     8
100
AcDbLine
 10
41.449967
 20
81.562144
 30
0.0
 11
42.175054
 21
81.609105
 31
0.0
  0
LINE
  5
1C1
330
1D
100
AcDbEntity
  8
CutLine
  6
Continuous
 62
     8
100
AcDbLine
 10
39.936717
 20
85.507742
 30
0.0
 11
39.947262
 21
84.882743
 31
0.0
  0
LINE
  5
1C2
330
1D
100
AcDbEntity
  8
CutLine
  6
Continuous
 62
     8
100
AcDbLine
 10
43.572699
 20
81.507224
 30
0.0
 11
44.245256
 21
81.358385
 31
0.0
  0
LINE
  5
1C3
330
1D
100
AcDbEntity
  8
CutLine
  6
Continuous
 62
     8
100
AcDbLine
 10
42.882632
 20
81.590799
 30
0.0
 11
43.572699
 21
81.507224
 31
0.0
  0
LINE
  5
1C4
330
1D
100
AcDbEntity
  8
CutLine
  6
Continuous
 62
     8
100
AcDbLine
 10
47.912878
 20
79.094779
 30
0.0
 11
47.73499
 21
78.1926
 31
0.0
  0
LINE
  5
1C5
330
1D
100
AcDbEntity
  8
CutLine
  6
Continuous
 62
     8
100
AcDbLine
 10
47.73499
 20
78.1926
 30
0.0
 11
47.506956
 21
77.300765
 31
0.0
  0
LINE
  5
1C6
330
1D
100
AcDbEntity
  8
CutLine
  6
Continuous
 62
     8
100
AcDbLine
 10
41.389481
 20
106.636961
 30
0.0
 11
41.353068
 21
106.254319
 31
0.0
  0
LINE
  5
1C7
330
1D
100
AcDbEntity
  8
CutLine
  6
Continuous
 62
     8
100
AcDbLine
 10
41.353068
 20
106.254319
 30
0.0
 11
41.301134
 21
105.864117
 31
0.0
  0
LINE
  5
1C8
330
1D
100
AcDbEntity
  8
CutLine
  6
Continuous
 62
     8
100
AcDbLine
 10
32.705147
 20
111.623431
 30
0.0
 11
33.223492
 21
111.579854
 31
0.0
  0
LINE
  5
1C9
330
1D
100
AcDbEntity
  8
CutLine
  6
Continuous
 62
     8
100
AcDbLine
 10
33.223492
 20
111.579854
 30
0.0
 11
33.751788
 21
111.511206
 31
0.0
  0
LINE
  5
1CA
330
1D
100
AcDbEntity
  8
CutLine
  6
Continuous
 62
     8
100
AcDbLine
 10
29.273312
 20
73.242946
 30
0.0
 11
29.295399
 21
73.930027
 31
0.0
  0
LINE
  5
1CB
330
1D
100
AcDbEntity
  8
CutLine
  6
Continuous
 62
     8
100
AcDbLine
 10
29.431502
 20
85.971569
 30
0.0
 11
29.431503
 21
88.521714
 31
0.0
  0
LINE
  5
1CC
330
1D
100
AcDbEntity
  8
CutLine
  6
Continuous
 62
     8
100
AcDbLine
 10
28.923506
 20
103.910125
 30
0.0
 11
28.715173
 21
104.825438
 31
0.0
  0
LINE
  5
1CD
330
1D
100
AcDbEntity
  8
CutLine
  6
Continuous
 62
     8
100
AcDbLine
 10
44.900302
 20
81.144282
 30
0.0
 11
45.537838
 21
80.864913
 31
0.0
  0
LINE
  5
1CE
330
1D
100
AcDbEntity
  8
CutLine
  6
Continuous
 62
     8
100
AcDbLine
 10
30.731251
 20
111.547023
 30
0.0
 11
31.209801
 21
111.603733
 31
0.0
  0
LINE
  5
1CF
330
1D
100
AcDbEntity
  8
CutLine
  6
Continuous
 62
     8
100
AcDbLine
 10
30.262648
 20
111.465242
 30
0.0
 11
30.731251
 21
111.547023
 31
0.0
  0
LINE
  5
1D0
330
1D
100
AcDbEntity
  8
CutLine
  6
Continuous
 62
     8
100
AcDbLine
 10
31.698301
 20
111.63537
 30
0.0
 11
32.19675
 21
111.641936
 31
0.0
  0
LINE
  5
1D1
330
1D
100
AcDbEntity
  8
CutLine
  6
Continuous
 62
     8
100
AcDbLine
 10
32.19675
 20
111.641936
 30
0.0
 11
32.705147
 21
111.623431
 31
0.0
  0
LINE
  5
1D2
330
1D
100
AcDbEntity
  8
CutLine
  6
Continuous
 62
     8
100
AcDbLine
 10
41.410375
 20
107.012041
 30
0.0
 11
41.389481
 21
106.636961
 31
0.0
  0
LINE
  5
1D3
330
1D
100
AcDbEntity
  8
CutLine
  6
Continuous
 62
     8
100
AcDbLine
 10
41.415747
 20
107.379558
 30
0.0
 11
41.410375
 21
107.012041
 31
0.0
  0
LINE
  5
1D4
330
1D
100
AcDbEntity
  8
CutLine
  6
Continuous
 62
     8
100
AcDbLine
 10
41.405599
 20
107.739516
 30
0.0
 11
41.415747
 21
107.379558
 31
0.0
  0
LINE
  5
1D5
330
1D
100
AcDbEntity
  8
CutLine
  6
Continuous
 62
     8
100
AcDbLine
 10
41.37993
 20
108.091912
 30
0.0
 11
41.405599
 21
107.739516
 31
0.0
  0
LINE
  5
1D6
330
1D
100
AcDbEntity
  8
CutLine
  6
Continuous
 62
     8
100
AcDbLine
 10
39.574773
 20
112.07472
 30
0.0
 11
41.37993
 21
108.091912
 31
0.0
  0
LINE
  5
1D7
330
1D
100
AcDbEntity
  8
CutLine
  6
Continuous
 62
     8
100
AcDbLine
 10
31.209801
 20
111.603733
 30
0.0
 11
31.698301
 21
111.63537
 31
0.0
  0
LINE
  5
1D8
330
1D
100
AcDbEntity
  8
CutLine
  6
Continuous
 62
     8
100
AcDbLine
 10
66.833298
 20
119.999972
 30
0.0
 11
6.83334
 21
119.999967
 31
0.0
  0
LINE
  5
1D9
330
1D
100
AcDbEntity
  8
CutLine
  6
Continuous
 62
     8
100
AcDbLine
 10
29.804
 20
111.35839
 30
0.0
 11
30.262648
 21
111.465242
 31
0.0
  0
LINE
  5
1DA
330
1D
100
AcDbEntity
  8
CutLine
  6
Continuous
 62
     8
100
AcDbLine
 10
29.431506
 20
109.524578
 30
0.0
 11
29.804
 21
111.35839
 31
0.0
  0
LINE
  5
1DB
330
1D
100
AcDbEntity
  8
CutLine
  6
Continuous
 62
     8
100
AcDbLine
 10
40.663596
 20
94.309677
 30
0.0
 11
40.319756
 21
91.043202
 31
0.0
  0
LINE
  5
1DC
330
1D
100
AcDbEntity
  8
CutLine
  6
Continuous
 62
     8
100
AcDbLine
 10
44.245256
 20
81.358385
 30
0.0
 11
44.900302
 21
81.144282
 31
0.0
  0
LINE
  5
1DD
330
1D
100
AcDbEntity
  8
CutLine
  6
Continuous
 62
     8
100
AcDbLine
 10
29.087667
 20
107.375581
 30
0.0
 11
29.431506
 21
109.524578
 31
0.0
  0
LINE
  5
1DE
330
1D
100
AcDbEntity
  8
CutLine
  6
Continuous
 62
     8
100
AcDbLine
 10
28.715173
 20
104.825438
 30
0.0
 11
29.087667
 21
107.375581
 31
0.0
  0
LINE
  5
1DF
330
1D
100
AcDbEntity
  8
CutLine
  6
Continuous
 62
     8
100
AcDbLine
 10
29.269134
 20
72.571384
 30
0.0
 11
29.273312
 21
73.242946
 31
0.0
  0
LINE
  5
1E0
330
1D
100
AcDbEntity
  8
CutLine
  6
Continuous
 62
     8
100
AcDbLine
 10
45.537838
 20
80.864913
 30
0.0
 11
46.157863
 21
80.52028
 31
0.0
  0
LINE
  5
1E1
330
1D
100
AcDbEntity
  8
CutLine
  6
Continuous
 62
     8
100
AcDbLine
 10
46.157863
 20
80.52028
 30
0.0
 11
46.760379
 21
80.110379
 31
0.0
  0
LINE
  5
1E2
330
1D
100
AcDbEntity
  8
CutLine
  6
Continuous
 62
     8
100
AcDbLine
 10
33.751788
 20
111.511206
 30
0.0
 11
34.290032
 21
111.417485
 31
0.0
  0
LINE
  5
1E3
330
1D
100
AcDbEntity
  8
CutLine
  6
Continuous
 62
     8
100
AcDbLine
 10
46.760379
 20
80.110379
 30
0.0
 11
47.345383
 21
79.635211
 31
0.0
  0
LINE
  5
1E4
330
1D
100
AcDbEntity
  8
CutLine
  6
Continuous
 62
     8
100
AcDbLine
 10
39.234515
 20
112.010251
 30
0.0
 11
39.574773
 21
112.07472
 31
0.0
  0
LINE
  5
1E5
330
1D
100
AcDbEntity
  8
CutLine
  6
Continuous
 62
     8
100
AcDbLine
 10
47.345383
 20
79.635211
 30
0.0
 11
47.912878
 21
79.094779
 31
0.0
  0
LINE
  5
1E6
330
1D
100
AcDbEntity
  8
CutLine
  6
Continuous
 62
     8
100
AcDbLine
 10
34.290032
 20
111.417485
 30
0.0
 11
34.838225
 21
111.298693
 31
0.0
  0
LINE
  5
1E7
330
1D
100
AcDbEntity
  8
CutLine
  6
Continuous
 62
     8
100
AcDbLine
 10
38.901421
 20
111.941005
 30
0.0
 11
39.234515
 21
112.010251
 31
0.0
  0
LINE
  5
1E8
330
1D
100
AcDbEntity
  8
CutLine
  6
Continuous
 62
     8
100
AcDbLine
 10
41.301134
 20
105.864117
 30
0.0
 11
41.233679
 21
105.466355
 31
0.0
  0
LINE
  5
1E9
330
1D
100
AcDbEntity
  8
CutLine
  6
Continuous
 62
     8
100
AcDbLine
 10
47.506956
 20
77.300765
 30
0.0
 11
47.22878
 21
76.41928
 31
0.0
  0
LINE
  5
1EA
330
1D
100
AcDbEntity
  8
CutLine
  6
Continuous
 62
     8
100
AcDbLine
 10
41.233679
 20
105.466355
 30
0.0
 11
41.150704
 21
105.061031
 31
0.0
  0
LINE
  5
1EB
330
1D
100
AcDbEntity
  8
CutLine
  6
Continuous
 62
     8
100
AcDbLine
 10
42.175054
 20
81.609105
 30
0.0
 11
42.882632
 21
81.590799
 31
0.0
  0
LINE
  5
1EC
330
1D
100
AcDbEntity
  8
CutLine
  6
Continuous
 62
     8
100
AcDbLine
 10
47.22878
 20
76.41928
 30
0.0
 11
46.900461
 21
75.548139
 31
0.0
  0
LINE
  5
1ED
330
1D
100
AcDbEntity
  8
CutLine
  6
Continuous
 62
     8
100
AcDbLine
 10
40.720904
 20
101.021714
 30
0.0
 11
40.685883
 21
100.593705
 31
0.0
  0
LINE
  5
1EE
330
1D
100
AcDbEntity
  8
CutLine
  6
Continuous
 62
     8
100
AcDbLine
 10
41.150704
 20
105.061031
 30
0.0
 11
41.052208
 21
104.648145
 31
0.0
  0
LINE
  5
1EF
330
1D
100
AcDbEntity
  8
CutLine
  6
Continuous
 62
     8
100
AcDbLine
 10
40.74319
 20
101.438978
 30
0.0
 11
40.720904
 21
101.021714
 31
0.0
  0
LINE
  5
1F0
330
1D
100
AcDbEntity
  8
CutLine
  6
Continuous
 62
     8
100
AcDbLine
 10
41.052208
 20
104.648145
 30
0.0
 11
40.938192
 21
104.227698
 31
0.0
  0
LINE
  5
1F1
330
1D
100
AcDbEntity
  8
CutLine
  6
Continuous
 62
     8
100
AcDbLine
 10
40.752742
 20
101.845497
 30
0.0
 11
40.74319
 21
101.438978
 31
0.0
  0
LINE
  5
1F2
330
1D
100
AcDbEntity
  8
CutLine
  6
Continuous
 62
     8
100
AcDbLine
 10
40.685883
 20
100.593705
 30
0.0
 11
40.638128
 21
100.154951
 31
0.0
  0
LINE
  5
1F3
330
1D
100
AcDbEntity
  8
CutLine
  6
Continuous
 62
     8
100
AcDbLine
 10
29.364045
 20
70.64982
 30
0.0
 11
29.3145
 21
71.274823
 31
0.0
  0
LINE
  5
1F4
330
1D
100
AcDbEntity
  8
CutLine
  6
Continuous
 62
     8
100
AcDbLine
 10
38.57549
 20
111.866984
 30
0.0
 11
38.901421
 21
111.941005
 31
0.0
  0
LINE
  5
1F5
330
1D
100
AcDbEntity
  8
CutLine
  6
Continuous
 62
     8
100
AcDbLine
 10
46.900461
 20
75.548139
 30
0.0
 11
46.521998
 21
74.687347
 31
0.0
  0
LINE
  5
1F6
330
1D
100
AcDbEntity
  8
CutLine
  6
Continuous
 62
     8
100
AcDbLine
 10
29.4315
 20
70.04034
 30
0.0
 11
29.364045
 21
70.64982
 31
0.0
  0
LINE
  5
1F7
330
1D
100
AcDbEntity
  8
CutLine
  6
Continuous
 62
     8
100
AcDbLine
 10
40.638128
 20
100.154951
 30
0.0
 11
40.577637
 21
99.705453
 31
0.0
  0
LINE
  5
1F8
330
1D
100
AcDbEntity
  8
CutLine
  6
Continuous
 62
     8
100
AcDbLine
 10
46.093393
 20
73.8369
 30
0.0
 11
45.614644
 21
72.996803
 31
0.0
  0
LINE
  5
1F9
330
1D
100
AcDbEntity
  8
CutLine
  6
Continuous
 62
     8
100
AcDbLine
 10
40.577637
 20
99.705453
 30
0.0
 11
40.504412
 21
99.245209
 31
0.0
  0
LINE
  5
1FA
330
1D
100
AcDbEntity
  8
CutLine
  6
Continuous
 62
     8
100
AcDbLine
 10
38.256722
 20
111.788186
 30
0.0
 11
38.57549
 21
111.866984
 31
0.0
  0
LINE
  5
1FB
330
1D
100
AcDbEntity
  8
CutLine
  6
Continuous
 62
     8
100
AcDbLine
 10
45.614644
 20
72.996803
 30
0.0
 11
45.085751
 21
72.16705
 31
0.0
  0
LINE
  5
1FC
330
1D
100
AcDbEntity
  8
CutLine
  6
Continuous
 62
     8
100
AcDbLine
 10
40.504412
 20
99.245209
 30
0.0
 11
40.418452
 21
98.77422
 31
0.0
  0
LINE
  5
1FD
330
1D
100
AcDbEntity
  8
CutLine
  6
Continuous
 62
     8
100
AcDbLine
 10
37.945117
 20
111.704615
 30
0.0
 11
38.256722
 21
111.788186
 31
0.0
  0
LINE
  5
1FE
330
1D
100
AcDbEntity
  8
CutLine
  6
Continuous
 62
     8
100
AcDbLine
 10
45.085751
 20
72.16705
 30
0.0
 11
44.506716
 21
71.347646
 31
0.0
  0
LINE
  5
1FF
330
1D
100
AcDbEntity
  8
CutLine
  6
Continuous
 62
     8
100
AcDbLine
 10
29.295399
 20
73.930027
 30
0.0
 11
29.335394
 21
74.632629
 31
0.0
  0
LINE
  5
200
330
1D
100
AcDbEntity
  8
CutLine
  6
Continuous
 62
     8
100
AcDbLine
 10
37.640676
 20
111.616268
 30
0.0
 11
37.945117
 21
111.704615
 31
0.0
  0
LINE
  5
201
330
1D
100
AcDbEntity
  8
CutLine
  6
Continuous
 62
     8
100
AcDbLine
 10
44.506716
 20
71.347646
 30
0.0
 11
43.877537
 21
70.538588
 31
0.0
  0
LINE
  5
202
330
1D
100
AcDbEntity
  8
CutLine
  6
Continuous
 62
     8
100
AcDbLine
 10
37.343398
 20
111.523145
 30
0.0
 11
37.640676
 21
111.616268
 31
0.0
  0
LINE
  5
203
330
1D
100
AcDbEntity
  8
CutLine
  6
Continuous
 62
     8
100
AcDbLine
 10
43.877537
 20
70.538588
 30
0.0
 11
43.198215
 21
69.739878
 31
0.0
  0
LINE
  5
204
330
1D
100
AcDbEntity
  8
CutLine
  6
Continuous
 62
     8
100
AcDbLine
 10
29.335394
 20
74.632629
 30
0.0
 11
29.393298
 21
75.350753
 31
0.0
  0
LINE
  5
205
330
1D
100
AcDbEntity
  8
CutLine
  6
Continuous
 62
     8
100
AcDbLine
 10
29.393298
 20
75.350753
 30
0.0
 11
29.46911
 21
76.084397
 31
0.0
  0
LINE
  5
206
330
1D
100
AcDbEntity
  8
CutLine
  6
Continuous
 62
     8
100
AcDbLine
 10
40.749558
 20
102.24127
 30
0.0
 11
40.752742
 21
101.845497
 31
0.0
  0
LINE
  5
207
330
1D
100
AcDbEntity
  8
CutLine
  6
Continuous
 62
     8
100
AcDbLine
 10
37.053282
 20
111.425246
 30
0.0
 11
37.343398
 21
111.523145
 31
0.0
  0
LINE
  5
208
330
1D
100
AcDbEntity
  8
CutLine
  6
Continuous
 62
     8
100
AcDbLine
 10
29.46911
 20
76.084397
 30
0.0
 11
29.562831
 21
76.83356
 31
0.0
  0
LINE
  5
209
330
1D
100
AcDbEntity
  8
CutLine
  6
Continuous
 62
     8
100
AcDbLine
 10
36.770331
 20
111.322572
 30
0.0
 11
37.053282
 21
111.425246
 31
0.0
  0
LINE
  5
20A
330
1D
100
AcDbEntity
  8
CutLine
  6
Continuous
 62
     8
100
AcDbLine
 10
40.938192
 20
104.227698
 30
0.0
 11
40.808655
 21
103.79969
 31
0.0
  0
LINE
  5
20B
330
1D
100
AcDbEntity
  8
CutLine
  6
Continuous
 62
     8
100
AcDbLine
 10
34.838225
 20
111.298693
 30
0.0
 11
35.396367
 21
111.15483
 31
0.0
  0
LINE
  5
20C
330
1D
100
AcDbEntity
  8
CutLine
  6
Continuous
 62
     8
100
AcDbLine
 10
29.562831
 20
76.83356
 30
0.0
 11
29.674459
 21
77.598243
 31
0.0
  0
LINE
  5
20D
330
1D
100
AcDbEntity
  8
CutLine
  6
Continuous
 62
     8
100
AcDbLine
 10
29.571189
 20
84.569347
 30
0.0
 11
29.534974
 21
85.026805
 31
0.0
  0
LINE
  5
20E
330
1D
100
AcDbEntity
  8
CutLine
  6
Continuous
 62
     8
100
AcDbLine
 10
40.319756
 20
91.043202
 30
0.0
 11
40.247129
 21
90.641459
 31
0.0
  0
LINE
  5
20F
330
1D
100
AcDbEntity
  8
CutLine
  6
Continuous
 62
     8
100
AcDbLine
 10
29.61775
 20
83.25667
 30
0.0
 11
29.612577
 21
83.684279
 31
0.0
  0
LINE
  5
210
330
1D
100
AcDbEntity
  8
CutLine
  6
Continuous
 62
     8
100
AcDbLine
 10
29.431502
 20
80.899938
 30
0.0
 11
29.488411
 21
81.267855
 31
0.0
  0
LINE
  5
211
330
1D
100
AcDbEntity
  8
CutLine
  6
Continuous
 62
     8
100
AcDbLine
 10
29.488411
 20
81.267855
 30
0.0
 11
29.534974
 21
81.645721
 31
0.0
  0
LINE
  5
212
330
1D
100
AcDbEntity
  8
CutLine
  6
Continuous
 62
     8
100
AcDbLine
 10
29.431503
 20
88.521714
 30
0.0
 11
29.486024
 21
88.967231
 31
0.0
  0
LINE
  5
213
330
1D
100
AcDbEntity
  8
CutLine
  6
Continuous
 62
     8
100
AcDbLine
 10
29.355095
 20
101.240593
 30
0.0
 11
29.243467
 21
102.117703
 31
0.0
  0
LINE
  5
214
330
1D
100
AcDbEntity
  8
CutLine
  6
Continuous
 62
     8
100
AcDbLine
 10
29.087665
 20
94.682171
 30
0.0
 11
29.233914
 21
95.457402
 31
0.0
  0
LINE
  5
215
330
1D
100
AcDbEntity
  8
CutLine
  6
Continuous
 62
     8
100
AcDbLine
 10
29.233914
 20
95.457402
 30
0.0
 11
29.347933
 21
96.245367
 31
0.0
  0
LINE
  5
216
330
1D
100
AcDbEntity
  8
CutLine
  6
Continuous
 62
     8
100
AcDbLine
 10
6.833332
 20
60.0
 30
0.0
 11
66.833304
 21
59.999997
 31
0.0
  0
LINE
  5
217
330
1D
100
AcDbEntity
  8
CutLine
  6
Continuous
 62
     8
100
AcDbLine
 10
40.418452
 20
98.77422
 30
0.0
 11
40.319757
 21
98.292486
 31
0.0
  0
LINE
  5
218
330
1D
100
AcDbEntity
  8
CutLine
  6
Continuous
 62
     8
100
AcDbLine
 10
40.319757
 20
98.292486
 30
0.0
 11
40.663596
 21
94.309677
 31
0.0
  0
LINE
  5
219
330
1D
100
AcDbEntity
  8
CutLine
  6
Continuous
 62
     8
100
AcDbLine
 10
40.707369
 20
81.449922
 30
0.0
 11
41.449967
 21
81.562144
 31
0.0
  0
LINE
  5
21A
330
1D
100
AcDbEntity
  8
CutLine
  6
Continuous
 62
     8
100
AcDbLine
 10
40.808655
 20
103.79969
 30
0.0
 11
40.663597
 21
103.36412
 31
0.0
  0
LINE
  5
21B
330
1D
100
AcDbEntity
  8
CutLine
  6
Continuous
 62
     8
100
AcDbLine
 10
40.663597
 20
103.36412
 30
0.0
 11
40.704986
 21
103.000582
 31
0.0
  0
LINE
  5
21C
330
1D
100
AcDbEntity
  8
CutLine
  6
Continuous
 62
     8
100
AcDbLine
 10
29.674459
 20
77.598243
 30
0.0
 11
29.803995
 21
78.378449
 31
0.0
  0
LINE
  5
21D
330
1D
100
AcDbEntity
  8
CutLine
  6
Continuous
 62
     8
100
AcDbLine
 10
29.803995
 20
78.378449
 30
0.0
 11
29.803995
 21
79.467277
 31
0.0
  0
LINE
  5
21E
330
1D
100
AcDbEntity
  8
CutLine
  6
Continuous
 62
     8
100
AcDbLine
 10
43.198215
 20
69.739878
 30
0.0
 11
42.46875
 21
68.95151
 31
0.0
  0
LINE
  5
21F
330
1D
100
AcDbEntity
  8
CutLine
  6
Continuous
 62
     8
100
AcDbLine
 10
35.396367
 20
111.15483
 30
0.0
 11
35.964458
 21
110.985895
 31
0.0
  0
LINE
  5
220
330
1D
100
AcDbEntity
  8
CutLine
  6
Continuous
 62
     8
100
AcDbLine
 10
35.964458
 20
110.985895
 30
0.0
 11
36.225918
 21
111.102895
 31
0.0
  0
LINE
  5
221
330
1D
100
AcDbEntity
  8
CutLine
  6
Continuous
 62
     8
100
AcDbLine
 10
39.947262
 20
84.882743
 30
0.0
 11
39.574769
 21
83.450078
 31
0.0
  0
LINE
  5
222
330
1D
100
AcDbEntity
  8
CutLine
  6
Continuous
 62
     8
100
AcDbLine
 10
39.574769
 20
83.450078
 30
0.0
 11
39.947261
 21
81.272427
 31
0.0
  0
LINE
  5
223
330
1D
100
AcDbEntity
  8
CutLine
  6
Continuous
 62
     8
100
AcDbLine
 10
39.947261
 20
81.272427
 30
0.0
 11
40.707369
 21
81.449922
 31
0.0
  0
LINE
  5
224
330
1D
100
AcDbEntity
  8
CutLine
  6
Continuous
 62
     8
100
AcDbLine
 10
77.317089
 20
95.144985
 30
0.0
 11
77.292018
 21
95.202889
 31
0.0
  0
LINE
  5
225
330
1D
100
AcDbEntity
  8
CutLine
  6
Continuous
 62
     8
100
AcDbLine
 10
77.292018
 20
95.202889
 30
0.0
 11
77.259783
 21
95.26119
 31
0.0
  0
LINE
  5
226
330
1D
100
AcDbEntity
  8
CutLine
  6
Continuous
 62
     8
100
AcDbLine
 10
82.30535
 20
88.178655
 30
0.0
 11
82.664511
 21
88.010118
 31
0.0
  0
LINE
  5
227
330
1D
100
AcDbEntity
  8
CutLine
  6
Continuous
 62
     8
100
AcDbLine
 10
80.270369
 20
89.703845
 30
0.0
 11
80.509743
 21
89.448951
 31
0.0
  0
LINE
  5
228
330
1D
100
AcDbEntity
  8
CutLine
  6
Continuous
 62
     8
100
AcDbLine
 10
80.509743
 20
89.448951
 30
0.0
 11
80.76623
 21
89.206393
 31
0.0
  0
LINE
  5
229
330
1D
100
AcDbEntity
  8
CutLine
  6
Continuous
 62
     8
100
AcDbLine
 10
81.039828
 20
88.976172
 30
0.0
 11
81.33054
 21
88.758288
 31
0.0
  0
LINE
  5
22A
330
1D
100
AcDbEntity
  8
CutLine
  6
Continuous
 62
     8
100
AcDbLine
 10
81.33054
 20
88.758288
 30
0.0
 11
81.638365
 21
88.552739
 31
0.0
  0
LINE
  5
22B
330
1D
100
AcDbEntity
  8
CutLine
  6
Continuous
 62
     8
100
AcDbLine
 10
81.638365
 20
88.552739
 30
0.0
 11
81.963302
 21
88.359529
 31
0.0
  0
LINE
  5
22C
330
1D
100
AcDbEntity
  8
CutLine
  6
Continuous
 62
     8
100
AcDbLine
 10
81.963302
 20
88.359529
 30
0.0
 11
82.30535
 21
88.178655
 31
0.0
  0
LINE
  5
22D
330
1D
100
AcDbEntity
  8
CutLine
  6
Continuous
 62
     8
100
AcDbLine
 10
80.76623
 20
89.206393
 30
0.0
 11
81.039828
 21
88.976172
 31
0.0
  0
LINE
  5
22E
330
1D
100
AcDbEntity
  8
CutLine
  6
Continuous
 62
     8
100
AcDbLine
 10
80.048107
 20
89.971077
 30
0.0
 11
80.270369
 21
89.703845
 31
0.0
  0
LINE
  5
22F
330
1D
100
AcDbEntity
  8
CutLine
  6
Continuous
 62
     8
100
AcDbLine
 10
79.483994
 20
90.846792
 30
0.0
 11
79.65492
 21
90.542549
 31
0.0
  0
LINE
  5
230
330
1D
100
AcDbEntity
  8
CutLine
  6
Continuous
 62
     8
100
AcDbLine
 10
79.65492
 20
90.542549
 30
0.0
 11
79.842957
 21
90.250645
 31
0.0
  0
LINE
  5
231
330
1D
100
AcDbEntity
  8
CutLine
  6
Continuous
 62
     8
100
AcDbLine
 10
79.842957
 20
90.250645
 30
0.0
 11
80.048107
 21
89.971077
 31
0.0
  0
LINE
  5
232
330
1D
100
AcDbEntity
  8
CutLine
  6
Continuous
 62
     8
100
AcDbLine
 10
77.259783
 20
95.26119
 30
0.0
 11
77.220384
 21
95.319889
 31
0.0
  0
LINE
  5
233
330
1D
100
AcDbEntity
  8
CutLine
  6
Continuous
 62
     8
100
AcDbLine
 10
77.220384
 20
95.319889
 30
0.0
 11
77.173822
 21
95.378986
 31
0.0
  0
LINE
  5
234
330
1D
100
AcDbEntity
  8
CutLine
  6
Continuous
 62
     8
100
AcDbLine
 10
84.857682
 20
85.738151
 30
0.0
 11
85.128694
 21
85.545935
 31
0.0
  0
LINE
  5
235
330
1D
100
AcDbEntity
  8
CutLine
  6
Continuous
 62
     8
100
AcDbLine
 10
84.598608
 20
85.932755
 30
0.0
 11
84.857682
 21
85.738151
 31
0.0
  0
LINE
  5
236
330
1D
100
AcDbEntity
  8
CutLine
  6
Continuous
 62
     8
100
AcDbLine
 10
77.173822
 20
95.378986
 30
0.0
 11
77.120097
 21
95.438482
 31
0.0
  0
LINE
  5
237
330
1D
100
AcDbEntity
  8
CutLine
  6
Continuous
 62
     8
100
AcDbLine
 10
77.120097
 20
95.438482
 30
0.0
 11
77.059209
 21
95.498376
 31
0.0
  0
LINE
  5
238
330
1D
100
AcDbEntity
  8
CutLine
  6
Continuous
 62
     8
100
AcDbLine
 10
86.717759
 20
83.891206
 30
0.0
 11
86.905199
 21
83.76943
 31
0.0
  0
LINE
  5
239
330
1D
100
AcDbEntity
  8
CutLine
  6
Continuous
 62
     8
100
AcDbLine
 10
85.237339
 20
85.371627
 30
0.0
 11
85.353147
 21
85.202095
 31
0.0
  0
LINE
  5
23A
330
1D
100
AcDbEntity
  8
CutLine
  6
Continuous
 62
     8
100
AcDbLine
 10
85.353147
 20
85.202095
 30
0.0
 11
85.476117
 21
85.03734
 31
0.0
  0
LINE
  5
23B
330
1D
100
AcDbEntity
  8
CutLine
  6
Continuous
 62
     8
100
AcDbLine
 10
85.476117
 20
85.03734
 30
0.0
 11
85.606251
 21
84.877358
 31
0.0
  0
LINE
  5
23C
330
1D
100
AcDbEntity
  8
CutLine
  6
Continuous
 62
     8
100
AcDbLine
 10
85.606251
 20
84.877358
 30
0.0
 11
85.743548
 21
84.722153
 31
0.0
  0
LINE
  5
23D
330
1D
100
AcDbEntity
  8
CutLine
  6
Continuous
 62
     8
100
AcDbLine
 10
85.743548
 20
84.722153
 30
0.0
 11
85.888008
 21
84.571722
 31
0.0
  0
LINE
  5
23E
330
1D
100
AcDbEntity
  8
CutLine
  6
Continuous
 62
     8
100
AcDbLine
 10
85.888008
 20
84.571722
 30
0.0
 11
86.039632
 21
84.426068
 31
0.0
  0
LINE
  5
23F
330
1D
100
AcDbEntity
  8
CutLine
  6
Continuous
 62
     8
100
AcDbLine
 10
86.039632
 20
84.426068
 30
0.0
 11
86.198419
 21
84.285189
 31
0.0
  0
LINE
  5
240
330
1D
100
AcDbEntity
  8
CutLine
  6
Continuous
 62
     8
100
AcDbLine
 10
86.198419
 20
84.285189
 30
0.0
 11
86.364368
 21
84.149088
 31
0.0
  0
LINE
  5
241
330
1D
100
AcDbEntity
  8
CutLine
  6
Continuous
 62
     8
100
AcDbLine
 10
86.364368
 20
84.149088
 30
0.0
 11
86.537482
 21
84.017758
 31
0.0
  0
LINE
  5
242
330
1D
100
AcDbEntity
  8
CutLine
  6
Continuous
 62
     8
100
AcDbLine
 10
86.537482
 20
84.017758
 30
0.0
 11
86.717759
 21
83.891206
 31
0.0
  0
LINE
  5
243
330
1D
100
AcDbEntity
  8
CutLine
  6
Continuous
 62
     8
100
AcDbLine
 10
85.128694
 20
85.545935
 30
0.0
 11
85.237339
 21
85.371627
 31
0.0
  0
LINE
  5
244
330
1D
100
AcDbEntity
  8
CutLine
  6
Continuous
 62
     8
100
AcDbLine
 10
76.371532
 20
76.373296
 30
0.0
 11
76.298704
 21
77.604194
 31
0.0
  0
LINE
  5
245
330
1D
100
AcDbEntity
  8
CutLine
  6
Continuous
 62
     8
100
AcDbLine
 10
76.298704
 20
77.604194
 30
0.0
 11
76.390633
 21
79.009399
 31
0.0
  0
LINE
  5
246
330
1D
100
AcDbEntity
  8
CutLine
  6
Continuous
 62
     8
100
AcDbLine
 10
77.059209
 20
95.498376
 30
0.0
 11
76.991158
 21
95.558668
 31
0.0
  0
LINE
  5
247
330
1D
100
AcDbEntity
  8
CutLine
  6
Continuous
 62
     8
100
AcDbLine
 10
76.991158
 20
95.558668
 30
0.0
 11
76.915942
 21
95.619357
 31
0.0
  0
LINE
  5
248
330
1D
100
AcDbEntity
  8
CutLine
  6
Continuous
 62
     8
100
AcDbLine
 10
66.833304
 20
59.999997
 30
0.0
 11
126.833303
 21
60.000009
 31
0.0
  0
LINE
  5
249
330
1D
100
AcDbEntity
  8
CutLine
  6
Continuous
 62
     8
100
AcDbLine
 10
79.207015
 20
72.833424
 30
0.0
 11
78.310405
 21
73.192784
 31
0.0
  0
LINE
  5
24A
330
1D
100
AcDbEntity
  8
CutLine
  6
Continuous
 62
     8
100
AcDbLine
 10
82.885381
 20
72.801188
 30
0.0
 11
81.494503
 21
72.637627
 31
0.0
  0
LINE
  5
24B
330
1D
100
AcDbEntity
  8
CutLine
  6
Continuous
 62
     8
100
AcDbLine
 10
86.188867
 20
73.139057
 30
0.0
 11
84.441016
 21
73.139057
 31
0.0
  0
LINE
  5
24C
330
1D
100
AcDbEntity
  8
CutLine
  6
Continuous
 62
     8
100
AcDbLine
 10
84.441016
 20
73.139057
 30
0.0
 11
82.885381
 21
72.801188
 31
0.0
  0
LINE
  5
24D
330
1D
100
AcDbEntity
  8
CutLine
  6
Continuous
 62
     8
100
AcDbLine
 10
81.494503
 20
72.637627
 30
0.0
 11
80.26838
 21
72.648374
 31
0.0
  0
LINE
  5
24E
330
1D
100
AcDbEntity
  8
CutLine
  6
Continuous
 62
     8
100
AcDbLine
 10
76.744024
 20
95.74193
 30
0.0
 11
76.647319
 21
95.803812
 31
0.0
  0
LINE
  5
24F
330
1D
100
AcDbEntity
  8
CutLine
  6
Continuous
 62
     8
100
AcDbLine
 10
76.915942
 20
95.619357
 30
0.0
 11
76.833565
 21
95.680444
 31
0.0
  0
LINE
  5
250
330
1D
100
AcDbEntity
  8
CutLine
  6
Continuous
 62
     8
100
AcDbLine
 10
76.833565
 20
95.680444
 30
0.0
 11
76.744024
 21
95.74193
 31
0.0
  0
LINE
  5
251
330
1D
100
AcDbEntity
  8
CutLine
  6
Continuous
 62
     8
100
AcDbLine
 10
99.872608
 20
74.281613
 30
0.0
 11
99.611345
 21
74.568545
 31
0.0
  0
LINE
  5
252
330
1D
100
AcDbEntity
  8
CutLine
  6
Continuous
 62
     8
100
AcDbLine
 10
100.143819
 20
74.009804
 30
0.0
 11
99.872608
 21
74.281613
 31
0.0
  0
LINE
  5
253
330
1D
100
AcDbEntity
  8
CutLine
  6
Continuous
 62
     8
100
AcDbLine
 10
100.424978
 20
73.753121
 30
0.0
 11
100.143819
 21
74.009804
 31
0.0
  0
LINE
  5
254
330
1D
100
AcDbEntity
  8
CutLine
  6
Continuous
 62
     8
100
AcDbLine
 10
86.204587
 20
73.284712
 30
0.0
 11
86.188867
 21
73.139057
 31
0.0
  0
LINE
  5
255
330
1D
100
AcDbEntity
  8
CutLine
  6
Continuous
 62
     8
100
AcDbLine
 10
86.905199
 20
75.975735
 30
0.0
 11
86.56136
 21
74.571722
 31
0.0
  0
LINE
  5
256
330
1D
100
AcDbEntity
  8
CutLine
  6
Continuous
 62
     8
100
AcDbLine
 10
100.716087
 20
73.511554
 30
0.0
 11
100.424978
 21
73.753121
 31
0.0
  0
LINE
  5
257
330
1D
100
AcDbEntity
  8
CutLine
  6
Continuous
 62
     8
100
AcDbLine
 10
80.26838
 20
72.648374
 30
0.0
 11
79.207015
 21
72.833424
 31
0.0
  0
LINE
  5
258
330
1D
100
AcDbEntity
  8
CutLine
  6
Continuous
 62
     8
100
AcDbLine
 10
78.310405
 20
73.192784
 30
0.0
 11
77.578553
 21
73.726451
 31
0.0
  0
LINE
  5
259
330
1D
100
AcDbEntity
  8
CutLine
  6
Continuous
 62
     8
100
AcDbLine
 10
77.578553
 20
73.726451
 30
0.0
 11
77.011455
 21
74.434424
 31
0.0
  0
LINE
  5
25A
330
1D
100
AcDbEntity
  8
CutLine
  6
Continuous
 62
     8
100
AcDbLine
 10
77.011455
 20
74.434424
 30
0.0
 11
76.609116
 21
75.316707
 31
0.0
  0
LINE
  5
25B
330
1D
100
AcDbEntity
  8
CutLine
  6
Continuous
 62
     8
100
AcDbLine
 10
76.609116
 20
75.316707
 30
0.0
 11
76.371532
 21
76.373296
 31
0.0
  0
LINE
  5
25C
330
1D
100
AcDbEntity
  8
CutLine
  6
Continuous
 62
     8
100
AcDbLine
 10
75.927406
 20
83.174871
 30
0.0
 11
75.819557
 21
84.04641
 31
0.0
  0
LINE
  5
25D
330
1D
100
AcDbEntity
  8
CutLine
  6
Continuous
 62
     8
100
AcDbLine
 10
77.334996
 20
95.08748
 30
0.0
 11
77.317089
 21
95.144985
 31
0.0
  0
LINE
  5
25E
330
1D
100
AcDbEntity
  8
CutLine
  6
Continuous
 62
     8
100
AcDbLine
 10
75.819557
 20
84.04641
 30
0.0
 11
75.777772
 21
84.922723
 31
0.0
  0
LINE
  5
25F
330
1D
100
AcDbEntity
  8
CutLine
  6
Continuous
 62
     8
100
AcDbLine
 10
77.334997
 20
91.190631
 30
0.0
 11
79.483994
 21
90.846792
 31
0.0
  0
LINE
  5
260
330
1D
100
AcDbEntity
  8
CutLine
  6
Continuous
 62
     8
100
AcDbLine
 10
76.914352
 20
90.280888
 30
0.0
 11
77.334997
 21
91.190631
 31
0.0
  0
LINE
  5
261
330
1D
100
AcDbEntity
  8
CutLine
  6
Continuous
 62
     8
100
AcDbLine
 10
76.647319
 20
95.803812
 30
0.0
 11
76.60792
 21
96.133324
 31
0.0
  0
LINE
  5
262
330
1D
100
AcDbEntity
  8
CutLine
  6
Continuous
 62
     8
100
AcDbLine
 10
76.60792
 20
96.133324
 30
0.0
 11
76.575685
 21
96.472389
 31
0.0
  0
LINE
  5
263
330
1D
100
AcDbEntity
  8
CutLine
  6
Continuous
 62
     8
100
AcDbLine
 10
76.559768
 20
89.375922
 30
0.0
 11
76.914352
 21
90.280888
 31
0.0
  0
LINE
  5
264
330
1D
100
AcDbEntity
  8
CutLine
  6
Continuous
 62
     8
100
AcDbLine
 10
76.575685
 20
96.472389
 30
0.0
 11
76.550614
 21
96.821004
 31
0.0
  0
LINE
  5
265
330
1D
100
AcDbEntity
  8
CutLine
  6
Continuous
 62
     8
100
AcDbLine
 10
75.777772
 20
84.922723
 30
0.0
 11
75.802048
 21
85.803812
 31
0.0
  0
LINE
  5
266
330
1D
100
AcDbEntity
  8
CutLine
  6
Continuous
 62
     8
100
AcDbLine
 10
76.550614
 20
96.821004
 30
0.0
 11
76.532705
 21
97.17917
 31
0.0
  0
LINE
  5
267
330
1D
100
AcDbEntity
  8
CutLine
  6
Continuous
 62
     8
100
AcDbLine
 10
76.532705
 20
97.17917
 30
0.0
 11
76.521959
 21
97.546887
 31
0.0
  0
LINE
  5
268
330
1D
100
AcDbEntity
  8
CutLine
  6
Continuous
 62
     8
100
AcDbLine
 10
76.521959
 20
97.546887
 30
0.0
 11
76.518379
 21
97.924156
 31
0.0
  0
LINE
  5
269
330
1D
100
AcDbEntity
  8
CutLine
  6
Continuous
 62
     8
100
AcDbLine
 10
85.064223
 20
102.933111
 30
0.0
 11
85.434327
 21
102.579522
 31
0.0
  0
LINE
  5
26A
330
1D
100
AcDbEntity
  8
CutLine
  6
Continuous
 62
     8
100
AcDbLine
 10
99.611345
 20
74.568545
 30
0.0
 11
99.360031
 21
74.870599
 31
0.0
  0
LINE
  5
26B
330
1D
100
AcDbEntity
  8
CutLine
  6
Continuous
 62
     8
100
AcDbLine
 10
99.360031
 20
74.870599
 30
0.0
 11
99.118666
 21
75.187774
 31
0.0
  0
LINE
  5
26C
330
1D
100
AcDbEntity
  8
CutLine
  6
Continuous
 62
     8
100
AcDbLine
 10
96.589016
 20
78.51772
 30
0.0
 11
96.32497
 21
78.776594
 31
0.0
  0
LINE
  5
26D
330
1D
100
AcDbEntity
  8
CutLine
  6
Continuous
 62
     8
100
AcDbLine
 10
96.32497
 20
78.776594
 30
0.0
 11
96.058932
 21
79.047805
 31
0.0
  0
LINE
  5
26E
330
1D
100
AcDbEntity
  8
CutLine
  6
Continuous
 62
     8
100
AcDbLine
 10
96.058932
 20
79.047805
 30
0.0
 11
95.790904
 21
79.331354
 31
0.0
  0
LINE
  5
26F
330
1D
100
AcDbEntity
  8
CutLine
  6
Continuous
 62
     8
100
AcDbLine
 10
95.790904
 20
79.331354
 30
0.0
 11
95.520886
 21
79.62724
 31
0.0
  0
LINE
  5
270
330
1D
100
AcDbEntity
  8
CutLine
  6
Continuous
 62
     8
100
AcDbLine
 10
95.520886
 20
79.62724
 30
0.0
 11
95.248878
 21
79.935461
 31
0.0
  0
LINE
  5
271
330
1D
100
AcDbEntity
  8
CutLine
  6
Continuous
 62
     8
100
AcDbLine
 10
86.479976
 20
88.549754
 30
0.0
 11
86.188866
 21
88.72645
 31
0.0
  0
LINE
  5
272
330
1D
100
AcDbEntity
  8
CutLine
  6
Continuous
 62
     8
100
AcDbLine
 10
86.188866
 20
88.72645
 30
0.0
 11
86.020329
 21
88.949906
 31
0.0
  0
LINE
  5
273
330
1D
100
AcDbEntity
  8
CutLine
  6
Continuous
 62
     8
100
AcDbLine
 10
86.020329
 20
88.949906
 30
0.0
 11
85.839455
 21
89.180923
 31
0.0
  0
LINE
  5
274
330
1D
100
AcDbEntity
  8
CutLine
  6
Continuous
 62
     8
100
AcDbLine
 10
89.741875
 20
85.173442
 30
0.0
 11
89.025542
 21
86.606107
 31
0.0
  0
LINE
  5
275
330
1D
100
AcDbEntity
  8
CutLine
  6
Continuous
 62
     8
100
AcDbLine
 10
89.025542
 20
86.606107
 30
0.0
 11
88.843873
 21
86.782805
 31
0.0
  0
LINE
  5
276
330
1D
100
AcDbEntity
  8
CutLine
  6
Continuous
 62
     8
100
AcDbLine
 10
86.514997
 20
74.478607
 30
0.0
 11
86.47142
 21
74.380707
 31
0.0
  0
LINE
  5
277
330
1D
100
AcDbEntity
  8
CutLine
  6
Continuous
 62
     8
100
AcDbLine
 10
86.47142
 20
74.380707
 30
0.0
 11
86.430629
 21
74.278031
 31
0.0
  0
LINE
  5
278
330
1D
100
AcDbEntity
  8
CutLine
  6
Continuous
 62
     8
100
AcDbLine
 10
86.430629
 20
74.278031
 30
0.0
 11
86.392624
 21
74.170583
 31
0.0
  0
LINE
  5
279
330
1D
100
AcDbEntity
  8
CutLine
  6
Continuous
 62
     8
100
AcDbLine
 10
86.392624
 20
74.170583
 30
0.0
 11
86.357405
 21
74.058355
 31
0.0
  0
LINE
  5
27A
330
1D
100
AcDbEntity
  8
CutLine
  6
Continuous
 62
     8
100
AcDbLine
 10
86.357405
 20
74.058355
 30
0.0
 11
86.324971
 21
73.941353
 31
0.0
  0
LINE
  5
27B
330
1D
100
AcDbEntity
  8
CutLine
  6
Continuous
 62
     8
100
AcDbLine
 10
86.324971
 20
73.941353
 30
0.0
 11
86.295322
 21
73.819577
 31
0.0
  0
LINE
  5
27C
330
1D
100
AcDbEntity
  8
CutLine
  6
Continuous
 62
     8
100
AcDbLine
 10
86.56136
 20
74.571722
 30
0.0
 11
86.514997
 21
74.478607
 31
0.0
  0
LINE
  5
27D
330
1D
100
AcDbEntity
  8
CutLine
  6
Continuous
 62
     8
100
AcDbLine
 10
98.758904
 20
101.942783
 30
0.0
 11
98.798899
 21
103.410667
 31
0.0
  0
LINE
  5
27E
330
1D
100
AcDbEntity
  8
CutLine
  6
Continuous
 62
     8
100
AcDbLine
 10
92.778124
 20
96.567899
 30
0.0
 11
92.994814
 21
96.271815
 31
0.0
  0
LINE
  5
27F
330
1D
100
AcDbEntity
  8
CutLine
  6
Continuous
 62
     8
100
AcDbLine
 10
92.994814
 20
96.271815
 30
0.0
 11
93.228617
 21
95.975732
 31
0.0
  0
LINE
  5
280
330
1D
100
AcDbEntity
  8
CutLine
  6
Continuous
 62
     8
100
AcDbLine
 10
92.578549
 20
96.863986
 30
0.0
 11
92.778124
 21
96.567899
 31
0.0
  0
LINE
  5
281
330
1D
100
AcDbEntity
  8
CutLine
  6
Continuous
 62
     8
100
AcDbLine
 10
98.980967
 20
99.375926
 30
0.0
 11
98.819593
 21
100.59787
 31
0.0
  0
LINE
  5
282
330
1D
100
AcDbEntity
  8
CutLine
  6
Continuous
 62
     8
100
AcDbLine
 10
98.819593
 20
100.59787
 30
0.0
 11
98.758904
 21
101.942783
 31
0.0
  0
LINE
  5
283
330
1D
100
AcDbEntity
  8
CutLine
  6
Continuous
 62
     8
100
AcDbLine
 10
91.068481
 20
97.887147
 30
0.0
 11
91.518377
 21
97.551665
 31
0.0
  0
LINE
  5
284
330
1D
100
AcDbEntity
  8
CutLine
  6
Continuous
 62
     8
100
AcDbLine
 10
91.518377
 20
97.551665
 30
0.0
 11
92.578549
 21
96.863986
 31
0.0
  0
LINE
  5
285
330
1D
100
AcDbEntity
  8
CutLine
  6
Continuous
 62
     8
100
AcDbLine
 10
98.798899
 20
103.410667
 30
0.0
 11
98.939579
 21
105.001522
 31
0.0
  0
LINE
  5
286
330
1D
100
AcDbEntity
  8
CutLine
  6
Continuous
 62
     8
100
AcDbLine
 10
87.510696
 20
100.84799
 30
0.0
 11
87.789469
 21
100.584141
 31
0.0
  0
LINE
  5
287
330
1D
100
AcDbEntity
  8
CutLine
  6
Continuous
 62
     8
100
AcDbLine
 10
87.789469
 20
100.584141
 30
0.0
 11
88.085354
 21
100.313128
 31
0.0
  0
LINE
  5
288
330
1D
100
AcDbEntity
  8
CutLine
  6
Continuous
 62
     8
100
AcDbLine
 10
88.085354
 20
100.313128
 30
0.0
 11
88.398352
 21
100.034953
 31
0.0
  0
LINE
  5
289
330
1D
100
AcDbEntity
  8
CutLine
  6
Continuous
 62
     8
100
AcDbLine
 10
88.398352
 20
100.034953
 30
0.0
 11
88.728462
 21
99.749613
 31
0.0
  0
LINE
  5
28A
330
1D
100
AcDbEntity
  8
CutLine
  6
Continuous
 62
     8
100
AcDbLine
 10
88.728462
 20
99.749613
 30
0.0
 11
89.075685
 21
99.45711
 31
0.0
  0
LINE
  5
28B
330
1D
100
AcDbEntity
  8
CutLine
  6
Continuous
 62
     8
100
AcDbLine
 10
89.075685
 20
99.45711
 30
0.0
 11
89.44002
 21
99.157445
 31
0.0
  0
LINE
  5
28C
330
1D
100
AcDbEntity
  8
CutLine
  6
Continuous
 62
     8
100
AcDbLine
 10
89.821466
 20
98.850615
 30
0.0
 11
90.220026
 21
98.536623
 31
0.0
  0
LINE
  5
28D
330
1D
100
AcDbEntity
  8
CutLine
  6
Continuous
 62
     8
100
AcDbLine
 10
90.220026
 20
98.536623
 30
0.0
 11
90.635697
 21
98.215467
 31
0.0
  0
LINE
  5
28E
330
1D
100
AcDbEntity
  8
CutLine
  6
Continuous
 62
     8
100
AcDbLine
 10
90.635697
 20
98.215467
 30
0.0
 11
91.068481
 21
97.887147
 31
0.0
  0
LINE
  5
28F
330
1D
100
AcDbEntity
  8
CutLine
  6
Continuous
 62
     8
100
AcDbLine
 10
89.44002
 20
99.157445
 30
0.0
 11
89.821466
 21
98.850615
 31
0.0
  0
LINE
  5
290
330
1D
100
AcDbEntity
  8
CutLine
  6
Continuous
 62
     8
100
AcDbLine
 10
87.249036
 20
101.104674
 30
0.0
 11
87.510696
 21
100.84799
 31
0.0
  0
LINE
  5
291
330
1D
100
AcDbEntity
  8
CutLine
  6
Continuous
 62
     8
100
AcDbLine
 10
76.647318
 20
101.448511
 30
0.0
 11
76.274825
 21
102.508684
 31
0.0
  0
LINE
  5
292
330
1D
100
AcDbEntity
  8
CutLine
  6
Continuous
 62
     8
100
AcDbLine
 10
76.60792
 20
99.953765
 30
0.0
 11
76.647318
 21
100.38834
 31
0.0
  0
LINE
  5
293
330
1D
100
AcDbEntity
  8
CutLine
  6
Continuous
 62
     8
100
AcDbLine
 10
76.647318
 20
100.38834
 30
0.0
 11
76.647318
 21
101.448511
 31
0.0
  0
LINE
  5
294
330
1D
100
AcDbEntity
  8
CutLine
  6
Continuous
 62
     8
100
AcDbLine
 10
83.948337
 20
91.301266
 30
0.0
 11
83.656432
 21
91.600335
 31
0.0
  0
LINE
  5
295
330
1D
100
AcDbEntity
  8
CutLine
  6
Continuous
 62
     8
100
AcDbLine
 10
86.658462
 20
82.565992
 30
0.0
 11
86.572103
 21
81.949945
 31
0.0
  0
LINE
  5
296
330
1D
100
AcDbEntity
  8
CutLine
  6
Continuous
 62
     8
100
AcDbLine
 10
86.572103
 20
81.949945
 30
0.0
 11
86.510419
 21
81.324349
 31
0.0
  0
LINE
  5
297
330
1D
100
AcDbEntity
  8
CutLine
  6
Continuous
 62
     8
100
AcDbLine
 10
86.510419
 20
81.324349
 30
0.0
 11
86.473408
 21
80.6892
 31
0.0
  0
LINE
  5
298
330
1D
100
AcDbEntity
  8
CutLine
  6
Continuous
 62
     8
100
AcDbLine
 10
86.473408
 20
80.6892
 30
0.0
 11
86.461071
 21
80.044501
 31
0.0
  0
LINE
  5
299
330
1D
100
AcDbEntity
  8
CutLine
  6
Continuous
 62
     8
100
AcDbLine
 10
86.461071
 20
80.044501
 30
0.0
 11
86.473408
 21
79.390251
 31
0.0
  0
LINE
  5
29A
330
1D
100
AcDbEntity
  8
CutLine
  6
Continuous
 62
     8
100
AcDbLine
 10
86.473408
 20
79.390251
 30
0.0
 11
86.510419
 21
78.726449
 31
0.0
  0
LINE
  5
29B
330
1D
100
AcDbEntity
  8
CutLine
  6
Continuous
 62
     8
100
AcDbLine
 10
86.510419
 20
78.726449
 30
0.0
 11
86.572103
 21
78.053097
 31
0.0
  0
LINE
  5
29C
330
1D
100
AcDbEntity
  8
CutLine
  6
Continuous
 62
     8
100
AcDbLine
 10
86.572103
 20
78.053097
 30
0.0
 11
86.658462
 21
77.370194
 31
0.0
  0
LINE
  5
29D
330
1D
100
AcDbEntity
  8
CutLine
  6
Continuous
 62
     8
100
AcDbLine
 10
86.905199
 20
83.76943
 30
0.0
 11
86.769493
 21
83.172488
 31
0.0
  0
LINE
  5
29E
330
1D
100
AcDbEntity
  8
CutLine
  6
Continuous
 62
     8
100
AcDbLine
 10
86.769493
 20
83.172488
 30
0.0
 11
86.658462
 21
82.565992
 31
0.0
  0
LINE
  5
29F
330
1D
100
AcDbEntity
  8
CutLine
  6
Continuous
 62
     8
100
AcDbLine
 10
107.311123
 20
91.452494
 30
0.0
 11
107.044886
 21
91.744001
 31
0.0
  0
LINE
  5
2A0
330
1D
100
AcDbEntity
  8
CutLine
  6
Continuous
 62
     8
100
AcDbLine
 10
107.044886
 20
91.744001
 30
0.0
 11
106.761936
 21
92.027949
 31
0.0
  0
LINE
  5
2A1
330
1D
100
AcDbEntity
  8
CutLine
  6
Continuous
 62
     8
100
AcDbLine
 10
106.761936
 20
92.027949
 30
0.0
 11
106.462268
 21
92.304333
 31
0.0
  0
LINE
  5
2A2
330
1D
100
AcDbEntity
  8
CutLine
  6
Continuous
 62
     8
100
AcDbLine
 10
106.462268
 20
92.304333
 30
0.0
 11
106.145887
 21
92.573157
 31
0.0
  0
LINE
  5
2A3
330
1D
100
AcDbEntity
  8
CutLine
  6
Continuous
 62
     8
100
AcDbLine
 10
106.145887
 20
92.573157
 30
0.0
 11
105.812792
 21
92.834419
 31
0.0
  0
LINE
  5
2A4
330
1D
100
AcDbEntity
  8
CutLine
  6
Continuous
 62
     8
100
AcDbLine
 10
105.812792
 20
92.834419
 30
0.0
 11
105.462983
 21
93.08812
 31
0.0
  0
LINE
  5
2A5
330
1D
100
AcDbEntity
  8
CutLine
  6
Continuous
 62
     8
100
AcDbLine
 10
105.462983
 20
93.08812
 30
0.0
 11
105.096459
 21
93.33426
 31
0.0
  0
LINE
  5
2A6
330
1D
100
AcDbEntity
  8
CutLine
  6
Continuous
 62
     8
100
AcDbLine
 10
107.793449
 20
90.846795
 30
0.0
 11
107.560648
 21
91.153425
 31
0.0
  0
LINE
  5
2A7
330
1D
100
AcDbEntity
  8
CutLine
  6
Continuous
 62
     8
100
AcDbLine
 10
107.560648
 20
91.153425
 30
0.0
 11
107.311123
 21
91.452494
 31
0.0
  0
LINE
  5
2A8
330
1D
100
AcDbEntity
  8
CutLine
  6
Continuous
 62
     8
100
AcDbLine
 10
82.804196
 20
87.791637
 30
0.0
 11
82.95582
 21
87.575544
 31
0.0
  0
LINE
  5
2A9
330
1D
100
AcDbEntity
  8
CutLine
  6
Continuous
 62
     8
100
AcDbLine
 10
82.95582
 20
87.575544
 30
0.0
 11
83.119382
 21
87.361838
 31
0.0
  0
LINE
  5
2AA
330
1D
100
AcDbEntity
  8
CutLine
  6
Continuous
 62
     8
100
AcDbLine
 10
82.664511
 20
88.010118
 30
0.0
 11
82.804196
 21
87.791637
 31
0.0
  0
LINE
  5
2AB
330
1D
100
AcDbEntity
  8
CutLine
  6
Continuous
 62
     8
100
AcDbLine
 10
83.294884
 20
87.15052
 30
0.0
 11
83.482324
 21
86.941589
 31
0.0
  0
LINE
  5
2AC
330
1D
100
AcDbEntity
  8
CutLine
  6
Continuous
 62
     8
100
AcDbLine
 10
83.482324
 20
86.941589
 30
0.0
 11
83.681704
 21
86.735048
 31
0.0
  0
LINE
  5
2AD
330
1D
100
AcDbEntity
  8
CutLine
  6
Continuous
 62
     8
100
AcDbLine
 10
83.119382
 20
87.361838
 30
0.0
 11
83.294884
 21
87.15052
 31
0.0
  0
LINE
  5
2AE
330
1D
100
AcDbEntity
  8
CutLine
  6
Continuous
 62
     8
100
AcDbLine
 10
116.246173
 20
98.002956
 30
0.0
 11
116.586829
 21
97.233894
 31
0.0
  0
LINE
  5
2AF
330
1D
100
AcDbEntity
  8
CutLine
  6
Continuous
 62
     8
100
AcDbLine
 10
116.586829
 20
97.233894
 30
0.0
 11
116.959319
 21
96.459659
 31
0.0
  0
LINE
  5
2B0
330
1D
100
AcDbEntity
  8
CutLine
  6
Continuous
 62
     8
100
AcDbLine
 10
116.959319
 20
96.459659
 30
0.0
 11
117.363649
 21
95.680249
 31
0.0
  0
LINE
  5
2B1
330
1D
100
AcDbEntity
  8
CutLine
  6
Continuous
 62
     8
100
AcDbLine
 10
117.363649
 20
95.680249
 30
0.0
 11
117.799817
 21
94.895666
 31
0.0
  0
LINE
  5
2B2
330
1D
100
AcDbEntity
  8
CutLine
  6
Continuous
 62
     8
100
AcDbLine
 10
117.799817
 20
94.895666
 30
0.0
 11
118.267818
 21
94.105909
 31
0.0
  0
LINE
  5
2B3
330
1D
100
AcDbEntity
  8
CutLine
  6
Continuous
 62
     8
100
AcDbLine
 10
118.267818
 20
94.105909
 30
0.0
 11
118.76766
 21
93.31098
 31
0.0
  0
LINE
  5
2B4
330
1D
100
AcDbEntity
  8
CutLine
  6
Continuous
 62
     8
100
AcDbLine
 10
115.020448
 20
101.770667
 30
0.0
 11
115.201922
 21
101.027472
 31
0.0
  0
LINE
  5
2B5
330
1D
100
AcDbEntity
  8
CutLine
  6
Continuous
 62
     8
100
AcDbLine
 10
115.201922
 20
101.027472
 30
0.0
 11
115.415228
 21
100.279104
 31
0.0
  0
LINE
  5
2B6
330
1D
100
AcDbEntity
  8
CutLine
  6
Continuous
 62
     8
100
AcDbLine
 10
114.870814
 20
102.508688
 30
0.0
 11
115.020448
 21
101.770667
 31
0.0
  0
LINE
  5
2B7
330
1D
100
AcDbEntity
  8
CutLine
  6
Continuous
 62
     8
100
AcDbLine
 10
115.660371
 20
99.525562
 30
0.0
 11
115.937354
 21
98.766846
 31
0.0
  0
LINE
  5
2B8
330
1D
100
AcDbEntity
  8
CutLine
  6
Continuous
 62
     8
100
AcDbLine
 10
115.937354
 20
98.766846
 30
0.0
 11
116.246173
 21
98.002956
 31
0.0
  0
LINE
  5
2B9
330
1D
100
AcDbEntity
  8
CutLine
  6
Continuous
 62
     8
100
AcDbLine
 10
115.415228
 20
100.279104
 30
0.0
 11
115.660371
 21
99.525562
 31
0.0
  0
LINE
  5
2BA
330
1D
100
AcDbEntity
  8
CutLine
  6
Continuous
 62
     8
100
AcDbLine
 10
118.756904
 20
93.139057
 30
0.0
 11
118.767651
 21
93.081751
 31
0.0
  0
LINE
  5
2BB
330
1D
100
AcDbEntity
  8
CutLine
  6
Continuous
 62
     8
100
AcDbLine
 10
118.7569
 20
93.25367
 30
0.0
 11
118.75332
 21
93.196364
 31
0.0
  0
LINE
  5
2BC
330
1D
100
AcDbEntity
  8
CutLine
  6
Continuous
 62
     8
100
AcDbLine
 10
118.75332
 20
93.196364
 30
0.0
 11
118.756904
 21
93.139057
 31
0.0
  0
LINE
  5
2BD
330
1D
100
AcDbEntity
  8
CutLine
  6
Continuous
 62
     8
100
AcDbLine
 10
118.767651
 20
93.081751
 30
0.0
 11
118.785559
 21
93.024444
 31
0.0
  0
LINE
  5
2BE
330
1D
100
AcDbEntity
  8
CutLine
  6
Continuous
 62
     8
100
AcDbLine
 10
118.785559
 20
93.024444
 30
0.0
 11
118.810634
 21
92.967138
 31
0.0
  0
LINE
  5
2BF
330
1D
100
AcDbEntity
  8
CutLine
  6
Continuous
 62
     8
100
AcDbLine
 10
118.810634
 20
92.967138
 30
0.0
 11
118.842868
 21
92.909832
 31
0.0
  0
LINE
  5
2C0
330
1D
100
AcDbEntity
  8
CutLine
  6
Continuous
 62
     8
100
AcDbLine
 10
118.842868
 20
92.909832
 30
0.0
 11
118.882271
 21
92.852526
 31
0.0
  0
LINE
  5
2C1
330
1D
100
AcDbEntity
  8
CutLine
  6
Continuous
 62
     8
100
AcDbLine
 10
118.882271
 20
92.852526
 30
0.0
 11
118.928833
 21
92.79522
 31
0.0
  0
LINE
  5
2C2
330
1D
100
AcDbEntity
  8
CutLine
  6
Continuous
 62
     8
100
AcDbLine
 10
118.928833
 20
92.79522
 30
0.0
 11
118.982559
 21
92.737914
 31
0.0
  0
LINE
  5
2C3
330
1D
100
AcDbEntity
  8
CutLine
  6
Continuous
 62
     8
100
AcDbLine
 10
118.982559
 20
92.737914
 30
0.0
 11
119.043449
 21
92.680607
 31
0.0
  0
LINE
  5
2C4
330
1D
100
AcDbEntity
  8
CutLine
  6
Continuous
 62
     8
100
AcDbLine
 10
119.043449
 20
92.680607
 30
0.0
 11
119.111503
 21
92.623301
 31
0.0
  0
LINE
  5
2C5
330
1D
100
AcDbEntity
  8
CutLine
  6
Continuous
 62
     8
100
AcDbLine
 10
118.76766
 20
93.31098
 30
0.0
 11
118.7569
 21
93.25367
 31
0.0
  0
LINE
  5
2C6
330
1D
100
AcDbEntity
  8
CutLine
  6
Continuous
 62
     8
100
AcDbLine
 10
144.311175
 20
149.606477
 30
0.0
 11
144.170292
 21
149.98852
 31
0.0
  0
LINE
  5
2C7
330
1D
100
AcDbEntity
  8
CutLine
  6
Continuous
 62
     8
100
AcDbLine
 10
143.653346
 20
148.701312
 30
0.0
 11
144.437728
 21
149.211698
 31
0.0
  0
LINE
  5
2C8
330
1D
100
AcDbEntity
  8
CutLine
  6
Continuous
 62
     8
100
AcDbLine
 10
144.437728
 20
149.211698
 30
0.0
 11
144.311175
 21
149.606477
 31
0.0
  0
LINE
  5
2C9
330
1D
100
AcDbEntity
  8
CutLine
  6
Continuous
 62
     8
100
AcDbLine
 10
153.130826
 20
144.331901
 30
0.0
 11
152.664017
 21
143.796443
 31
0.0
  0
LINE
  5
2CA
330
1D
100
AcDbEntity
  8
CutLine
  6
Continuous
 62
     8
100
AcDbLine
 10
152.664017
 20
143.796443
 30
0.0
 11
152.231433
 21
143.194519
 31
0.0
  0
LINE
  5
2CB
330
1D
100
AcDbEntity
  8
CutLine
  6
Continuous
 62
     8
100
AcDbLine
 10
152.231433
 20
143.194519
 30
0.0
 11
152.933041
 21
141.951285
 31
0.0
  0
LINE
  5
2CC
330
1D
100
AcDbEntity
  8
CutLine
  6
Continuous
 62
     8
100
AcDbLine
 10
153.664059
 20
171.905121
 30
0.0
 11
154.526644
 21
170.717801
 31
0.0
  0
LINE
  5
2CD
330
1D
100
AcDbEntity
  8
CutLine
  6
Continuous
 62
     8
100
AcDbLine
 10
158.45812
 20
171.582781
 30
0.0
 11
159.096252
 21
172.124809
 31
0.0
  0
LINE
  5
2CE
330
1D
100
AcDbEntity
  8
CutLine
  6
Continuous
 62
     8
100
AcDbLine
 10
161.903502
 20
149.550787
 30
0.0
 11
161.872461
 21
149.038611
 31
0.0
  0
LINE
  5
2CF
330
1D
100
AcDbEntity
  8
CutLine
  6
Continuous
 62
     8
100
AcDbLine
 10
161.872461
 20
149.038611
 30
0.0
 11
161.801625
 21
148.524043
 31
0.0
  0
LINE
  5
2D0
330
1D
100
AcDbEntity
  8
CutLine
  6
Continuous
 62
     8
100
AcDbLine
 10
154.16712
 20
145.20344
 30
0.0
 11
153.631861
 21
144.8009
 31
0.0
  0
LINE
  5
2D1
330
1D
100
AcDbEntity
  8
CutLine
  6
Continuous
 62
     8
100
AcDbLine
 10
155.340312
 20
145.80914
 30
0.0
 11
154.736603
 21
145.539519
 31
0.0
  0
LINE
  5
2D2
330
1D
100
AcDbEntity
  8
CutLine
  6
Continuous
 62
     8
100
AcDbLine
 10
154.736603
 20
145.539519
 30
0.0
 11
154.16712
 21
145.20344
 31
0.0
  0
LINE
  5
2D3
330
1D
100
AcDbEntity
  8
CutLine
  6
Continuous
 62
     8
100
AcDbLine
 10
153.631861
 20
144.8009
 30
0.0
 11
153.130826
 21
144.331901
 31
0.0
  0
LINE
  5
2D4
330
1D
100
AcDbEntity
  8
CutLine
  6
Continuous
 62
     8
100
AcDbLine
 10
155.978246
 20
146.012298
 30
0.0
 11
155.340312
 21
145.80914
 31
0.0
  0
LINE
  5
2D5
330
1D
100
AcDbEntity
  8
CutLine
  6
Continuous
 62
     8
100
AcDbLine
 10
157.356786
 20
146.21924
 30
0.0
 11
156.650404
 21
146.149
 31
0.0
  0
LINE
  5
2D6
330
1D
100
AcDbEntity
  8
CutLine
  6
Continuous
 62
     8
100
AcDbLine
 10
156.650404
 20
146.149
 30
0.0
 11
155.978246
 21
146.012298
 31
0.0
  0
LINE
  5
2D7
330
1D
100
AcDbEntity
  8
CutLine
  6
Continuous
 62
     8
100
AcDbLine
 10
156.838229
 20
154.191024
 30
0.0
 11
157.623607
 21
154.190229
 31
0.0
  0
LINE
  5
2D8
330
1D
100
AcDbEntity
  8
CutLine
  6
Continuous
 62
     8
100
AcDbLine
 10
155.290155
 20
154.369309
 30
0.0
 11
156.060412
 21
154.250716
 31
0.0
  0
LINE
  5
2D9
330
1D
100
AcDbEntity
  8
CutLine
  6
Continuous
 62
     8
100
AcDbLine
 10
156.060412
 20
154.250716
 30
0.0
 11
156.838229
 21
154.191024
 31
0.0
  0
LINE
  5
2DA
330
1D
100
AcDbEntity
  8
CutLine
  6
Continuous
 62
     8
100
AcDbLine
 10
157.623607
 20
154.190229
 30
0.0
 11
158.416549
 21
154.248332
 31
0.0
  0
LINE
  5
2DB
330
1D
100
AcDbEntity
  8
CutLine
  6
Continuous
 62
     8
100
AcDbLine
 10
154.527459
 20
154.546798
 30
0.0
 11
155.290155
 21
154.369309
 31
0.0
  0
LINE
  5
2DC
330
1D
100
AcDbEntity
  8
CutLine
  6
Continuous
 62
     8
100
AcDbLine
 10
158.416549
 20
154.248332
 30
0.0
 11
159.21705
 21
154.365334
 31
0.0
  0
LINE
  5
2DD
330
1D
100
AcDbEntity
  8
CutLine
  6
Continuous
 62
     8
100
AcDbLine
 10
153.772326
 20
154.783188
 30
0.0
 11
154.527459
 21
154.546798
 31
0.0
  0
LINE
  5
2DE
330
1D
100
AcDbEntity
  8
CutLine
  6
Continuous
 62
     8
100
AcDbLine
 10
159.21705
 20
154.365334
 30
0.0
 11
160.025112
 21
154.541233
 31
0.0
  0
LINE
  5
2DF
330
1D
100
AcDbEntity
  8
CutLine
  6
Continuous
 62
     8
100
AcDbLine
 10
153.024753
 20
155.078474
 30
0.0
 11
153.772326
 21
154.783188
 31
0.0
  0
LINE
  5
2E0
330
1D
100
AcDbEntity
  8
CutLine
  6
Continuous
 62
     8
100
AcDbLine
 10
163.039889
 20
144.63098
 30
0.0
 11
163.20564
 21
145.314877
 31
0.0
  0
LINE
  5
2E1
330
1D
100
AcDbEntity
  8
CutLine
  6
Continuous
 62
     8
100
AcDbLine
 10
162.57348
 20
143.314519
 30
0.0
 11
162.829169
 21
143.964193
 31
0.0
  0
LINE
  5
2E2
330
1D
100
AcDbEntity
  8
CutLine
  6
Continuous
 62
     8
100
AcDbLine
 10
162.829169
 20
143.964193
 30
0.0
 11
163.039889
 21
144.63098
 31
0.0
  0
LINE
  5
2E3
330
1D
100
AcDbEntity
  8
CutLine
  6
Continuous
 62
     8
100
AcDbLine
 10
153.532743
 20
161.052688
 30
0.0
 11
152.449291
 21
160.092204
 31
0.0
  0
LINE
  5
2E4
330
1D
100
AcDbEntity
  8
CutLine
  6
Continuous
 62
     8
100
AcDbLine
 10
151.552289
 20
155.845742
 30
0.0
 11
152.284743
 21
155.43266
 31
0.0
  0
LINE
  5
2E5
330
1D
100
AcDbEntity
  8
CutLine
  6
Continuous
 62
     8
100
AcDbLine
 10
152.449291
 20
160.092204
 30
0.0
 11
151.171237
 21
159.154402
 31
0.0
  0
LINE
  5
2E6
330
1D
100
AcDbEntity
  8
CutLine
  6
Continuous
 62
     8
100
AcDbLine
 10
160.453311
 20
161.114776
 30
0.0
 11
159.890989
 21
161.382806
 31
0.0
  0
LINE
  5
2E7
330
1D
100
AcDbEntity
  8
CutLine
  6
Continuous
 62
     8
100
AcDbLine
 10
161.518259
 20
160.482017
 30
0.0
 11
160.995734
 21
160.814514
 31
0.0
  0
LINE
  5
2E8
330
1D
100
AcDbEntity
  8
CutLine
  6
Continuous
 62
     8
100
AcDbLine
 10
160.995734
 20
160.814514
 30
0.0
 11
160.453311
 21
161.114776
 31
0.0
  0
LINE
  5
2E9
330
1D
100
AcDbEntity
  8
CutLine
  6
Continuous
 62
     8
100
AcDbLine
 10
159.890989
 20
161.382806
 30
0.0
 11
159.30877
 21
161.618597
 31
0.0
  0
LINE
  5
2EA
330
1D
100
AcDbEntity
  8
CutLine
  6
Continuous
 62
     8
100
AcDbLine
 10
162.020886
 20
160.117285
 30
0.0
 11
161.518259
 21
160.482017
 31
0.0
  0
LINE
  5
2EB
330
1D
100
AcDbEntity
  8
CutLine
  6
Continuous
 62
     8
100
AcDbLine
 10
159.681284
 20
146.031204
 30
0.0
 11
158.872226
 21
146.160342
 31
0.0
  0
LINE
  5
2EC
330
1D
100
AcDbEntity
  8
CutLine
  6
Continuous
 62
     8
100
AcDbLine
 10
144.39154
 20
168.251813
 30
0.0
 11
145.743019
 21
169.460025
 31
0.0
  0
LINE
  5
2ED
330
1D
100
AcDbEntity
  8
CutLine
  6
Continuous
 62
     8
100
AcDbLine
 10
145.743019
 20
169.460025
 30
0.0
 11
147.346011
 21
170.429465
 31
0.0
  0
LINE
  5
2EE
330
1D
100
AcDbEntity
  8
CutLine
  6
Continuous
 62
     8
100
AcDbLine
 10
126.833304
 20
179.999966
 30
0.0
 11
126.833297
 21
119.999967
 31
0.0
  0
LINE
  5
2EF
330
1D
100
AcDbEntity
  8
CutLine
  6
Continuous
 62
     8
100
AcDbLine
 10
142.443122
 20
165.119048
 30
0.0
 11
143.291575
 21
166.804817
 31
0.0
  0
LINE
  5
2F0
330
1D
100
AcDbEntity
  8
CutLine
  6
Continuous
 62
     8
100
AcDbLine
 10
140.702063
 20
144.661193
 30
0.0
 11
140.985014
 21
145.450951
 31
0.0
  0
LINE
  5
2F1
330
1D
100
AcDbEntity
  8
CutLine
  6
Continuous
 62
     8
100
AcDbLine
 10
140.985014
 20
145.450951
 30
0.0
 11
141.351534
 21
146.194146
 31
0.0
  0
LINE
  5
2F2
330
1D
100
AcDbEntity
  8
CutLine
  6
Continuous
 62
     8
100
AcDbLine
 10
167.429215
 20
145.755426
 30
0.0
 11
167.750371
 21
145.816314
 31
0.0
  0
LINE
  5
2F3
330
1D
100
AcDbEntity
  8
CutLine
  6
Continuous
 62
     8
100
AcDbLine
 10
166.556483
 20
145.700904
 30
0.0
 11
166.834658
 21
145.697919
 31
0.0
  0
LINE
  5
2F4
330
1D
100
AcDbEntity
  8
CutLine
  6
Continuous
 62
     8
100
AcDbLine
 10
161.629702
 20
151.575619
 30
0.0
 11
161.757846
 21
151.072992
 31
0.0
  0
LINE
  5
2F5
330
1D
100
AcDbEntity
  8
CutLine
  6
Continuous
 62
     8
100
AcDbLine
 10
161.757846
 20
151.072992
 30
0.0
 11
161.846195
 21
150.567979
 31
0.0
  0
LINE
  5
2F6
330
1D
100
AcDbEntity
  8
CutLine
  6
Continuous
 62
     8
100
AcDbLine
 10
155.668003
 20
168.411214
 30
0.0
 11
155.946776
 21
167.291947
 31
0.0
  0
LINE
  5
2F7
330
1D
100
AcDbEntity
  8
CutLine
  6
Continuous
 62
     8
100
AcDbLine
 10
157.779997
 20
164.323942
 30
0.0
 11
157.434364
 21
165.515442
 31
0.0
  0
LINE
  5
2F8
330
1D
100
AcDbEntity
  8
CutLine
  6
Continuous
 62
     8
100
AcDbLine
 10
155.615476
 20
164.070238
 30
0.0
 11
155.115835
 21
163.041704
 31
0.0
  0
LINE
  5
2F9
330
1D
100
AcDbEntity
  8
CutLine
  6
Continuous
 62
     8
100
AcDbLine
 10
155.920514
 20
165.121463
 30
0.0
 11
155.615476
 21
164.070238
 31
0.0
  0
LINE
  5
2FA
330
1D
100
AcDbEntity
  8
CutLine
  6
Continuous
 62
     8
100
AcDbLine
 10
155.115835
 20
163.041704
 30
0.0
 11
154.421592
 21
162.035855
 31
0.0
  0
LINE
  5
2FB
330
1D
100
AcDbEntity
  8
CutLine
  6
Continuous
 62
     8
100
AcDbLine
 10
170.655497
 20
146.031218
 30
0.0
 11
171.602648
 21
145.268127
 31
0.0
  0
LINE
  5
2FC
330
1D
100
AcDbEntity
  8
CutLine
  6
Continuous
 62
     8
100
AcDbLine
 10
147.2012
 20
132.436792
 30
0.0
 11
145.911802
 21
132.91733
 31
0.0
  0
LINE
  5
2FD
330
1D
100
AcDbEntity
  8
CutLine
  6
Continuous
 62
     8
100
AcDbLine
 10
165.340311
 20
145.637228
 30
0.0
 11
165.659875
 21
145.664489
 31
0.0
  0
LINE
  5
2FE
330
1D
100
AcDbEntity
  8
CutLine
  6
Continuous
 62
     8
100
AcDbLine
 10
165.659875
 20
145.664489
 30
0.0
 11
165.969091
 21
145.684189
 31
0.0
  0
LINE
  5
2FF
330
1D
100
AcDbEntity
  8
CutLine
  6
Continuous
 62
     8
100
AcDbLine
 10
186.833279
 20
119.999969
 30
0.0
 11
186.833261
 21
179.999968
 31
0.0
  0
LINE
  5
300
330
1D
100
AcDbEntity
  8
CutLine
  6
Continuous
 62
     8
100
AcDbLine
 10
172.653242
 20
164.765497
 30
0.0
 11
173.145126
 21
163.248671
 31
0.0
  0
LINE
  5
301
330
1D
100
AcDbEntity
  8
CutLine
  6
Continuous
 62
     8
100
AcDbLine
 10
159.30877
 20
161.618597
 30
0.0
 11
158.248595
 21
163.051256
 31
0.0
  0
LINE
  5
302
330
1D
100
AcDbEntity
  8
CutLine
  6
Continuous
 62
     8
100
AcDbLine
 10
172.088147
 20
156.317752
 30
0.0
 11
171.443447
 21
156.468978
 31
0.0
  0
LINE
  5
303
330
1D
100
AcDbEntity
  8
CutLine
  6
Continuous
 62
     8
100
AcDbLine
 10
172.409716
 20
144.487923
 30
0.0
 11
173.076703
 21
143.690606
 31
0.0
  0
LINE
  5
304
330
1D
100
AcDbEntity
  8
CutLine
  6
Continuous
 62
     8
100
AcDbLine
 10
173.221537
 20
159.955927
 30
0.0
 11
172.806067
 21
158.180019
 31
0.0
  0
LINE
  5
305
330
1D
100
AcDbEntity
  8
CutLine
  6
Continuous
 62
     8
100
AcDbLine
 10
174.237164
 20
141.195979
 30
0.0
 11
174.343819
 21
140.330212
 31
0.0
  0
LINE
  5
306
330
1D
100
AcDbEntity
  8
CutLine
  6
Continuous
 62
     8
100
AcDbLine
 10
173.990427
 20
142.044633
 30
0.0
 11
174.237164
 21
141.195979
 31
0.0
  0
LINE
  5
307
330
1D
100
AcDbEntity
  8
CutLine
  6
Continuous
 62
     8
100
AcDbLine
 10
174.136881
 20
138.54734
 30
0.0
 11
173.823288
 21
137.630235
 31
0.0
  0
LINE
  5
308
330
1D
100
AcDbEntity
  8
CutLine
  6
Continuous
 62
     8
100
AcDbLine
 10
174.310392
 20
139.447333
 30
0.0
 11
174.136881
 21
138.54734
 31
0.0
  0
LINE
  5
309
330
1D
100
AcDbEntity
  8
CutLine
  6
Continuous
 62
     8
100
AcDbLine
 10
173.369611
 20
136.696018
 30
0.0
 11
172.775854
 21
135.744688
 31
0.0
  0
LINE
  5
30A
330
1D
100
AcDbEntity
  8
CutLine
  6
Continuous
 62
     8
100
AcDbLine
 10
172.775854
 20
135.744688
 30
0.0
 11
172.221095
 21
134.744211
 31
0.0
  0
LINE
  5
30B
330
1D
100
AcDbEntity
  8
CutLine
  6
Continuous
 62
     8
100
AcDbLine
 10
160.863253
 20
129.868361
 30
0.0
 11
160.048425
 21
130.130417
 31
0.0
  0
LINE
  5
30C
330
1D
100
AcDbEntity
  8
CutLine
  6
Continuous
 62
     8
100
AcDbLine
 10
161.801052
 20
129.734049
 30
0.0
 11
160.863253
 21
129.868361
 31
0.0
  0
LINE
  5
30D
330
1D
100
AcDbEntity
  8
CutLine
  6
Continuous
 62
     8
100
AcDbLine
 10
151.852588
 20
131.795084
 30
0.0
 11
150.171594
 21
131.875668
 31
0.0
  0
LINE
  5
30E
330
1D
100
AcDbEntity
  8
CutLine
  6
Continuous
 62
     8
100
AcDbLine
 10
153.664113
 20
131.847816
 30
0.0
 11
151.852588
 21
131.795084
 31
0.0
  0
LINE
  5
30F
330
1D
100
AcDbEntity
  8
CutLine
  6
Continuous
 62
     8
100
AcDbLine
 10
160.048425
 20
130.130417
 30
0.0
 11
159.356567
 21
130.520222
 31
0.0
  0
LINE
  5
310
330
1D
100
AcDbEntity
  8
CutLine
  6
Continuous
 62
     8
100
AcDbLine
 10
158.787678
 20
131.037771
 30
0.0
 11
158.341761
 21
131.683065
 31
0.0
  0
LINE
  5
311
330
1D
100
AcDbEntity
  8
CutLine
  6
Continuous
 62
     8
100
AcDbLine
 10
158.341761
 20
131.683065
 30
0.0
 11
158.018811
 21
132.456108
 31
0.0
  0
LINE
  5
312
330
1D
100
AcDbEntity
  8
CutLine
  6
Continuous
 62
     8
100
AcDbLine
 10
159.356567
 20
130.520222
 30
0.0
 11
158.787678
 21
131.037771
 31
0.0
  0
LINE
  5
313
330
1D
100
AcDbEntity
  8
CutLine
  6
Continuous
 62
     8
100
AcDbLine
 10
158.018811
 20
132.456108
 30
0.0
 11
157.818836
 21
133.356894
 31
0.0
  0
LINE
  5
314
330
1D
100
AcDbEntity
  8
CutLine
  6
Continuous
 62
     8
100
AcDbLine
 10
157.818836
 20
133.356894
 30
0.0
 11
157.741827
 21
134.385428
 31
0.0
  0
LINE
  5
315
330
1D
100
AcDbEntity
  8
CutLine
  6
Continuous
 62
     8
100
AcDbLine
 10
157.741827
 20
134.385428
 30
0.0
 11
157.787789
 21
135.541708
 31
0.0
  0
LINE
  5
316
330
1D
100
AcDbEntity
  8
CutLine
  6
Continuous
 62
     8
100
AcDbLine
 10
150.171594
 20
131.875668
 30
0.0
 11
148.621131
 21
132.089572
 31
0.0
  0
LINE
  5
317
330
1D
100
AcDbEntity
  8
CutLine
  6
Continuous
 62
     8
100
AcDbLine
 10
148.621131
 20
132.089572
 30
0.0
 11
147.2012
 21
132.436792
 31
0.0
  0
LINE
  5
318
330
1D
100
AcDbEntity
  8
CutLine
  6
Continuous
 62
     8
100
AcDbLine
 10
162.861821
 20
129.727484
 30
0.0
 11
161.801052
 21
129.734049
 31
0.0
  0
LINE
  5
319
330
1D
100
AcDbEntity
  8
CutLine
  6
Continuous
 62
     8
100
AcDbLine
 10
163.959401
 20
129.729873
 30
0.0
 11
162.861821
 21
129.727484
 31
0.0
  0
LINE
  5
31A
330
1D
100
AcDbEntity
  8
CutLine
  6
Continuous
 62
     8
100
AcDbLine
 10
165.007633
 20
129.822998
 30
0.0
 11
163.959401
 21
129.729873
 31
0.0
  0
LINE
  5
31B
330
1D
100
AcDbEntity
  8
CutLine
  6
Continuous
 62
     8
100
AcDbLine
 10
166.006519
 20
130.006858
 30
0.0
 11
165.007633
 21
129.822998
 31
0.0
  0
LINE
  5
31C
330
1D
100
AcDbEntity
  8
CutLine
  6
Continuous
 62
     8
100
AcDbLine
 10
166.956058
 20
130.281453
 30
0.0
 11
166.006519
 21
130.006858
 31
0.0
  0
LINE
  5
31D
330
1D
100
AcDbEntity
  8
CutLine
  6
Continuous
 62
     8
100
AcDbLine
 10
167.856249
 20
130.646785
 30
0.0
 11
166.956058
 21
130.281453
 31
0.0
  0
LINE
  5
31E
330
1D
100
AcDbEntity
  8
CutLine
  6
Continuous
 62
     8
100
AcDbLine
 10
168.707091
 20
131.10285
 30
0.0
 11
167.856249
 21
130.646785
 31
0.0
  0
LINE
  5
31F
330
1D
100
AcDbEntity
  8
CutLine
  6
Continuous
 62
     8
100
AcDbLine
 10
169.508587
 20
131.649652
 30
0.0
 11
168.707091
 21
131.10285
 31
0.0
  0
LINE
  5
320
330
1D
100
AcDbEntity
  8
CutLine
  6
Continuous
 62
     8
100
AcDbLine
 10
170.260736
 20
132.287189
 30
0.0
 11
169.508587
 21
131.649652
 31
0.0
  0
LINE
  5
321
330
1D
100
AcDbEntity
  8
CutLine
  6
Continuous
 62
     8
100
AcDbLine
 10
170.963536
 20
133.015461
 30
0.0
 11
170.260736
 21
132.287189
 31
0.0
  0
LINE
  5
322
330
1D
100
AcDbEntity
  8
CutLine
  6
Continuous
 62
     8
100
AcDbLine
 10
171.616989
 20
133.834468
 30
0.0
 11
170.963536
 21
133.015461
 31
0.0
  0
LINE
  5
323
330
1D
100
AcDbEntity
  8
CutLine
  6
Continuous
 62
     8
100
AcDbLine
 10
172.221095
 20
134.744211
 30
0.0
 11
171.616989
 21
133.834468
 31
0.0
  0
LINE
  5
324
330
1D
100
AcDbEntity
  8
CutLine
  6
Continuous
 62
     8
100
AcDbLine
 10
173.823288
 20
137.630235
 30
0.0
 11
173.369611
 21
136.696018
 31
0.0
  0
LINE
  5
325
330
1D
100
AcDbEntity
  8
CutLine
  6
Continuous
 62
     8
100
AcDbLine
 10
174.343819
 20
140.330212
 30
0.0
 11
174.310392
 21
139.447333
 31
0.0
  0
LINE
  5
326
330
1D
100
AcDbEntity
  8
CutLine
  6
Continuous
 62
     8
100
AcDbLine
 10
173.145126
 20
163.248671
 30
0.0
 11
173.334557
 21
161.645477
 31
0.0
  0
LINE
  5
327
330
1D
100
AcDbEntity
  8
CutLine
  6
Continuous
 62
     8
100
AcDbLine
 10
154.126939
 20
132.495698
 30
0.0
 11
153.664113
 21
131.847816
 31
0.0
  0
LINE
  5
328
330
1D
100
AcDbEntity
  8
CutLine
  6
Continuous
 62
     8
100
AcDbLine
 10
157.787789
 20
135.541708
 30
0.0
 11
157.956724
 21
136.825734
 31
0.0
  0
LINE
  5
329
330
1D
100
AcDbEntity
  8
CutLine
  6
Continuous
 62
     8
100
AcDbLine
 10
154.483911
 20
133.197705
 30
0.0
 11
154.126939
 21
132.495698
 31
0.0
  0
LINE
  5
32A
330
1D
100
AcDbEntity
  8
CutLine
  6
Continuous
 62
     8
100
AcDbLine
 10
173.603606
 20
142.876177
 30
0.0
 11
173.990427
 21
142.044633
 31
0.0
  0
LINE
  5
32B
330
1D
100
AcDbEntity
  8
CutLine
  6
Continuous
 62
     8
100
AcDbLine
 10
157.956724
 20
136.825734
 30
0.0
 11
158.248628
 21
138.237508
 31
0.0
  0
LINE
  5
32C
330
1D
100
AcDbEntity
  8
CutLine
  6
Continuous
 62
     8
100
AcDbLine
 10
173.076703
 20
143.690606
 30
0.0
 11
173.603606
 21
142.876177
 31
0.0
  0
LINE
  5
32D
330
1D
100
AcDbEntity
  8
CutLine
  6
Continuous
 62
     8
100
AcDbLine
 10
154.735024
 20
133.953834
 30
0.0
 11
154.483911
 21
133.197705
 31
0.0
  0
LINE
  5
32E
330
1D
100
AcDbEntity
  8
CutLine
  6
Continuous
 62
     8
100
AcDbLine
 10
163.20564
 20
145.314877
 30
0.0
 11
163.587286
 21
145.387505
 31
0.0
  0
LINE
  5
32F
330
1D
100
AcDbEntity
  8
CutLine
  6
Continuous
 62
     8
100
AcDbLine
 10
173.334557
 20
161.645477
 30
0.0
 11
173.221537
 21
159.955927
 31
0.0
  0
LINE
  5
330
330
1D
100
AcDbEntity
  8
CutLine
  6
Continuous
 62
     8
100
AcDbLine
 10
163.587286
 20
145.387505
 30
0.0
 11
163.958585
 21
145.452572
 31
0.0
  0
LINE
  5
331
330
1D
100
AcDbEntity
  8
CutLine
  6
Continuous
 62
     8
100
AcDbLine
 10
163.958585
 20
145.452572
 30
0.0
 11
164.319537
 21
145.510077
 31
0.0
  0
LINE
  5
332
330
1D
100
AcDbEntity
  8
CutLine
  6
Continuous
 62
     8
100
AcDbLine
 10
164.319537
 20
145.510077
 30
0.0
 11
164.670143
 21
145.560022
 31
0.0
  0
LINE
  5
333
330
1D
100
AcDbEntity
  8
CutLine
  6
Continuous
 62
     8
100
AcDbLine
 10
172.806067
 20
158.180019
 30
0.0
 11
172.088147
 21
156.317752
 31
0.0
  0
LINE
  5
334
330
1D
100
AcDbEntity
  8
CutLine
  6
Continuous
 62
     8
100
AcDbLine
 10
164.670143
 20
145.560022
 30
0.0
 11
165.0104
 21
145.602406
 31
0.0
  0
LINE
  5
335
330
1D
100
AcDbEntity
  8
CutLine
  6
Continuous
 62
     8
100
AcDbLine
 10
165.0104
 20
145.602406
 30
0.0
 11
165.340311
 21
145.637228
 31
0.0
  0
LINE
  5
336
330
1D
100
AcDbEntity
  8
CutLine
  6
Continuous
 62
     8
100
AcDbLine
 10
171.602648
 20
145.268127
 30
0.0
 11
172.409716
 21
144.487923
 31
0.0
  0
LINE
  5
337
330
1D
100
AcDbEntity
  8
CutLine
  6
Continuous
 62
     8
100
AcDbLine
 10
145.911802
 20
132.91733
 30
0.0
 11
144.752935
 21
133.531185
 31
0.0
  0
LINE
  5
338
330
1D
100
AcDbEntity
  8
CutLine
  6
Continuous
 62
     8
100
AcDbLine
 10
144.752935
 20
133.531185
 30
0.0
 11
143.724599
 21
134.278359
 31
0.0
  0
LINE
  5
339
330
1D
100
AcDbEntity
  8
CutLine
  6
Continuous
 62
     8
100
AcDbLine
 10
143.724599
 20
134.278359
 30
0.0
 11
142.826794
 21
135.15885
 31
0.0
  0
LINE
  5
33A
330
1D
100
AcDbEntity
  8
CutLine
  6
Continuous
 62
     8
100
AcDbLine
 10
154.421592
 20
162.035855
 30
0.0
 11
153.532743
 21
161.052688
 31
0.0
  0
LINE
  5
33B
330
1D
100
AcDbEntity
  8
CutLine
  6
Continuous
 62
     8
100
AcDbLine
 10
142.826794
 20
135.15885
 30
0.0
 11
142.059519
 21
136.172658
 31
0.0
  0
LINE
  5
33C
330
1D
100
AcDbEntity
  8
CutLine
  6
Continuous
 62
     8
100
AcDbLine
 10
171.858907
 20
166.195975
 30
0.0
 11
172.653242
 21
164.765497
 31
0.0
  0
LINE
  5
33D
330
1D
100
AcDbEntity
  8
CutLine
  6
Continuous
 62
     8
100
AcDbLine
 10
160.025112
 20
154.541233
 30
0.0
 11
160.392035
 21
154.052933
 31
0.0
  0
LINE
  5
33E
330
1D
100
AcDbEntity
  8
CutLine
  6
Continuous
 62
     8
100
AcDbLine
 10
142.059519
 20
136.172658
 30
0.0
 11
141.422777
 21
137.319784
 31
0.0
  0
LINE
  5
33F
330
1D
100
AcDbEntity
  8
CutLine
  6
Continuous
 62
     8
100
AcDbLine
 10
156.030947
 20
166.195363
 30
0.0
 11
155.920514
 21
165.121463
 31
0.0
  0
LINE
  5
340
330
1D
100
AcDbEntity
  8
CutLine
  6
Continuous
 62
     8
100
AcDbLine
 10
141.422777
 20
137.319784
 30
0.0
 11
140.916566
 21
138.600227
 31
0.0
  0
LINE
  5
341
330
1D
100
AcDbEntity
  8
CutLine
  6
Continuous
 62
     8
100
AcDbLine
 10
160.392035
 20
154.052933
 30
0.0
 11
160.719161
 21
153.562246
 31
0.0
  0
LINE
  5
342
330
1D
100
AcDbEntity
  8
CutLine
  6
Continuous
 62
     8
100
AcDbLine
 10
155.946776
 20
167.291947
 30
0.0
 11
156.030947
 21
166.195363
 31
0.0
  0
LINE
  5
343
330
1D
100
AcDbEntity
  8
CutLine
  6
Continuous
 62
     8
100
AcDbLine
 10
140.916566
 20
138.600227
 30
0.0
 11
140.540893
 21
140.013987
 31
0.0
  0
LINE
  5
344
330
1D
100
AcDbEntity
  8
CutLine
  6
Continuous
 62
     8
100
AcDbLine
 10
160.719161
 20
153.562246
 30
0.0
 11
161.00649
 21
153.069171
 31
0.0
  0
LINE
  5
345
330
1D
100
AcDbEntity
  8
CutLine
  6
Continuous
 62
     8
100
AcDbLine
 10
154.880278
 20
134.764085
 30
0.0
 11
154.735024
 21
133.953834
 31
0.0
  0
LINE
  5
346
330
1D
100
AcDbEntity
  8
CutLine
  6
Continuous
 62
     8
100
AcDbLine
 10
140.540893
 20
140.013987
 30
0.0
 11
140.405981
 21
141.036551
 31
0.0
  0
LINE
  5
347
330
1D
100
AcDbEntity
  8
CutLine
  6
Continuous
 62
     8
100
AcDbLine
 10
154.919675
 20
135.62846
 30
0.0
 11
154.880278
 21
134.764085
 31
0.0
  0
LINE
  5
348
330
1D
100
AcDbEntity
  8
CutLine
  6
Continuous
 62
     8
100
AcDbLine
 10
161.00649
 20
153.069171
 30
0.0
 11
161.254024
 21
152.573708
 31
0.0
  0
LINE
  5
349
330
1D
100
AcDbEntity
  8
CutLine
  6
Continuous
 62
     8
100
AcDbLine
 10
154.853216
 20
136.546957
 30
0.0
 11
154.919675
 21
135.62846
 31
0.0
  0
LINE
  5
34A
330
1D
100
AcDbEntity
  8
CutLine
  6
Continuous
 62
     8
100
AcDbLine
 10
170.762121
 20
167.540093
 30
0.0
 11
171.858907
 21
166.195975
 31
0.0
  0
LINE
  5
34B
330
1D
100
AcDbEntity
  8
CutLine
  6
Continuous
 62
     8
100
AcDbLine
 10
161.254024
 20
152.573708
 30
0.0
 11
161.461761
 21
152.075858
 31
0.0
  0
LINE
  5
34C
330
1D
100
AcDbEntity
  8
CutLine
  6
Continuous
 62
     8
100
AcDbLine
 10
169.362883
 20
168.797848
 30
0.0
 11
170.762121
 21
167.540093
 31
0.0
  0
LINE
  5
34D
330
1D
100
AcDbEntity
  8
CutLine
  6
Continuous
 62
     8
100
AcDbLine
 10
158.248595
 20
163.051256
 30
0.0
 11
157.779997
 21
164.323942
 31
0.0
  0
LINE
  5
34E
330
1D
100
AcDbEntity
  8
CutLine
  6
Continuous
 62
     8
100
AcDbLine
 10
167.661195
 20
169.969251
 30
0.0
 11
169.362883
 21
168.797848
 31
0.0
  0
LINE
  5
34F
330
1D
100
AcDbEntity
  8
CutLine
  6
Continuous
 62
     8
100
AcDbLine
 10
140.405981
 20
141.036551
 30
0.0
 11
140.354643
 21
142.012555
 31
0.0
  0
LINE
  5
350
330
1D
100
AcDbEntity
  8
CutLine
  6
Continuous
 62
     8
100
AcDbLine
 10
165.657055
 20
171.054293
 30
0.0
 11
167.661195
 21
169.969251
 31
0.0
  0
LINE
  5
351
330
1D
100
AcDbEntity
  8
CutLine
  6
Continuous
 62
     8
100
AcDbLine
 10
154.680895
 20
137.519577
 30
0.0
 11
154.853216
 21
136.546957
 31
0.0
  0
LINE
  5
352
330
1D
100
AcDbEntity
  8
CutLine
  6
Continuous
 62
     8
100
AcDbLine
 10
140.354643
 20
142.012555
 30
0.0
 11
140.386882
 21
142.941996
 31
0.0
  0
LINE
  5
353
330
1D
100
AcDbEntity
  8
CutLine
  6
Continuous
 62
     8
100
AcDbLine
 10
154.402718
 20
138.546319
 30
0.0
 11
154.680895
 21
137.519577
 31
0.0
  0
LINE
  5
354
330
1D
100
AcDbEntity
  8
CutLine
  6
Continuous
 62
     8
100
AcDbLine
 10
161.461761
 20
152.075858
 30
0.0
 11
161.629702
 21
151.575619
 31
0.0
  0
LINE
  5
355
330
1D
100
AcDbEntity
  8
CutLine
  6
Continuous
 62
     8
100
AcDbLine
 10
154.018684
 20
139.627185
 30
0.0
 11
154.402718
 21
138.546319
 31
0.0
  0
LINE
  5
356
330
1D
100
AcDbEntity
  8
CutLine
  6
Continuous
 62
     8
100
AcDbLine
 10
167.750371
 20
145.816314
 30
0.0
 11
168.065955
 21
145.870041
 31
0.0
  0
LINE
  5
357
330
1D
100
AcDbEntity
  8
CutLine
  6
Continuous
 62
     8
100
AcDbLine
 10
165.969091
 20
145.684189
 30
0.0
 11
166.267961
 21
145.696328
 31
0.0
  0
LINE
  5
358
330
1D
100
AcDbEntity
  8
CutLine
  6
Continuous
 62
     8
100
AcDbLine
 10
166.267961
 20
145.696328
 30
0.0
 11
166.556483
 21
145.700904
 31
0.0
  0
LINE
  5
359
330
1D
100
AcDbEntity
  8
CutLine
  6
Continuous
 62
     8
100
AcDbLine
 10
161.846195
 20
150.567979
 30
0.0
 11
161.894747
 21
150.060577
 31
0.0
  0
LINE
  5
35A
330
1D
100
AcDbEntity
  8
CutLine
  6
Continuous
 62
     8
100
AcDbLine
 10
140.386882
 20
142.941996
 30
0.0
 11
140.502682
 21
143.824875
 31
0.0
  0
LINE
  5
35B
330
1D
100
AcDbEntity
  8
CutLine
  6
Continuous
 62
     8
100
AcDbLine
 10
170.390055
 20
146.041962
 30
0.0
 11
170.655497
 21
146.031218
 31
0.0
  0
LINE
  5
35C
330
1D
100
AcDbEntity
  8
CutLine
  6
Continuous
 62
     8
100
AcDbLine
 10
157.434364
 20
165.515442
 30
0.0
 11
157.211703
 21
166.625757
 31
0.0
  0
LINE
  5
35D
330
1D
100
AcDbEntity
  8
CutLine
  6
Continuous
 62
     8
100
AcDbLine
 10
161.894747
 20
150.060577
 30
0.0
 11
161.903502
 21
149.550787
 31
0.0
  0
LINE
  5
35E
330
1D
100
AcDbEntity
  8
CutLine
  6
Continuous
 62
     8
100
AcDbLine
 10
170.119042
 20
146.045543
 30
0.0
 11
170.390055
 21
146.041962
 31
0.0
  0
LINE
  5
35F
330
1D
100
AcDbEntity
  8
CutLine
  6
Continuous
 62
     8
100
AcDbLine
 10
157.211703
 20
166.625757
 30
0.0
 11
157.112013
 21
167.654891
 31
0.0
  0
LINE
  5
360
330
1D
100
AcDbEntity
  8
CutLine
  6
Continuous
 62
     8
100
AcDbLine
 10
141.56443
 20
155.988199
 30
0.0
 11
141.406832
 21
158.629077
 31
0.0
  0
LINE
  5
361
330
1D
100
AcDbEntity
  8
CutLine
  6
Continuous
 62
     8
100
AcDbLine
 10
141.973538
 20
153.108544
 30
0.0
 11
141.56443
 21
155.988199
 31
0.0
  0
LINE
  5
362
330
1D
100
AcDbEntity
  8
CutLine
  6
Continuous
 62
     8
100
AcDbLine
 10
140.502682
 20
143.824875
 30
0.0
 11
140.702063
 21
144.661193
 31
0.0
  0
LINE
  5
363
330
1D
100
AcDbEntity
  8
CutLine
  6
Continuous
 62
     8
100
AcDbLine
 10
157.112013
 20
167.654891
 30
0.0
 11
157.135294
 21
168.602836
 31
0.0
  0
LINE
  5
364
330
1D
100
AcDbEntity
  8
CutLine
  6
Continuous
 62
     8
100
AcDbLine
 10
141.406832
 20
158.629077
 30
0.0
 11
141.50075
 21
161.031178
 31
0.0
  0
LINE
  5
365
330
1D
100
AcDbEntity
  8
CutLine
  6
Continuous
 62
     8
100
AcDbLine
 10
157.135294
 20
168.602836
 30
0.0
 11
157.281545
 21
169.469597
 31
0.0
  0
LINE
  5
366
330
1D
100
AcDbEntity
  8
CutLine
  6
Continuous
 62
     8
100
AcDbLine
 10
141.50075
 20
161.031178
 30
0.0
 11
141.846181
 21
163.194504
 31
0.0
  0
LINE
  5
367
330
1D
100
AcDbEntity
  8
CutLine
  6
Continuous
 62
     8
100
AcDbLine
 10
141.351534
 20
146.194146
 30
0.0
 11
141.801631
 21
146.890781
 31
0.0
  0
LINE
  5
368
330
1D
100
AcDbEntity
  8
CutLine
  6
Continuous
 62
     8
100
AcDbLine
 10
155.194624
 20
169.553165
 30
0.0
 11
155.668003
 21
168.411214
 31
0.0
  0
LINE
  5
369
330
1D
100
AcDbEntity
  8
CutLine
  6
Continuous
 62
     8
100
AcDbLine
 10
141.846181
 20
163.194504
 30
0.0
 11
142.443122
 21
165.119048
 31
0.0
  0
LINE
  5
36A
330
1D
100
AcDbEntity
  8
CutLine
  6
Continuous
 62
     8
100
AcDbLine
 10
141.801631
 20
146.890781
 30
0.0
 11
142.335298
 21
147.540852
 31
0.0
  0
LINE
  5
36B
330
1D
100
AcDbEntity
  8
CutLine
  6
Continuous
 62
     8
100
AcDbLine
 10
157.281545
 20
169.469597
 30
0.0
 11
157.550764
 21
170.255177
 31
0.0
  0
LINE
  5
36C
330
1D
100
AcDbEntity
  8
CutLine
  6
Continuous
 62
     8
100
AcDbLine
 10
157.550764
 20
170.255177
 30
0.0
 11
157.942957
 21
170.95957
 31
0.0
  0
LINE
  5
36D
330
1D
100
AcDbEntity
  8
CutLine
  6
Continuous
 62
     8
100
AcDbLine
 10
143.291575
 20
166.804817
 30
0.0
 11
144.39154
 21
168.251813
 31
0.0
  0
LINE
  5
36E
330
1D
100
AcDbEntity
  8
CutLine
  6
Continuous
 62
     8
100
AcDbLine
 10
142.335298
 20
147.540852
 30
0.0
 11
142.952537
 21
148.144362
 31
0.0
  0
LINE
  5
36F
330
1D
100
AcDbEntity
  8
CutLine
  6
Continuous
 62
     8
100
AcDbLine
 10
142.952537
 20
148.144362
 30
0.0
 11
143.653346
 21
148.701312
 31
0.0
  0
LINE
  5
370
330
1D
100
AcDbEntity
  8
CutLine
  6
Continuous
 62
     8
100
AcDbLine
 10
168.065955
 20
145.870041
 30
0.0
 11
168.375967
 21
145.916602
 31
0.0
  0
LINE
  5
371
330
1D
100
AcDbEntity
  8
CutLine
  6
Continuous
 62
     8
100
AcDbLine
 10
168.375967
 20
145.916602
 30
0.0
 11
168.680409
 21
145.956
 31
0.0
  0
LINE
  5
372
330
1D
100
AcDbEntity
  8
CutLine
  6
Continuous
 62
     8
100
AcDbLine
 10
147.346011
 20
170.429465
 30
0.0
 11
149.200515
 21
171.160125
 31
0.0
  0
LINE
  5
373
330
1D
100
AcDbEntity
  8
CutLine
  6
Continuous
 62
     8
100
AcDbLine
 10
168.680409
 20
145.956
 30
0.0
 11
168.979278
 21
145.988235
 31
0.0
  0
LINE
  5
374
330
1D
100
AcDbEntity
  8
CutLine
  6
Continuous
 62
     8
100
AcDbLine
 10
149.200515
 20
171.160125
 30
0.0
 11
151.306531
 21
171.65201
 31
0.0
  0
LINE
  5
375
330
1D
100
AcDbEntity
  8
CutLine
  6
Continuous
 62
     8
100
AcDbLine
 10
168.979278
 20
145.988235
 30
0.0
 11
169.272576
 21
146.013307
 31
0.0
  0
LINE
  5
376
330
1D
100
AcDbEntity
  8
CutLine
  6
Continuous
 62
     8
100
AcDbLine
 10
169.272576
 20
146.013307
 30
0.0
 11
169.560303
 21
146.031216
 31
0.0
  0
LINE
  5
377
330
1D
100
AcDbEntity
  8
CutLine
  6
Continuous
 62
     8
100
AcDbLine
 10
153.528791
 20
140.762174
 30
0.0
 11
154.018684
 21
139.627185
 31
0.0
  0
LINE
  5
378
330
1D
100
AcDbEntity
  8
CutLine
  6
Continuous
 62
     8
100
AcDbLine
 10
157.942957
 20
170.95957
 30
0.0
 11
158.45812
 21
171.582781
 31
0.0
  0
LINE
  5
379
330
1D
100
AcDbEntity
  8
CutLine
  6
Continuous
 62
     8
100
AcDbLine
 10
169.560303
 20
146.031216
 30
0.0
 11
169.842458
 21
146.041962
 31
0.0
  0
LINE
  5
37A
330
1D
100
AcDbEntity
  8
CutLine
  6
Continuous
 62
     8
100
AcDbLine
 10
171.443447
 20
156.468978
 30
0.0
 11
170.8083
 21
156.597914
 31
0.0
  0
LINE
  5
37B
330
1D
100
AcDbEntity
  8
CutLine
  6
Continuous
 62
     8
100
AcDbLine
 10
170.8083
 20
156.597914
 30
0.0
 11
170.182703
 21
156.704568
 31
0.0
  0
LINE
  5
37C
330
1D
100
AcDbEntity
  8
CutLine
  6
Continuous
 62
     8
100
AcDbLine
 10
170.182703
 20
156.704568
 30
0.0
 11
169.566657
 21
156.788936
 31
0.0
  0
LINE
  5
37D
330
1D
100
AcDbEntity
  8
CutLine
  6
Continuous
 62
     8
100
AcDbLine
 10
169.566657
 20
156.788936
 30
0.0
 11
168.960161
 21
156.851016
 31
0.0
  0
LINE
  5
37E
330
1D
100
AcDbEntity
  8
CutLine
  6
Continuous
 62
     8
100
AcDbLine
 10
168.960161
 20
156.851016
 30
0.0
 11
168.363218
 21
156.890813
 31
0.0
  0
LINE
  5
37F
330
1D
100
AcDbEntity
  8
CutLine
  6
Continuous
 62
     8
100
AcDbLine
 10
168.363218
 20
156.890813
 30
0.0
 11
167.775825
 21
156.90832
 31
0.0
  0
LINE
  5
380
330
1D
100
AcDbEntity
  8
CutLine
  6
Continuous
 62
     8
100
AcDbLine
 10
165.521766
 20
156.755501
 30
0.0
 11
164.98213
 21
156.661583
 31
0.0
  0
LINE
  5
381
330
1D
100
AcDbEntity
  8
CutLine
  6
Continuous
 62
     8
100
AcDbLine
 10
167.775825
 20
156.90832
 30
0.0
 11
167.197983
 21
156.903545
 31
0.0
  0
LINE
  5
382
330
1D
100
AcDbEntity
  8
CutLine
  6
Continuous
 62
     8
100
AcDbLine
 10
167.197983
 20
156.903545
 30
0.0
 11
166.629693
 21
156.876483
 31
0.0
  0
LINE
  5
383
330
1D
100
AcDbEntity
  8
CutLine
  6
Continuous
 62
     8
100
AcDbLine
 10
166.629693
 20
156.876483
 30
0.0
 11
166.070955
 21
156.827134
 31
0.0
  0
LINE
  5
384
330
1D
100
AcDbEntity
  8
CutLine
  6
Continuous
 62
     8
100
AcDbLine
 10
166.070955
 20
156.827134
 30
0.0
 11
165.521766
 21
156.755501
 31
0.0
  0
LINE
  5
385
330
1D
100
AcDbEntity
  8
CutLine
  6
Continuous
 62
     8
100
AcDbLine
 10
144.170292
 20
149.98852
 30
0.0
 11
144.015085
 21
150.35783
 31
0.0
  0
LINE
  5
386
330
1D
100
AcDbEntity
  8
CutLine
  6
Continuous
 62
     8
100
AcDbLine
 10
144.015085
 20
150.35783
 30
0.0
 11
143.845553
 21
150.714404
 31
0.0
  0
LINE
  5
387
330
1D
100
AcDbEntity
  8
CutLine
  6
Continuous
 62
     8
100
AcDbLine
 10
142.25767
 20
152.853849
 30
0.0
 11
141.973538
 21
153.108544
 31
0.0
  0
LINE
  5
388
330
1D
100
AcDbEntity
  8
CutLine
  6
Continuous
 62
     8
100
AcDbLine
 10
143.845553
 20
150.714404
 30
0.0
 11
143.661691
 21
151.058245
 31
0.0
  0
LINE
  5
389
330
1D
100
AcDbEntity
  8
CutLine
  6
Continuous
 62
     8
100
AcDbLine
 10
143.661691
 20
151.058245
 30
0.0
 11
143.463504
 21
151.389348
 31
0.0
  0
LINE
  5
38A
330
1D
100
AcDbEntity
  8
CutLine
  6
Continuous
 62
     8
100
AcDbLine
 10
143.463504
 20
151.389348
 30
0.0
 11
143.250992
 21
151.707715
 31
0.0
  0
LINE
  5
38B
330
1D
100
AcDbEntity
  8
CutLine
  6
Continuous
 62
     8
100
AcDbLine
 10
142.527489
 20
152.586418
 30
0.0
 11
142.25767
 21
152.853849
 31
0.0
  0
LINE
  5
38C
330
1D
100
AcDbEntity
  8
CutLine
  6
Continuous
 62
     8
100
AcDbLine
 10
143.250992
 20
151.707715
 30
0.0
 11
143.024148
 21
152.013351
 31
0.0
  0
LINE
  5
38D
330
1D
100
AcDbEntity
  8
CutLine
  6
Continuous
 62
     8
100
AcDbLine
 10
143.024148
 20
152.013351
 30
0.0
 11
142.78298
 21
152.306252
 31
0.0
  0
LINE
  5
38E
330
1D
100
AcDbEntity
  8
CutLine
  6
Continuous
 62
     8
100
AcDbLine
 10
142.78298
 20
152.306252
 30
0.0
 11
142.527489
 21
152.586418
 31
0.0
  0
LINE
  5
38F
330
1D
100
AcDbEntity
  8
CutLine
  6
Continuous
 62
     8
100
AcDbLine
 10
164.98213
 20
156.661583
 30
0.0
 11
164.618789
 21
157.25196
 31
0.0
  0
LINE
  5
390
330
1D
100
AcDbEntity
  8
CutLine
  6
Continuous
 62
     8
100
AcDbLine
 10
164.618789
 20
157.25196
 30
0.0
 11
164.235551
 21
157.810103
 31
0.0
  0
LINE
  5
391
330
1D
100
AcDbEntity
  8
CutLine
  6
Continuous
 62
     8
100
AcDbLine
 10
158.248628
 20
138.237508
 30
0.0
 11
158.909047
 21
138.733171
 31
0.0
  0
LINE
  5
392
330
1D
100
AcDbEntity
  8
CutLine
  6
Continuous
 62
     8
100
AcDbLine
 10
158.909047
 20
138.733171
 30
0.0
 11
159.524495
 21
139.245946
 31
0.0
  0
LINE
  5
393
330
1D
100
AcDbEntity
  8
CutLine
  6
Continuous
 62
     8
100
AcDbLine
 10
164.235551
 20
157.810103
 30
0.0
 11
163.832414
 21
158.336011
 31
0.0
  0
LINE
  5
394
330
1D
100
AcDbEntity
  8
CutLine
  6
Continuous
 62
     8
100
AcDbLine
 10
163.832414
 20
158.336011
 30
0.0
 11
163.409379
 21
158.829682
 31
0.0
  0
LINE
  5
395
330
1D
100
AcDbEntity
  8
CutLine
  6
Continuous
 62
     8
100
AcDbLine
 10
159.524495
 20
139.245946
 30
0.0
 11
160.094975
 21
139.775834
 31
0.0
  0
LINE
  5
396
330
1D
100
AcDbEntity
  8
CutLine
  6
Continuous
 62
     8
100
AcDbLine
 10
160.094975
 20
139.775834
 30
0.0
 11
160.620483
 21
140.322834
 31
0.0
  0
LINE
  5
397
330
1D
100
AcDbEntity
  8
CutLine
  6
Continuous
 62
     8
100
AcDbLine
 10
162.503615
 20
159.72032
 30
0.0
 11
162.020886
 21
160.117285
 31
0.0
  0
LINE
  5
398
330
1D
100
AcDbEntity
  8
CutLine
  6
Continuous
 62
     8
100
AcDbLine
 10
163.409379
 20
158.829682
 30
0.0
 11
162.966447
 21
159.291118
 31
0.0
  0
LINE
  5
399
330
1D
100
AcDbEntity
  8
CutLine
  6
Continuous
 62
     8
100
AcDbLine
 10
162.966447
 20
159.291118
 30
0.0
 11
162.503615
 21
159.72032
 31
0.0
  0
LINE
  5
39A
330
1D
100
AcDbEntity
  8
CutLine
  6
Continuous
 62
     8
100
AcDbLine
 10
161.801625
 20
148.524043
 30
0.0
 11
159.681284
 21
146.031204
 31
0.0
  0
LINE
  5
39B
330
1D
100
AcDbEntity
  8
CutLine
  6
Continuous
 62
     8
100
AcDbLine
 10
160.620483
 20
140.322834
 30
0.0
 11
161.101022
 21
140.886946
 31
0.0
  0
LINE
  5
39C
330
1D
100
AcDbEntity
  8
CutLine
  6
Continuous
 62
     8
100
AcDbLine
 10
161.101022
 20
140.886946
 30
0.0
 11
161.536591
 21
141.46817
 31
0.0
  0
LINE
  5
39D
330
1D
100
AcDbEntity
  8
CutLine
  6
Continuous
 62
     8
100
AcDbLine
 10
162.272821
 20
142.681957
 30
0.0
 11
162.57348
 21
143.314519
 31
0.0
  0
LINE
  5
39E
330
1D
100
AcDbEntity
  8
CutLine
  6
Continuous
 62
     8
100
AcDbLine
 10
161.536591
 20
141.46817
 30
0.0
 11
161.927191
 21
142.066507
 31
0.0
  0
LINE
  5
39F
330
1D
100
AcDbEntity
  8
CutLine
  6
Continuous
 62
     8
100
AcDbLine
 10
161.927191
 20
142.066507
 30
0.0
 11
162.272821
 21
142.681957
 31
0.0
  0
LINE
  5
3A0
330
1D
100
AcDbEntity
  8
CutLine
  6
Continuous
 62
     8
100
AcDbLine
 10
152.284743
 20
155.43266
 30
0.0
 11
153.024753
 21
155.078474
 31
0.0
  0
LINE
  5
3A1
330
1D
100
AcDbEntity
  8
CutLine
  6
Continuous
 62
     8
100
AcDbLine
 10
163.350463
 20
172.052977
 30
0.0
 11
165.657055
 21
171.054293
 31
0.0
  0
LINE
  5
3A2
330
1D
100
AcDbEntity
  8
CutLine
  6
Continuous
 62
     8
100
AcDbLine
 10
166.834658
 20
145.697919
 30
0.0
 11
167.102488
 21
145.687375
 31
0.0
  0
LINE
  5
3A3
330
1D
100
AcDbEntity
  8
CutLine
  6
Continuous
 62
     8
100
AcDbLine
 10
167.102488
 20
145.687375
 30
0.0
 11
167.429215
 21
145.755426
 31
0.0
  0
LINE
  5
3A4
330
1D
100
AcDbEntity
  8
CutLine
  6
Continuous
 62
     8
100
AcDbLine
 10
158.872226
 20
146.160342
 30
0.0
 11
158.097394
 21
146.223021
 31
0.0
  0
LINE
  5
3A5
330
1D
100
AcDbEntity
  8
CutLine
  6
Continuous
 62
     8
100
AcDbLine
 10
158.097394
 20
146.223021
 30
0.0
 11
157.356786
 21
146.21924
 31
0.0
  0
LINE
  5
3A6
330
1D
100
AcDbEntity
  8
CutLine
  6
Continuous
 62
     8
100
AcDbLine
 10
152.933041
 20
141.951285
 30
0.0
 11
153.528791
 21
140.762174
 31
0.0
  0
LINE
  5
3A7
330
1D
100
AcDbEntity
  8
CutLine
  6
Continuous
 62
     8
100
AcDbLine
 10
159.857355
 20
172.585648
 30
0.0
 11
160.74142
 21
172.965304
 31
0.0
  0
LINE
  5
3A8
330
1D
100
AcDbEntity
  8
CutLine
  6
Continuous
 62
     8
100
AcDbLine
 10
151.306531
 20
171.65201
 30
0.0
 11
153.664059
 21
171.905121
 31
0.0
  0
LINE
  5
3A9
330
1D
100
AcDbEntity
  8
CutLine
  6
Continuous
 62
     8
100
AcDbLine
 10
159.096252
 20
172.124809
 30
0.0
 11
159.857355
 21
172.585648
 31
0.0
  0
LINE
  5
3AA
330
1D
100
AcDbEntity
  8
CutLine
  6
Continuous
 62
     8
100
AcDbLine
 10
186.833261
 20
179.999968
 30
0.0
 11
126.833304
 21
179.999966
 31
0.0
  0
LINE
  5
3AB
330
1D
100
AcDbEntity
  8
CutLine
  6
Continuous
 62
     8
100
AcDbLine
 10
160.74142
 20
172.965304
 30
0.0
 11
163.350463
 21
172.052977
 31
0.0
  0
LINE
  5
3AC
330
1D
100
AcDbEntity
  8
CutLine
  6
Continuous
 62
     8
100
AcDbLine
 10
154.526644
 20
170.717801
 30
0.0
 11
155.194624
 21
169.553165
 31
0.0
  0
LINE
  5
3AD
330
1D
100
AcDbEntity
  8
CutLine
  6
Continuous
 62
     8
100
AcDbLine
 10
169.842458
 20
146.041962
 30
0.0
 11
170.119042
 21
146.045543
 31
0.0
  0
LINE
  5
3AE
330
1D
100
AcDbEntity
  8
CutLine
  6
Continuous
 62
     8
100
AcDbLine
 10
151.171237
 20
159.154402
 30
0.0
 11
150.827402
 21
156.317725
 31
0.0
  0
LINE
  5
3AF
330
1D
100
AcDbEntity
  8
CutLine
  6
Continuous
 62
     8
100
AcDbLine
 10
150.827402
 20
156.317725
 30
0.0
 11
151.552289
 21
155.845742
 31
0.0
  0
LINE
  5
3B0
330
1D
100
AcDbEntity
  8
CutLine
  6
Continuous
 62
     8
100
AcDbLine
 10
138.541007
 20
35.796439
 30
0.0
 11
138.634728
 21
36.134907
 31
0.0
  0
LINE
  5
3B1
330
1D
100
AcDbEntity
  8
CutLine
  6
Continuous
 62
     8
100
AcDbLine
 10
138.634728
 20
36.134907
 30
0.0
 11
138.720886
 21
36.485711
 31
0.0
  0
LINE
  5
3B2
330
1D
100
AcDbEntity
  8
CutLine
  6
Continuous
 62
     8
100
AcDbLine
 10
161.052737
 20
27.917744
 30
0.0
 11
161.482337
 21
28.161893
 31
0.0
  0
LINE
  5
3B3
330
1D
100
AcDbEntity
  8
CutLine
  6
Continuous
 62
     8
100
AcDbLine
 10
161.482337
 20
28.161893
 30
0.0
 11
161.909947
 21
28.431116
 31
0.0
  0
LINE
  5
3B4
330
1D
100
AcDbEntity
  8
CutLine
  6
Continuous
 62
     8
100
AcDbLine
 10
156.429228
 20
41.583585
 30
0.0
 11
156.405348
 21
40.506102
 31
0.0
  0
LINE
  5
3B5
330
1D
100
AcDbEntity
  8
CutLine
  6
Continuous
 62
     8
100
AcDbLine
 10
156.405348
 20
40.506102
 30
0.0
 11
156.429224
 21
39.41071
 31
0.0
  0
LINE
  5
3B6
330
1D
100
AcDbEntity
  8
CutLine
  6
Continuous
 62
     8
100
AcDbLine
 10
159.973274
 20
36.78654
 30
0.0
 11
159.951189
 21
37.382886
 31
0.0
  0
LINE
  5
3B7
330
1D
100
AcDbEntity
  8
CutLine
  6
Continuous
 62
     8
100
AcDbLine
 10
159.951189
 20
37.382886
 30
0.0
 11
159.911194
 21
37.994754
 31
0.0
  0
LINE
  5
3B8
330
1D
100
AcDbEntity
  8
CutLine
  6
Continuous
 62
     8
100
AcDbLine
 10
157.050032
 20
30.362837
 30
0.0
 11
157.056002
 21
29.749775
 31
0.0
  0
LINE
  5
3B9
330
1D
100
AcDbEntity
  8
CutLine
  6
Continuous
 62
     8
100
AcDbLine
 10
157.056002
 20
29.749775
 30
0.0
 11
157.073908
 21
29.118806
 31
0.0
  0
LINE
  5
3BA
330
1D
100
AcDbEntity
  8
CutLine
  6
Continuous
 62
     8
100
AcDbLine
 10
161.909947
 20
28.431116
 30
0.0
 11
162.335569
 21
28.72541
 31
0.0
  0
LINE
  5
3BB
330
1D
100
AcDbEntity
  8
CutLine
  6
Continuous
 62
     8
100
AcDbLine
 10
162.335569
 20
28.72541
 30
0.0
 11
162.759199
 21
29.044773
 31
0.0
  0
LINE
  5
3BC
330
1D
100
AcDbEntity
  8
CutLine
  6
Continuous
 62
     8
100
AcDbLine
 10
150.677889
 20
50.455966
 30
0.0
 11
151.403573
 21
50.57237
 31
0.0
  0
LINE
  5
3BD
330
1D
100
AcDbEntity
  8
CutLine
  6
Continuous
 62
     8
100
AcDbLine
 10
151.403573
 20
50.57237
 30
0.0
 11
152.141594
 21
50.711455
 31
0.0
  0
LINE
  5
3BE
330
1D
100
AcDbEntity
  8
CutLine
  6
Continuous
 62
     8
100
AcDbLine
 10
157.594223
 20
15.355471
 30
0.0
 11
157.548257
 21
14.979992
 31
0.0
  0
LINE
  5
3BF
330
1D
100
AcDbEntity
  8
CutLine
  6
Continuous
 62
     8
100
AcDbLine
 10
156.429224
 20
39.41071
 30
0.0
 11
156.500854
 21
38.29741
 31
0.0
  0
LINE
  5
3C0
330
1D
100
AcDbEntity
  8
CutLine
  6
Continuous
 62
     8
100
AcDbLine
 10
156.500854
 20
38.29741
 30
0.0
 11
156.620243
 21
37.166202
 31
0.0
  0
LINE
  5
3C1
330
1D
100
AcDbEntity
  8
CutLine
  6
Continuous
 62
     8
100
AcDbLine
 10
139.112285
 20
39.286769
 30
0.0
 11
139.137956
 21
39.736268
 31
0.0
  0
LINE
  5
3C2
330
1D
100
AcDbEntity
  8
CutLine
  6
Continuous
 62
     8
100
AcDbLine
 10
139.137956
 20
39.736268
 30
0.0
 11
139.156064
 21
40.198103
 31
0.0
  0
LINE
  5
3C3
330
1D
100
AcDbEntity
  8
CutLine
  6
Continuous
 62
     8
100
AcDbLine
 10
160.531386
 20
15.183746
 30
0.0
 11
160.18755
 21
17.361402
 31
0.0
  0
LINE
  5
3C4
330
1D
100
AcDbEntity
  8
CutLine
  6
Continuous
 62
     8
100
AcDbLine
 10
169.854092
 20
42.906593
 30
0.0
 11
170.167886
 21
42.832371
 31
0.0
  0
LINE
  5
3C5
330
1D
100
AcDbEntity
  8
CutLine
  6
Continuous
 62
     8
100
AcDbLine
 10
170.167886
 20
42.832371
 30
0.0
 11
170.486853
 21
42.770488
 31
0.0
  0
LINE
  5
3C6
330
1D
100
AcDbEntity
  8
CutLine
  6
Continuous
 62
     8
100
AcDbLine
 10
157.492344
 20
14.594566
 30
0.0
 11
157.426481
 21
14.199191
 31
0.0
  0
LINE
  5
3C7
330
1D
100
AcDbEntity
  8
CutLine
  6
Continuous
 62
     8
100
AcDbLine
 10
157.548257
 20
14.979992
 30
0.0
 11
157.492344
 21
14.594566
 31
0.0
  0
LINE
  5
3C8
330
1D
100
AcDbEntity
  8
CutLine
  6
Continuous
 62
     8
100
AcDbLine
 10
171.140307
 20
42.683731
 30
0.0
 11
171.474795
 21
42.658858
 31
0.0
  0
LINE
  5
3C9
330
1D
100
AcDbEntity
  8
CutLine
  6
Continuous
 62
     8
100
AcDbLine
 10
171.474795
 20
42.658858
 30
0.0
 11
171.814456
 21
42.646321
 31
0.0
  0
LINE
  5
3CA
330
1D
100
AcDbEntity
  8
CutLine
  6
Continuous
 62
     8
100
AcDbLine
 10
152.141594
 20
50.711455
 30
0.0
 11
152.891953
 21
50.873226
 31
0.0
  0
LINE
  5
3CB
330
1D
100
AcDbEntity
  8
CutLine
  6
Continuous
 62
     8
100
AcDbLine
 10
152.891953
 20
50.873226
 30
0.0
 11
153.654647
 21
51.057682
 31
0.0
  0
LINE
  5
3CC
330
1D
100
AcDbEntity
  8
CutLine
  6
Continuous
 62
     8
100
AcDbLine
 10
157.426481
 20
14.199191
 30
0.0
 11
157.35067
 21
13.793867
 31
0.0
  0
LINE
  5
3CD
330
1D
100
AcDbEntity
  8
CutLine
  6
Continuous
 62
     8
100
AcDbLine
 10
157.35067
 20
13.793867
 30
0.0
 11
157.264906
 21
13.378597
 31
0.0
  0
LINE
  5
3CE
330
1D
100
AcDbEntity
  8
CutLine
  6
Continuous
 62
     8
100
AcDbLine
 10
157.264906
 20
13.378597
 30
0.0
 11
157.637399
 21
12.633606
 31
0.0
  0
LINE
  5
3CF
330
1D
100
AcDbEntity
  8
CutLine
  6
Continuous
 62
     8
100
AcDbLine
 10
170.486853
 20
42.770488
 30
0.0
 11
170.810994
 21
42.720941
 31
0.0
  0
LINE
  5
3D0
330
1D
100
AcDbEntity
  8
CutLine
  6
Continuous
 62
     8
100
AcDbLine
 10
170.810994
 20
42.720941
 30
0.0
 11
171.140307
 21
42.683731
 31
0.0
  0
LINE
  5
3D1
330
1D
100
AcDbEntity
  8
CutLine
  6
Continuous
 62
     8
100
AcDbLine
 10
171.04716
 20
25.699492
 30
0.0
 11
170.330828
 21
25.326998
 31
0.0
  0
LINE
  5
3D2
330
1D
100
AcDbEntity
  8
CutLine
  6
Continuous
 62
     8
100
AcDbLine
 10
170.330828
 20
25.326998
 30
0.0
 11
169.958332
 21
24.238172
 31
0.0
  0
LINE
  5
3D3
330
1D
100
AcDbEntity
  8
CutLine
  6
Continuous
 62
     8
100
AcDbLine
 10
155.832235
 20
7.93447
 30
0.0
 11
151.133095
 21
9.023306
 31
0.0
  0
LINE
  5
3D4
330
1D
100
AcDbEntity
  8
CutLine
  6
Continuous
 62
     8
100
AcDbLine
 10
151.133095
 20
9.023306
 30
0.0
 11
150.765176
 21
8.971371
 31
0.0
  0
LINE
  5
3D5
330
1D
100
AcDbEntity
  8
CutLine
  6
Continuous
 62
     8
100
AcDbLine
 10
156.620243
 20
37.166202
 30
0.0
 11
156.787386
 21
36.017086
 31
0.0
  0
LINE
  5
3D6
330
1D
100
AcDbEntity
  8
CutLine
  6
Continuous
 62
     8
100
AcDbLine
 10
156.787386
 20
36.017086
 30
0.0
 11
157.002284
 21
34.850061
 31
0.0
  0
LINE
  5
3D7
330
1D
100
AcDbEntity
  8
CutLine
  6
Continuous
 62
     8
100
AcDbLine
 10
159.911194
 20
37.994754
 30
0.0
 11
159.853292
 21
38.622142
 31
0.0
  0
LINE
  5
3D8
330
1D
100
AcDbEntity
  8
CutLine
  6
Continuous
 62
     8
100
AcDbLine
 10
159.853292
 20
38.622142
 30
0.0
 11
159.77748
 21
39.26505
 31
0.0
  0
LINE
  5
3D9
330
1D
100
AcDbEntity
  8
CutLine
  6
Continuous
 62
     8
100
AcDbLine
 10
169.958332
 20
24.238172
 30
0.0
 11
168.869507
 21
23.521842
 31
0.0
  0
LINE
  5
3DA
330
1D
100
AcDbEntity
  8
CutLine
  6
Continuous
 62
     8
100
AcDbLine
 10
168.869507
 20
23.521842
 30
0.0
 11
166.348011
 21
19.166546
 31
0.0
  0
LINE
  5
3DB
330
1D
100
AcDbEntity
  8
CutLine
  6
Continuous
 62
     8
100
AcDbLine
 10
162.759199
 20
29.044773
 30
0.0
 11
163.180842
 21
29.38921
 31
0.0
  0
LINE
  5
3DC
330
1D
100
AcDbEntity
  8
CutLine
  6
Continuous
 62
     8
100
AcDbLine
 10
163.180842
 20
29.38921
 30
0.0
 11
163.600494
 21
29.758718
 31
0.0
  0
LINE
  5
3DD
330
1D
100
AcDbEntity
  8
CutLine
  6
Continuous
 62
     8
100
AcDbLine
 10
141.547825
 20
42.210991
 30
0.0
 11
142.130641
 21
42.492151
 31
0.0
  0
LINE
  5
3DE
330
1D
100
AcDbEntity
  8
CutLine
  6
Continuous
 62
     8
100
AcDbLine
 10
142.130641
 20
42.492151
 30
0.0
 11
142.667692
 21
42.891506
 31
0.0
  0
LINE
  5
3DF
330
1D
100
AcDbEntity
  8
CutLine
  6
Continuous
 62
     8
100
AcDbLine
 10
156.67279
 20
47.867611
 30
0.0
 11
156.810087
 21
47.583464
 31
0.0
  0
LINE
  5
3E0
330
1D
100
AcDbEntity
  8
CutLine
  6
Continuous
 62
     8
100
AcDbLine
 10
156.810087
 20
47.583464
 30
0.0
 11
156.954547
 21
47.294544
 31
0.0
  0
LINE
  5
3E1
330
1D
100
AcDbEntity
  8
CutLine
  6
Continuous
 62
     8
100
AcDbLine
 10
142.667692
 20
42.891506
 30
0.0
 11
143.158976
 21
43.409055
 31
0.0
  0
LINE
  5
3E2
330
1D
100
AcDbEntity
  8
CutLine
  6
Continuous
 62
     8
100
AcDbLine
 10
140.919245
 20
42.048026
 30
0.0
 11
141.547825
 21
42.210991
 31
0.0
  0
LINE
  5
3E3
330
1D
100
AcDbEntity
  8
CutLine
  6
Continuous
 62
     8
100
AcDbLine
 10
155.551137
 20
50.153309
 30
0.0
 11
155.637295
 21
50.092222
 31
0.0
  0
LINE
  5
3E4
330
1D
100
AcDbEntity
  8
CutLine
  6
Continuous
 62
     8
100
AcDbLine
 10
155.637295
 20
50.092222
 30
0.0
 11
155.731013
 21
50.030736
 31
0.0
  0
LINE
  5
3E5
330
1D
100
AcDbEntity
  8
CutLine
  6
Continuous
 62
     8
100
AcDbLine
 10
143.158976
 20
43.409055
 30
0.0
 11
143.604498
 21
44.0448
 31
0.0
  0
LINE
  5
3E6
330
1D
100
AcDbEntity
  8
CutLine
  6
Continuous
 62
     8
100
AcDbLine
 10
143.604498
 20
44.0448
 30
0.0
 11
144.004252
 21
44.798739
 31
0.0
  0
LINE
  5
3E7
330
1D
100
AcDbEntity
  8
CutLine
  6
Continuous
 62
     8
100
AcDbLine
 10
145.697945
 20
26.22961
 30
0.0
 11
145.685808
 21
26.291693
 31
0.0
  0
LINE
  5
3E8
330
1D
100
AcDbEntity
  8
CutLine
  6
Continuous
 62
     8
100
AcDbLine
 10
145.699536
 20
26.105447
 30
0.0
 11
145.702523
 21
26.167528
 31
0.0
  0
LINE
  5
3E9
330
1D
100
AcDbEntity
  8
CutLine
  6
Continuous
 62
     8
100
AcDbLine
 10
145.702523
 20
26.167528
 30
0.0
 11
145.697945
 21
26.22961
 31
0.0
  0
LINE
  5
3EA
330
1D
100
AcDbEntity
  8
CutLine
  6
Continuous
 62
     8
100
AcDbLine
 10
157.073908
 20
29.118806
 30
0.0
 11
157.103756
 21
28.469927
 31
0.0
  0
LINE
  5
3EB
330
1D
100
AcDbEntity
  8
CutLine
  6
Continuous
 62
     8
100
AcDbLine
 10
157.103756
 20
28.469927
 30
0.0
 11
157.145539
 21
27.803141
 31
0.0
  0
LINE
  5
3EC
330
1D
100
AcDbEntity
  8
CutLine
  6
Continuous
 62
     8
100
AcDbLine
 10
171.814456
 20
42.646321
 30
0.0
 11
172.159291
 21
42.646122
 31
0.0
  0
LINE
  5
3ED
330
1D
100
AcDbEntity
  8
CutLine
  6
Continuous
 62
     8
100
AcDbLine
 10
172.159291
 20
42.646122
 30
0.0
 11
172.509298
 21
42.658259
 31
0.0
  0
LINE
  5
3EE
330
1D
100
AcDbEntity
  8
CutLine
  6
Continuous
 62
     8
100
AcDbLine
 10
159.77748
 20
39.26505
 30
0.0
 11
159.683762
 21
39.923479
 31
0.0
  0
LINE
  5
3EF
330
1D
100
AcDbEntity
  8
CutLine
  6
Continuous
 62
     8
100
AcDbLine
 10
159.683762
 20
39.923479
 30
0.0
 11
159.572134
 21
40.597429
 31
0.0
  0
LINE
  5
3F0
330
1D
100
AcDbEntity
  8
CutLine
  6
Continuous
 62
     8
100
AcDbLine
 10
155.731013
 20
50.030736
 30
0.0
 11
155.832294
 21
49.968853
 31
0.0
  0
LINE
  5
3F1
330
1D
100
AcDbEntity
  8
CutLine
  6
Continuous
 62
     8
100
AcDbLine
 10
163.600494
 20
29.758718
 30
0.0
 11
164.018156
 21
30.153295
 31
0.0
  0
LINE
  5
3F2
330
1D
100
AcDbEntity
  8
CutLine
  6
Continuous
 62
     8
100
AcDbLine
 10
164.018156
 20
30.153295
 30
0.0
 11
164.433828
 21
30.572947
 31
0.0
  0
LINE
  5
3F3
330
1D
100
AcDbEntity
  8
CutLine
  6
Continuous
 62
     8
100
AcDbLine
 10
144.004252
 20
44.798739
 30
0.0
 11
144.358237
 21
45.670874
 31
0.0
  0
LINE
  5
3F4
330
1D
100
AcDbEntity
  8
CutLine
  6
Continuous
 62
     8
100
AcDbLine
 10
144.358237
 20
45.670874
 30
0.0
 11
144.666464
 21
46.661204
 31
0.0
  0
LINE
  5
3F5
330
1D
100
AcDbEntity
  8
CutLine
  6
Continuous
 62
     8
100
AcDbLine
 10
143.692822
 20
29.134742
 30
0.0
 11
142.952611
 21
29.496093
 31
0.0
  0
LINE
  5
3F6
330
1D
100
AcDbEntity
  8
CutLine
  6
Continuous
 62
     8
100
AcDbLine
 10
172.509298
 20
42.658259
 30
0.0
 11
172.864481
 21
42.682733
 31
0.0
  0
LINE
  5
3F7
330
1D
100
AcDbEntity
  8
CutLine
  6
Continuous
 62
     8
100
AcDbLine
 10
172.864481
 20
42.682733
 30
0.0
 11
173.224835
 21
42.719544
 31
0.0
  0
LINE
  5
3F8
330
1D
100
AcDbEntity
  8
CutLine
  6
Continuous
 62
     8
100
AcDbLine
 10
144.666464
 20
46.661204
 30
0.0
 11
144.928918
 21
47.769727
 31
0.0
  0
LINE
  5
3F9
330
1D
100
AcDbEntity
  8
CutLine
  6
Continuous
 62
     8
100
AcDbLine
 10
144.928918
 20
47.769727
 30
0.0
 11
145.145612
 21
48.996447
 31
0.0
  0
LINE
  5
3FA
330
1D
100
AcDbEntity
  8
CutLine
  6
Continuous
 62
     8
100
AcDbLine
 10
157.145539
 20
27.803141
 30
0.0
 11
157.199263
 21
27.118446
 31
0.0
  0
LINE
  5
3FB
330
1D
100
AcDbEntity
  8
CutLine
  6
Continuous
 62
     8
100
AcDbLine
 10
157.199263
 20
27.118446
 30
0.0
 11
157.264925
 21
26.415843
 31
0.0
  0
LINE
  5
3FC
330
1D
100
AcDbEntity
  8
CutLine
  6
Continuous
 62
     8
100
AcDbLine
 10
175.746309
 20
31.859942
 30
0.0
 11
172.135986
 21
26.788314
 31
0.0
  0
LINE
  5
3FD
330
1D
100
AcDbEntity
  8
CutLine
  6
Continuous
 62
     8
100
AcDbLine
 10
172.135986
 20
26.788314
 30
0.0
 11
171.763492
 21
26.043329
 31
0.0
  0
LINE
  5
3FE
330
1D
100
AcDbEntity
  8
CutLine
  6
Continuous
 62
     8
100
AcDbLine
 10
157.674813
 20
17.083618
 30
0.0
 11
157.678593
 21
16.757886
 31
0.0
  0
LINE
  5
3FF
330
1D
100
AcDbEntity
  8
CutLine
  6
Continuous
 62
     8
100
AcDbLine
 10
157.661084
 20
17.3994
 30
0.0
 11
157.674813
 21
17.083618
 31
0.0
  0
LINE
  5
400
330
1D
100
AcDbEntity
  8
CutLine
  6
Continuous
 62
     8
100
AcDbLine
 10
157.678593
 20
16.757886
 30
0.0
 11
157.672422
 21
16.422206
 31
0.0
  0
LINE
  5
401
330
1D
100
AcDbEntity
  8
CutLine
  6
Continuous
 62
     8
100
AcDbLine
 10
157.672422
 20
16.422206
 30
0.0
 11
157.656304
 21
16.076575
 31
0.0
  0
LINE
  5
402
330
1D
100
AcDbEntity
  8
CutLine
  6
Continuous
 62
     8
100
AcDbLine
 10
157.264925
 20
26.415843
 30
0.0
 11
157.264921
 21
23.521859
 31
0.0
  0
LINE
  5
403
330
1D
100
AcDbEntity
  8
CutLine
  6
Continuous
 62
     8
100
AcDbLine
 10
157.264921
 20
23.521859
 30
0.0
 11
157.637411
 21
21.34421
 31
0.0
  0
LINE
  5
404
330
1D
100
AcDbEntity
  8
CutLine
  6
Continuous
 62
     8
100
AcDbLine
 10
157.637397
 20
10.82845
 30
0.0
 11
157.541685
 21
10.642014
 31
0.0
  0
LINE
  5
405
330
1D
100
AcDbEntity
  8
CutLine
  6
Continuous
 62
     8
100
AcDbLine
 10
157.637399
 20
12.633606
 30
0.0
 11
157.637397
 21
10.82845
 31
0.0
  0
LINE
  5
406
330
1D
100
AcDbEntity
  8
CutLine
  6
Continuous
 62
     8
100
AcDbLine
 10
140.469325
 20
31.5464
 30
0.0
 11
139.967893
 21
32.210202
 31
0.0
  0
LINE
  5
407
330
1D
100
AcDbEntity
  8
CutLine
  6
Continuous
 62
     8
100
AcDbLine
 10
141.01851
 20
30.943087
 30
0.0
 11
140.469325
 21
31.5464
 31
0.0
  0
LINE
  5
408
330
1D
100
AcDbEntity
  8
CutLine
  6
Continuous
 62
     8
100
AcDbLine
 10
164.35185
 20
31.66177
 30
0.0
 11
163.898173
 21
31.786532
 31
0.0
  0
LINE
  5
409
330
1D
100
AcDbEntity
  8
CutLine
  6
Continuous
 62
     8
100
AcDbLine
 10
164.805526
 20
31.562079
 30
0.0
 11
164.35185
 21
31.66177
 31
0.0
  0
LINE
  5
40A
330
1D
100
AcDbEntity
  8
CutLine
  6
Continuous
 62
     8
100
AcDbLine
 10
157.320416
 20
10.239275
 30
0.0
 11
157.194859
 21
10.022986
 31
0.0
  0
LINE
  5
40B
330
1D
100
AcDbEntity
  8
CutLine
  6
Continuous
 62
     8
100
AcDbLine
 10
157.436025
 20
10.445619
 30
0.0
 11
157.320416
 21
10.239275
 31
0.0
  0
LINE
  5
40C
330
1D
100
AcDbEntity
  8
CutLine
  6
Continuous
 62
     8
100
AcDbLine
 10
145.830646
 20
11.025859
 30
0.0
 11
145.749859
 21
11.702394
 31
0.0
  0
LINE
  5
40D
330
1D
100
AcDbEntity
  8
CutLine
  6
Continuous
 62
     8
100
AcDbLine
 10
145.749859
 20
11.702394
 30
0.0
 11
145.692157
 21
12.401217
 31
0.0
  0
LINE
  5
40E
330
1D
100
AcDbEntity
  8
CutLine
  6
Continuous
 62
     8
100
AcDbLine
 10
147.006229
 20
9.417293
 30
0.0
 11
146.538822
 21
9.56832
 31
0.0
  0
LINE
  5
40F
330
1D
100
AcDbEntity
  8
CutLine
  6
Continuous
 62
     8
100
AcDbLine
 10
147.463687
 20
9.286563
 30
0.0
 11
147.006229
 21
9.417293
 31
0.0
  0
LINE
  5
410
330
1D
100
AcDbEntity
  8
CutLine
  6
Continuous
 62
     8
100
AcDbLine
 10
146.538822
 20
9.56832
 30
0.0
 11
146.061465
 21
9.739643
 31
0.0
  0
LINE
  5
411
330
1D
100
AcDbEntity
  8
CutLine
  6
Continuous
 62
     8
100
AcDbLine
 10
146.061465
 20
9.739643
 30
0.0
 11
145.934514
 21
10.371607
 31
0.0
  0
LINE
  5
412
330
1D
100
AcDbEntity
  8
CutLine
  6
Continuous
 62
     8
100
AcDbLine
 10
126.833303
 20
60.000009
 30
0.0
 11
126.8333
 21
0.000011
 31
0.0
  0
LINE
  5
413
330
1D
100
AcDbEntity
  8
CutLine
  6
Continuous
 62
     8
100
AcDbLine
 10
156.758493
 20
9.31441
 30
0.0
 11
156.593139
 21
9.058319
 31
0.0
  0
LINE
  5
414
330
1D
100
AcDbEntity
  8
CutLine
  6
Continuous
 62
     8
100
AcDbLine
 10
156.913897
 20
9.560551
 30
0.0
 11
156.758493
 21
9.31441
 31
0.0
  0
LINE
  5
415
330
1D
100
AcDbEntity
  8
CutLine
  6
Continuous
 62
     8
100
AcDbLine
 10
171.763492
 20
26.043329
 30
0.0
 11
171.04716
 21
25.699492
 31
0.0
  0
LINE
  5
416
330
1D
100
AcDbEntity
  8
CutLine
  6
Continuous
 62
     8
100
AcDbLine
 10
166.348011
 20
19.166546
 30
0.0
 11
165.975516
 21
18.077725
 31
0.0
  0
LINE
  5
417
330
1D
100
AcDbEntity
  8
CutLine
  6
Continuous
 62
     8
100
AcDbLine
 10
186.833272
 20
0.0
 30
0.0
 11
186.833263
 21
59.999999
 31
0.0
  0
LINE
  5
418
330
1D
100
AcDbEntity
  8
CutLine
  6
Continuous
 62
     8
100
AcDbLine
 10
145.145612
 20
48.996447
 30
0.0
 11
145.316539
 21
50.34136
 31
0.0
  0
LINE
  5
419
330
1D
100
AcDbEntity
  8
CutLine
  6
Continuous
 62
     8
100
AcDbLine
 10
153.654647
 20
51.057682
 30
0.0
 11
155.115965
 21
50.685186
 31
0.0
  0
LINE
  5
41A
330
1D
100
AcDbEntity
  8
CutLine
  6
Continuous
 62
     8
100
AcDbLine
 10
157.106168
 20
47.000847
 30
0.0
 11
157.264955
 21
46.702375
 31
0.0
  0
LINE
  5
41B
330
1D
100
AcDbEntity
  8
CutLine
  6
Continuous
 62
     8
100
AcDbLine
 10
156.954547
 20
47.294544
 30
0.0
 11
157.106168
 21
47.000847
 31
0.0
  0
LINE
  5
41C
330
1D
100
AcDbEntity
  8
CutLine
  6
Continuous
 62
     8
100
AcDbLine
 10
175.703339
 20
37.970257
 30
0.0
 11
175.879635
 21
37.046387
 31
0.0
  0
LINE
  5
41D
330
1D
100
AcDbEntity
  8
CutLine
  6
Continuous
 62
     8
100
AcDbLine
 10
175.879635
 20
37.046387
 30
0.0
 11
175.988277
 21
36.08471
 31
0.0
  0
LINE
  5
41E
330
1D
100
AcDbEntity
  8
CutLine
  6
Continuous
 62
     8
100
AcDbLine
 10
159.442598
 20
41.286898
 30
0.0
 11
159.4426
 21
42.003231
 31
0.0
  0
LINE
  5
41F
330
1D
100
AcDbEntity
  8
CutLine
  6
Continuous
 62
     8
100
AcDbLine
 10
159.572134
 20
40.597429
 30
0.0
 11
159.442598
 21
41.286898
 31
0.0
  0
LINE
  5
420
330
1D
100
AcDbEntity
  8
CutLine
  6
Continuous
 62
     8
100
AcDbLine
 10
174.768528
 20
40.515029
 30
0.0
 11
175.147785
 21
39.704577
 31
0.0
  0
LINE
  5
421
330
1D
100
AcDbEntity
  8
CutLine
  6
Continuous
 62
     8
100
AcDbLine
 10
175.147785
 20
39.704577
 30
0.0
 11
175.459389
 21
38.856321
 31
0.0
  0
LINE
  5
422
330
1D
100
AcDbEntity
  8
CutLine
  6
Continuous
 62
     8
100
AcDbLine
 10
168.153203
 20
43.092044
 30
0.0
 11
169.242028
 21
43.092042
 31
0.0
  0
LINE
  5
423
330
1D
100
AcDbEntity
  8
CutLine
  6
Continuous
 62
     8
100
AcDbLine
 10
173.807054
 20
42.022513
 30
0.0
 11
174.321618
 21
41.287675
 31
0.0
  0
LINE
  5
424
330
1D
100
AcDbEntity
  8
CutLine
  6
Continuous
 62
     8
100
AcDbLine
 10
174.321618
 20
41.287675
 30
0.0
 11
174.768528
 21
40.515029
 31
0.0
  0
LINE
  5
425
330
1D
100
AcDbEntity
  8
CutLine
  6
Continuous
 62
     8
100
AcDbLine
 10
173.224835
 20
42.719544
 30
0.0
 11
173.807054
 21
42.022513
 31
0.0
  0
LINE
  5
426
330
1D
100
AcDbEntity
  8
CutLine
  6
Continuous
 62
     8
100
AcDbLine
 10
160.90392
 20
43.435895
 30
0.0
 11
168.153203
 21
43.092044
 31
0.0
  0
LINE
  5
427
330
1D
100
AcDbEntity
  8
CutLine
  6
Continuous
 62
     8
100
AcDbLine
 10
159.4426
 20
42.003231
 30
0.0
 11
160.90392
 21
43.435895
 31
0.0
  0
LINE
  5
428
330
1D
100
AcDbEntity
  8
CutLine
  6
Continuous
 62
     8
100
AcDbLine
 10
157.002284
 20
34.850061
 30
0.0
 11
157.264936
 21
33.665126
 31
0.0
  0
LINE
  5
429
330
1D
100
AcDbEntity
  8
CutLine
  6
Continuous
 62
     8
100
AcDbLine
 10
175.459389
 20
38.856321
 30
0.0
 11
175.703339
 21
37.970257
 31
0.0
  0
LINE
  5
42A
330
1D
100
AcDbEntity
  8
CutLine
  6
Continuous
 62
     8
100
AcDbLine
 10
160.268758
 20
33.687209
 30
0.0
 11
159.815081
 21
34.037615
 31
0.0
  0
LINE
  5
42B
330
1D
100
AcDbEntity
  8
CutLine
  6
Continuous
 62
     8
100
AcDbLine
 10
160.722436
 20
33.361875
 30
0.0
 11
160.268758
 21
33.687209
 31
0.0
  0
LINE
  5
42C
330
1D
100
AcDbEntity
  8
CutLine
  6
Continuous
 62
     8
100
AcDbLine
 10
161.176113
 20
33.06161
 30
0.0
 11
160.722436
 21
33.361875
 31
0.0
  0
LINE
  5
42D
330
1D
100
AcDbEntity
  8
CutLine
  6
Continuous
 62
     8
100
AcDbLine
 10
175.988277
 20
36.08471
 30
0.0
 11
176.029264
 21
35.085228
 31
0.0
  0
LINE
  5
42E
330
1D
100
AcDbEntity
  8
CutLine
  6
Continuous
 62
     8
100
AcDbLine
 10
161.629789
 20
32.786419
 30
0.0
 11
161.176113
 21
33.06161
 31
0.0
  0
LINE
  5
42F
330
1D
100
AcDbEntity
  8
CutLine
  6
Continuous
 62
     8
100
AcDbLine
 10
176.029264
 20
35.085228
 30
0.0
 11
176.0026
 21
34.047939
 31
0.0
  0
LINE
  5
430
330
1D
100
AcDbEntity
  8
CutLine
  6
Continuous
 62
     8
100
AcDbLine
 10
162.083466
 20
32.536299
 30
0.0
 11
161.629789
 21
32.786419
 31
0.0
  0
LINE
  5
431
330
1D
100
AcDbEntity
  8
CutLine
  6
Continuous
 62
     8
100
AcDbLine
 10
176.0026
 20
34.047939
 30
0.0
 11
175.908281
 21
32.972844
 31
0.0
  0
LINE
  5
432
330
1D
100
AcDbEntity
  8
CutLine
  6
Continuous
 62
     8
100
AcDbLine
 10
162.537143
 20
32.31125
 30
0.0
 11
162.083466
 21
32.536299
 31
0.0
  0
LINE
  5
433
330
1D
100
AcDbEntity
  8
CutLine
  6
Continuous
 62
     8
100
AcDbLine
 10
175.908281
 20
32.972844
 30
0.0
 11
175.746309
 21
31.859942
 31
0.0
  0
LINE
  5
434
330
1D
100
AcDbEntity
  8
CutLine
  6
Continuous
 62
     8
100
AcDbLine
 10
139.156064
 20
40.198103
 30
0.0
 11
140.244889
 21
42.003259
 31
0.0
  0
LINE
  5
435
330
1D
100
AcDbEntity
  8
CutLine
  6
Continuous
 62
     8
100
AcDbLine
 10
162.990819
 20
32.111273
 30
0.0
 11
162.537143
 21
32.31125
 31
0.0
  0
LINE
  5
436
330
1D
100
AcDbEntity
  8
CutLine
  6
Continuous
 62
     8
100
AcDbLine
 10
163.444496
 20
31.936368
 30
0.0
 11
162.990819
 21
32.111273
 31
0.0
  0
LINE
  5
437
330
1D
100
AcDbEntity
  8
CutLine
  6
Continuous
 62
     8
100
AcDbLine
 10
156.593139
 20
9.058319
 30
0.0
 11
156.417837
 21
8.792281
 31
0.0
  0
LINE
  5
438
330
1D
100
AcDbEntity
  8
CutLine
  6
Continuous
 62
     8
100
AcDbLine
 10
163.898173
 20
31.786532
 30
0.0
 11
163.444496
 21
31.936368
 31
0.0
  0
LINE
  5
439
330
1D
100
AcDbEntity
  8
CutLine
  6
Continuous
 62
     8
100
AcDbLine
 10
147.911193
 20
9.176129
 30
0.0
 11
147.463687
 21
9.286563
 31
0.0
  0
LINE
  5
43A
330
1D
100
AcDbEntity
  8
CutLine
  6
Continuous
 62
     8
100
AcDbLine
 10
148.348753
 20
9.085988
 30
0.0
 11
147.911193
 21
9.176129
 31
0.0
  0
LINE
  5
43B
330
1D
100
AcDbEntity
  8
CutLine
  6
Continuous
 62
     8
100
AcDbLine
 10
148.776363
 20
9.016142
 30
0.0
 11
148.348753
 21
9.085988
 31
0.0
  0
LINE
  5
43C
330
1D
100
AcDbEntity
  8
CutLine
  6
Continuous
 62
     8
100
AcDbLine
 10
149.194025
 20
8.966596
 30
0.0
 11
148.776363
 21
9.016142
 31
0.0
  0
LINE
  5
43D
330
1D
100
AcDbEntity
  8
CutLine
  6
Continuous
 62
     8
100
AcDbLine
 10
145.934514
 20
10.371607
 30
0.0
 11
145.830646
 21
11.025859
 31
0.0
  0
LINE
  5
43E
330
1D
100
AcDbEntity
  8
CutLine
  6
Continuous
 62
     8
100
AcDbLine
 10
149.601736
 20
8.937345
 30
0.0
 11
149.194025
 21
8.966596
 31
0.0
  0
LINE
  5
43F
330
1D
100
AcDbEntity
  8
CutLine
  6
Continuous
 62
     8
100
AcDbLine
 10
149.999499
 20
8.928391
 30
0.0
 11
149.601736
 21
8.937345
 31
0.0
  0
LINE
  5
440
330
1D
100
AcDbEntity
  8
CutLine
  6
Continuous
 62
     8
100
AcDbLine
 10
150.387312
 20
8.939733
 30
0.0
 11
149.999499
 21
8.928391
 31
0.0
  0
LINE
  5
441
330
1D
100
AcDbEntity
  8
CutLine
  6
Continuous
 62
     8
100
AcDbLine
 10
138.750133
 20
34.564548
 30
0.0
 11
138.439727
 21
35.470311
 31
0.0
  0
LINE
  5
442
330
1D
100
AcDbEntity
  8
CutLine
  6
Continuous
 62
     8
100
AcDbLine
 10
157.059351
 20
9.796742
 30
0.0
 11
156.913897
 21
9.560551
 31
0.0
  0
LINE
  5
443
330
1D
100
AcDbEntity
  8
CutLine
  6
Continuous
 62
     8
100
AcDbLine
 10
150.765176
 20
8.971371
 30
0.0
 11
150.387312
 21
8.939733
 31
0.0
  0
LINE
  5
444
330
1D
100
AcDbEntity
  8
CutLine
  6
Continuous
 62
     8
100
AcDbLine
 10
145.692157
 20
12.401217
 30
0.0
 11
145.657536
 21
13.122326
 31
0.0
  0
LINE
  5
445
330
1D
100
AcDbEntity
  8
CutLine
  6
Continuous
 62
     8
100
AcDbLine
 10
139.108298
 20
33.719277
 30
0.0
 11
138.750133
 21
34.564548
 31
0.0
  0
LINE
  5
446
330
1D
100
AcDbEntity
  8
CutLine
  6
Continuous
 62
     8
100
AcDbLine
 10
157.194859
 20
10.022986
 30
0.0
 11
157.059351
 21
9.796742
 31
0.0
  0
LINE
  5
447
330
1D
100
AcDbEntity
  8
CutLine
  6
Continuous
 62
     8
100
AcDbLine
 10
145.657536
 20
13.122326
 30
0.0
 11
145.645997
 21
13.86572
 31
0.0
  0
LINE
  5
448
330
1D
100
AcDbEntity
  8
CutLine
  6
Continuous
 62
     8
100
AcDbLine
 10
139.51422
 20
32.934493
 30
0.0
 11
139.108298
 21
33.719277
 31
0.0
  0
LINE
  5
449
330
1D
100
AcDbEntity
  8
CutLine
  6
Continuous
 62
     8
100
AcDbLine
 10
165.975516
 20
18.077725
 30
0.0
 11
162.365197
 21
14.811254
 31
0.0
  0
LINE
  5
44A
330
1D
100
AcDbEntity
  8
CutLine
  6
Continuous
 62
     8
100
AcDbLine
 10
145.645997
 20
13.86572
 30
0.0
 11
145.657538
 21
14.631402
 31
0.0
  0
LINE
  5
44B
330
1D
100
AcDbEntity
  8
CutLine
  6
Continuous
 62
     8
100
AcDbLine
 10
145.657538
 20
14.631402
 30
0.0
 11
145.692161
 21
15.419362
 31
0.0
  0
LINE
  5
44C
330
1D
100
AcDbEntity
  8
CutLine
  6
Continuous
 62
     8
100
AcDbLine
 10
139.967893
 20
32.210202
 30
0.0
 11
139.51422
 21
32.934493
 31
0.0
  0
LINE
  5
44D
330
1D
100
AcDbEntity
  8
CutLine
  6
Continuous
 62
     8
100
AcDbLine
 10
157.541685
 20
10.642014
 30
0.0
 11
157.436025
 21
10.445619
 31
0.0
  0
LINE
  5
44E
330
1D
100
AcDbEntity
  8
CutLine
  6
Continuous
 62
     8
100
AcDbLine
 10
145.692161
 20
15.419362
 30
0.0
 11
145.749865
 21
16.229616
 31
0.0
  0
LINE
  5
44F
330
1D
100
AcDbEntity
  8
CutLine
  6
Continuous
 62
     8
100
AcDbLine
 10
145.749865
 20
16.229616
 30
0.0
 11
145.830655
 21
17.062152
 31
0.0
  0
LINE
  5
450
330
1D
100
AcDbEntity
  8
CutLine
  6
Continuous
 62
     8
100
AcDbLine
 10
141.615457
 20
30.400266
 30
0.0
 11
141.01851
 21
30.943087
 31
0.0
  0
LINE
  5
451
330
1D
100
AcDbEntity
  8
CutLine
  6
Continuous
 62
     8
100
AcDbLine
 10
156.417837
 20
8.792281
 30
0.0
 11
156.232585
 21
8.516293
 31
0.0
  0
LINE
  5
452
330
1D
100
AcDbEntity
  8
CutLine
  6
Continuous
 62
     8
100
AcDbLine
 10
142.260158
 20
29.917933
 30
0.0
 11
141.615457
 21
30.400266
 31
0.0
  0
LINE
  5
453
330
1D
100
AcDbEntity
  8
CutLine
  6
Continuous
 62
     8
100
AcDbLine
 10
156.232585
 20
8.516293
 30
0.0
 11
156.037385
 21
8.230354
 31
0.0
  0
LINE
  5
454
330
1D
100
AcDbEntity
  8
CutLine
  6
Continuous
 62
     8
100
AcDbLine
 10
159.815067
 20
24.954519
 30
0.0
 11
160.187565
 21
27.504664
 31
0.0
  0
LINE
  5
455
330
1D
100
AcDbEntity
  8
CutLine
  6
Continuous
 62
     8
100
AcDbLine
 10
142.952611
 20
29.496093
 30
0.0
 11
142.260158
 21
29.917933
 31
0.0
  0
LINE
  5
456
330
1D
100
AcDbEntity
  8
CutLine
  6
Continuous
 62
     8
100
AcDbLine
 10
156.037385
 20
8.230354
 30
0.0
 11
155.832235
 21
7.93447
 31
0.0
  0
LINE
  5
457
330
1D
100
AcDbEntity
  8
CutLine
  6
Continuous
 62
     8
100
AcDbLine
 10
157.656304
 20
16.076575
 30
0.0
 11
157.630238
 21
15.720997
 31
0.0
  0
LINE
  5
458
330
1D
100
AcDbEntity
  8
CutLine
  6
Continuous
 62
     8
100
AcDbLine
 10
159.815062
 20
22.060538
 30
0.0
 11
159.815067
 21
24.954519
 31
0.0
  0
LINE
  5
459
330
1D
100
AcDbEntity
  8
CutLine
  6
Continuous
 62
     8
100
AcDbLine
 10
157.630238
 20
15.720997
 30
0.0
 11
157.594223
 21
15.355471
 31
0.0
  0
LINE
  5
45A
330
1D
100
AcDbEntity
  8
CutLine
  6
Continuous
 62
     8
100
AcDbLine
 10
145.830655
 20
17.062152
 30
0.0
 11
145.934525
 21
17.916975
 31
0.0
  0
LINE
  5
45B
330
1D
100
AcDbEntity
  8
CutLine
  6
Continuous
 62
     8
100
AcDbLine
 10
145.934525
 20
17.916975
 30
0.0
 11
146.061478
 21
18.794084
 31
0.0
  0
LINE
  5
45C
330
1D
100
AcDbEntity
  8
CutLine
  6
Continuous
 62
     8
100
AcDbLine
 10
146.061478
 20
18.794084
 30
0.0
 11
145.688994
 21
26.043367
 31
0.0
  0
LINE
  5
45D
330
1D
100
AcDbEntity
  8
CutLine
  6
Continuous
 62
     8
100
AcDbLine
 10
145.685808
 20
26.291693
 30
0.0
 11
145.666109
 21
26.353776
 31
0.0
  0
LINE
  5
45E
330
1D
100
AcDbEntity
  8
CutLine
  6
Continuous
 62
     8
100
AcDbLine
 10
145.666109
 20
26.353776
 30
0.0
 11
145.63885
 21
26.415858
 31
0.0
  0
LINE
  5
45F
330
1D
100
AcDbEntity
  8
CutLine
  6
Continuous
 62
     8
100
AcDbLine
 10
145.63885
 20
26.415858
 30
0.0
 11
145.604028
 21
26.47794
 31
0.0
  0
LINE
  5
460
330
1D
100
AcDbEntity
  8
CutLine
  6
Continuous
 62
     8
100
AcDbLine
 10
145.604028
 20
26.47794
 30
0.0
 11
145.561646
 21
26.540023
 31
0.0
  0
LINE
  5
461
330
1D
100
AcDbEntity
  8
CutLine
  6
Continuous
 62
     8
100
AcDbLine
 10
145.561646
 20
26.540023
 30
0.0
 11
145.511703
 21
26.602106
 31
0.0
  0
LINE
  5
462
330
1D
100
AcDbEntity
  8
CutLine
  6
Continuous
 62
     8
100
AcDbLine
 10
145.511703
 20
26.602106
 30
0.0
 11
145.454197
 21
26.664188
 31
0.0
  0
LINE
  5
463
330
1D
100
AcDbEntity
  8
CutLine
  6
Continuous
 62
     8
100
AcDbLine
 10
145.454197
 20
26.664188
 30
0.0
 11
145.389129
 21
26.72627
 31
0.0
  0
LINE
  5
464
330
1D
100
AcDbEntity
  8
CutLine
  6
Continuous
 62
     8
100
AcDbLine
 10
145.389129
 20
26.72627
 30
0.0
 11
145.316505
 21
26.788353
 31
0.0
  0
LINE
  5
465
330
1D
100
AcDbEntity
  8
CutLine
  6
Continuous
 62
     8
100
AcDbLine
 10
144.480781
 20
28.833883
 30
0.0
 11
143.692822
 21
29.134742
 31
0.0
  0
LINE
  5
466
330
1D
100
AcDbEntity
  8
CutLine
  6
Continuous
 62
     8
100
AcDbLine
 10
145.688994
 20
26.043367
 30
0.0
 11
145.699536
 21
26.105447
 31
0.0
  0
LINE
  5
467
330
1D
100
AcDbEntity
  8
CutLine
  6
Continuous
 62
     8
100
AcDbLine
 10
140.244889
 20
42.003259
 30
0.0
 11
140.919245
 21
42.048026
 31
0.0
  0
LINE
  5
468
330
1D
100
AcDbEntity
  8
CutLine
  6
Continuous
 62
     8
100
AcDbLine
 10
155.134071
 20
50.62768
 30
0.0
 11
155.15974
 21
50.569776
 31
0.0
  0
LINE
  5
469
330
1D
100
AcDbEntity
  8
CutLine
  6
Continuous
 62
     8
100
AcDbLine
 10
155.15974
 20
50.569776
 30
0.0
 11
155.192971
 21
50.511476
 31
0.0
  0
LINE
  5
46A
330
1D
100
AcDbEntity
  8
CutLine
  6
Continuous
 62
     8
100
AcDbLine
 10
155.192971
 20
50.511476
 30
0.0
 11
155.233761
 21
50.452776
 31
0.0
  0
LINE
  5
46B
330
1D
100
AcDbEntity
  8
CutLine
  6
Continuous
 62
     8
100
AcDbLine
 10
155.233761
 20
50.452776
 30
0.0
 11
155.282116
 21
50.393678
 31
0.0
  0
LINE
  5
46C
330
1D
100
AcDbEntity
  8
CutLine
  6
Continuous
 62
     8
100
AcDbLine
 10
155.282116
 20
50.393678
 30
0.0
 11
155.338028
 21
50.334183
 31
0.0
  0
LINE
  5
46D
330
1D
100
AcDbEntity
  8
CutLine
  6
Continuous
 62
     8
100
AcDbLine
 10
155.338028
 20
50.334183
 30
0.0
 11
155.401504
 21
50.27429
 31
0.0
  0
LINE
  5
46E
330
1D
100
AcDbEntity
  8
CutLine
  6
Continuous
 62
     8
100
AcDbLine
 10
155.401504
 20
50.27429
 30
0.0
 11
155.472539
 21
50.213998
 31
0.0
  0
LINE
  5
46F
330
1D
100
AcDbEntity
  8
CutLine
  6
Continuous
 62
     8
100
AcDbLine
 10
155.472539
 20
50.213998
 30
0.0
 11
155.551137
 21
50.153309
 31
0.0
  0
LINE
  5
470
330
1D
100
AcDbEntity
  8
CutLine
  6
Continuous
 62
     8
100
AcDbLine
 10
155.115965
 20
50.685186
 30
0.0
 11
155.134071
 21
50.62768
 31
0.0
  0
LINE
  5
471
330
1D
100
AcDbEntity
  8
CutLine
  6
Continuous
 62
     8
100
AcDbLine
 10
126.8333
 20
0.000011
 30
0.0
 11
186.833272
 21
0.0
 31
0.0
  0
LINE
  5
472
330
1D
100
AcDbEntity
  8
CutLine
  6
Continuous
 62
     8
100
AcDbLine
 10
162.365197
 20
14.811254
 30
0.0
 11
160.531386
 21
15.183746
 31
0.0
  0
LINE
  5
473
330
1D
100
AcDbEntity
  8
CutLine
  6
Continuous
 62
     8
100
AcDbLine
 10
156.093757
 20
49.216702
 30
0.0
 11
156.195237
 21
48.956435
 31
0.0
  0
LINE
  5
474
330
1D
100
AcDbEntity
  8
CutLine
  6
Continuous
 62
     8
100
AcDbLine
 10
156.195237
 20
48.956435
 30
0.0
 11
156.30388
 21
48.691392
 31
0.0
  0
LINE
  5
475
330
1D
100
AcDbEntity
  8
CutLine
  6
Continuous
 62
     8
100
AcDbLine
 10
156.419686
 20
48.421574
 30
0.0
 11
156.542657
 21
48.14698
 31
0.0
  0
LINE
  5
476
330
1D
100
AcDbEntity
  8
CutLine
  6
Continuous
 62
     8
100
AcDbLine
 10
156.542657
 20
48.14698
 30
0.0
 11
156.67279
 21
47.867611
 31
0.0
  0
LINE
  5
477
330
1D
100
AcDbEntity
  8
CutLine
  6
Continuous
 62
     8
100
AcDbLine
 10
156.30388
 20
48.691392
 30
0.0
 11
156.419686
 21
48.421574
 31
0.0
  0
LINE
  5
478
330
1D
100
AcDbEntity
  8
CutLine
  6
Continuous
 62
     8
100
AcDbLine
 10
155.912286
 20
49.722912
 30
0.0
 11
155.999439
 21
49.472194
 31
0.0
  0
LINE
  5
479
330
1D
100
AcDbEntity
  8
CutLine
  6
Continuous
 62
     8
100
AcDbLine
 10
155.999439
 20
49.472194
 30
0.0
 11
156.093757
 21
49.216702
 31
0.0
  0
LINE
  5
47A
330
1D
100
AcDbEntity
  8
CutLine
  6
Continuous
 62
     8
100
AcDbLine
 10
155.832294
 20
49.968853
 30
0.0
 11
155.912286
 21
49.722912
 31
0.0
  0
LINE
  5
47B
330
1D
100
AcDbEntity
  8
CutLine
  6
Continuous
 62
     8
100
AcDbLine
 10
164.433828
 20
30.572947
 30
0.0
 11
164.847511
 21
31.017669
 31
0.0
  0
LINE
  5
47C
330
1D
100
AcDbEntity
  8
CutLine
  6
Continuous
 62
     8
100
AcDbLine
 10
164.847511
 20
31.017669
 30
0.0
 11
165.259204
 21
31.487464
 31
0.0
  0
LINE
  5
47D
330
1D
100
AcDbEntity
  8
CutLine
  6
Continuous
 62
     8
100
AcDbLine
 10
165.259204
 20
31.487464
 30
0.0
 11
164.805526
 21
31.562079
 31
0.0
  0
LINE
  5
47E
330
1D
100
AcDbEntity
  8
CutLine
  6
Continuous
 62
     8
100
AcDbLine
 10
157.637411
 20
21.34421
 30
0.0
 11
157.637405
 21
17.705243
 31
0.0
  0
LINE
  5
47F
330
1D
100
AcDbEntity
  8
CutLine
  6
Continuous
 62
     8
100
AcDbLine
 10
157.637405
 20
17.705243
 30
0.0
 11
157.661084
 21
17.3994
 31
0.0
  0
LINE
  5
480
330
1D
100
AcDbEntity
  8
CutLine
  6
Continuous
 62
     8
100
AcDbLine
 10
169.242028
 20
43.092042
 30
0.0
 11
169.545473
 21
42.99315
 31
0.0
  0
LINE
  5
481
330
1D
100
AcDbEntity
  8
CutLine
  6
Continuous
 62
     8
100
AcDbLine
 10
169.545473
 20
42.99315
 30
0.0
 11
169.854092
 21
42.906593
 31
0.0
  0
LINE
  5
482
330
1D
100
AcDbEntity
  8
CutLine
  6
Continuous
 62
     8
100
AcDbLine
 10
145.316505
 20
26.788353
 30
0.0
 11
145.316507
 21
28.59351
 31
0.0
  0
LINE
  5
483
330
1D
100
AcDbEntity
  8
CutLine
  6
Continuous
 62
     8
100
AcDbLine
 10
145.316507
 20
28.59351
 30
0.0
 11
144.480781
 21
28.833883
 31
0.0
  0
LINE
  5
484
330
1D
100
AcDbEntity
  8
CutLine
  6
Continuous
 62
     8
100
AcDbLine
 10
138.799483
 20
36.848851
 30
0.0
 11
138.870517
 21
37.224329
 31
0.0
  0
LINE
  5
485
330
1D
100
AcDbEntity
  8
CutLine
  6
Continuous
 62
     8
100
AcDbLine
 10
138.870517
 20
37.224329
 30
0.0
 11
138.933992
 21
37.612143
 31
0.0
  0
LINE
  5
486
330
1D
100
AcDbEntity
  8
CutLine
  6
Continuous
 62
     8
100
AcDbLine
 10
138.933992
 20
37.612143
 30
0.0
 11
138.989912
 21
38.012294
 31
0.0
  0
LINE
  5
487
330
1D
100
AcDbEntity
  8
CutLine
  6
Continuous
 62
     8
100
AcDbLine
 10
138.989912
 20
38.012294
 30
0.0
 11
139.038263
 21
38.424782
 31
0.0
  0
LINE
  5
488
330
1D
100
AcDbEntity
  8
CutLine
  6
Continuous
 62
     8
100
AcDbLine
 10
139.038263
 20
38.424782
 30
0.0
 11
139.079055
 21
38.849607
 31
0.0
  0
LINE
  5
489
330
1D
100
AcDbEntity
  8
CutLine
  6
Continuous
 62
     8
100
AcDbLine
 10
139.079055
 20
38.849607
 30
0.0
 11
139.112285
 21
39.286769
 31
0.0
  0
LINE
  5
48A
330
1D
100
AcDbEntity
  8
CutLine
  6
Continuous
 62
     8
100
AcDbLine
 10
138.439727
 20
35.470311
 30
0.0
 11
138.541007
 21
35.796439
 31
0.0
  0
LINE
  5
48B
330
1D
100
AcDbEntity
  8
CutLine
  6
Continuous
 62
     8
100
AcDbLine
 10
138.720886
 20
36.485711
 30
0.0
 11
138.799483
 21
36.848851
 31
0.0
  0
LINE
  5
48C
330
1D
100
AcDbEntity
  8
CutLine
  6
Continuous
 62
     8
100
AcDbLine
 10
145.943528
 20
50.276292
 30
0.0
 11
146.582855
 21
50.233909
 31
0.0
  0
LINE
  5
48D
330
1D
100
AcDbEntity
  8
CutLine
  6
Continuous
 62
     8
100
AcDbLine
 10
146.582855
 20
50.233909
 30
0.0
 11
147.234519
 21
50.214208
 31
0.0
  0
LINE
  5
48E
330
1D
100
AcDbEntity
  8
CutLine
  6
Continuous
 62
     8
100
AcDbLine
 10
145.316539
 20
50.34136
 30
0.0
 11
145.943528
 21
50.276292
 31
0.0
  0
LINE
  5
48F
330
1D
100
AcDbEntity
  8
CutLine
  6
Continuous
 62
     8
100
AcDbLine
 10
147.89852
 20
50.217192
 30
0.0
 11
148.574856
 21
50.242861
 31
0.0
  0
LINE
  5
490
330
1D
100
AcDbEntity
  8
CutLine
  6
Continuous
 62
     8
100
AcDbLine
 10
148.574856
 20
50.242861
 30
0.0
 11
149.263529
 21
50.291211
 31
0.0
  0
LINE
  5
491
330
1D
100
AcDbEntity
  8
CutLine
  6
Continuous
 62
     8
100
AcDbLine
 10
149.263529
 20
50.291211
 30
0.0
 11
149.964541
 21
50.362247
 31
0.0
  0
LINE
  5
492
330
1D
100
AcDbEntity
  8
CutLine
  6
Continuous
 62
     8
100
AcDbLine
 10
149.964541
 20
50.362247
 30
0.0
 11
150.677889
 21
50.455966
 31
0.0
  0
LINE
  5
493
330
1D
100
AcDbEntity
  8
CutLine
  6
Continuous
 62
     8
100
AcDbLine
 10
147.234519
 20
50.214208
 30
0.0
 11
147.89852
 21
50.217192
 31
0.0
  0
LINE
  5
494
330
1D
100
AcDbEntity
  8
CutLine
  6
Continuous
 62
     8
100
AcDbLine
 10
157.0023
 20
45.714434
 30
0.0
 11
156.787398
 21
44.708584
 31
0.0
  0
LINE
  5
495
330
1D
100
AcDbEntity
  8
CutLine
  6
Continuous
 62
     8
100
AcDbLine
 10
156.787398
 20
44.708584
 30
0.0
 11
156.620252
 21
43.684827
 31
0.0
  0
LINE
  5
496
330
1D
100
AcDbEntity
  8
CutLine
  6
Continuous
 62
     8
100
AcDbLine
 10
156.620252
 20
43.684827
 30
0.0
 11
156.500861
 21
42.643159
 31
0.0
  0
LINE
  5
497
330
1D
100
AcDbEntity
  8
CutLine
  6
Continuous
 62
     8
100
AcDbLine
 10
156.500861
 20
42.643159
 30
0.0
 11
156.429228
 21
41.583585
 31
0.0
  0
LINE
  5
498
330
1D
100
AcDbEntity
  8
CutLine
  6
Continuous
 62
     8
100
AcDbLine
 10
157.264955
 20
46.702375
 30
0.0
 11
157.0023
 21
45.714434
 31
0.0
  0
LINE
  5
499
330
1D
100
AcDbEntity
  8
CutLine
  6
Continuous
 62
     8
100
AcDbLine
 10
159.882538
 20
34.556359
 30
0.0
 11
159.932084
 21
35.090623
 31
0.0
  0
LINE
  5
49A
330
1D
100
AcDbEntity
  8
CutLine
  6
Continuous
 62
     8
100
AcDbLine
 10
159.932084
 20
35.090623
 30
0.0
 11
159.963723
 21
35.640408
 31
0.0
  0
LINE
  5
49B
330
1D
100
AcDbEntity
  8
CutLine
  6
Continuous
 62
     8
100
AcDbLine
 10
159.963723
 20
35.640408
 30
0.0
 11
159.977452
 21
36.205714
 31
0.0
  0
LINE
  5
49C
330
1D
100
AcDbEntity
  8
CutLine
  6
Continuous
 62
     8
100
AcDbLine
 10
159.977452
 20
36.205714
 30
0.0
 11
159.973274
 21
36.78654
 31
0.0
  0
LINE
  5
49D
330
1D
100
AcDbEntity
  8
CutLine
  6
Continuous
 62
     8
100
AcDbLine
 10
159.815081
 20
34.037615
 30
0.0
 11
159.882538
 21
34.556359
 31
0.0
  0
LINE
  5
49E
330
1D
100
AcDbEntity
  8
CutLine
  6
Continuous
 62
     8
100
AcDbLine
 10
157.145547
 20
32.635996
 30
0.0
 11
157.10376
 21
32.094569
 31
0.0
  0
LINE
  5
49F
330
1D
100
AcDbEntity
  8
CutLine
  6
Continuous
 62
     8
100
AcDbLine
 10
157.10376
 20
32.094569
 30
0.0
 11
157.073912
 21
31.535234
 31
0.0
  0
LINE
  5
4A0
330
1D
100
AcDbEntity
  8
CutLine
  6
Continuous
 62
     8
100
AcDbLine
 10
157.073912
 20
31.535234
 30
0.0
 11
157.056002
 21
30.957991
 31
0.0
  0
LINE
  5
4A1
330
1D
100
AcDbEntity
  8
CutLine
  6
Continuous
 62
     8
100
AcDbLine
 10
157.056002
 20
30.957991
 30
0.0
 11
157.050032
 21
30.362837
 31
0.0
  0
LINE
  5
4A2
330
1D
100
AcDbEntity
  8
CutLine
  6
Continuous
 62
     8
100
AcDbLine
 10
157.264936
 20
33.665126
 30
0.0
 11
157.199272
 21
33.159515
 31
0.0
  0
LINE
  5
4A3
330
1D
100
AcDbEntity
  8
CutLine
  6
Continuous
 62
     8
100
AcDbLine
 10
157.199272
 20
33.159515
 30
0.0
 11
157.145547
 21
32.635996
 31
0.0
  0
LINE
  5
4A4
330
1D
100
AcDbEntity
  8
CutLine
  6
Continuous
 62
     8
100
AcDbLine
 10
160.187565
 20
27.504664
 30
0.0
 11
160.621145
 21
27.698667
 31
0.0
  0
LINE
  5
4A5
330
1D
100
AcDbEntity
  8
CutLine
  6
Continuous
 62
     8
100
AcDbLine
 10
160.621145
 20
27.698667
 30
0.0
 11
161.052737
 21
27.917744
 31
0.0
  0
LINE
  5
4A6
330
1D
100
AcDbEntity
  8
CutLine
  6
Continuous
 62
     8
100
AcDbLine
 10
160.18755
 20
17.361402
 30
0.0
 11
160.187554
 21
19.882889
 31
0.0
  0
LINE
  5
4A7
330
1D
100
AcDbEntity
  8
CutLine
  6
Continuous
 62
     8
100
AcDbLine
 10
160.187554
 20
19.882889
 30
0.0
 11
160.187556
 21
20.971713
 31
0.0
  0
LINE
  5
4A8
330
1D
100
AcDbEntity
  8
CutLine
  6
Continuous
 62
     8
100
AcDbLine
 10
160.187556
 20
20.971713
 30
0.0
 11
159.815062
 21
22.060538
 31
0.0
  0
LINE
  5
4A9
330
1D
100
AcDbEntity
  8
CutLine
  6
Continuous
 62
     8
100
AcDbLine
 10
224.764665
 20
94.83594
 30
0.0
 11
222.902201
 21
94.463447
 31
0.0
  0
LINE
  5
4AA
330
1D
100
AcDbEntity
  8
CutLine
  6
Continuous
 62
     8
100
AcDbLine
 10
222.902201
 20
94.463447
 30
0.0
 11
222.58622
 21
93.637476
 31
0.0
  0
LINE
  5
4AB
330
1D
100
AcDbEntity
  8
CutLine
  6
Continuous
 62
     8
100
AcDbLine
 10
206.631105
 20
76.231202
 30
0.0
 11
205.687932
 21
75.393093
 31
0.0
  0
LINE
  5
4AC
330
1D
100
AcDbEntity
  8
CutLine
  6
Continuous
 62
     8
100
AcDbLine
 10
207.572684
 20
77.271475
 30
0.0
 11
206.631105
 21
76.231202
 31
0.0
  0
LINE
  5
4AD
330
1D
100
AcDbEntity
  8
CutLine
  6
Continuous
 62
     8
100
AcDbLine
 10
238.227931
 20
93.246867
 30
0.0
 11
237.185072
 21
92.567548
 31
0.0
  0
LINE
  5
4AE
330
1D
100
AcDbEntity
  8
CutLine
  6
Continuous
 62
     8
100
AcDbLine
 10
238.378957
 20
87.53054
 30
0.0
 11
239.234576
 21
87.099546
 31
0.0
  0
LINE
  5
4AF
330
1D
100
AcDbEntity
  8
CutLine
  6
Continuous
 62
     8
100
AcDbLine
 10
207.056922
 20
79.248551
 30
0.0
 11
207.572684
 21
77.271475
 31
0.0
  0
LINE
  5
4B0
330
1D
100
AcDbEntity
  8
CutLine
  6
Continuous
 62
     8
100
AcDbLine
 10
210.667238
 20
75.494969
 30
0.0
 11
209.148614
 21
81.111015
 31
0.0
  0
LINE
  5
4B1
330
1D
100
AcDbEntity
  8
CutLine
  6
Continuous
 62
     8
100
AcDbLine
 10
222.58622
 20
93.637476
 30
0.0
 11
222.316401
 21
92.792802
 31
0.0
  0
LINE
  5
4B2
330
1D
100
AcDbEntity
  8
CutLine
  6
Continuous
 62
     8
100
AcDbLine
 10
226.169671
 20
93.867696
 30
0.0
 11
224.764665
 21
94.83594
 31
0.0
  0
LINE
  5
4B3
330
1D
100
AcDbEntity
  8
CutLine
  6
Continuous
 62
     8
100
AcDbLine
 10
210.136358
 20
81.90694
 30
0.0
 11
210.525765
 21
82.371761
 31
0.0
  0
LINE
  5
4B4
330
1D
100
AcDbEntity
  8
CutLine
  6
Continuous
 62
     8
100
AcDbLine
 10
210.525765
 20
82.371761
 30
0.0
 11
210.845527
 21
82.881153
 31
0.0
  0
LINE
  5
4B5
330
1D
100
AcDbEntity
  8
CutLine
  6
Continuous
 62
     8
100
AcDbLine
 10
209.677309
 20
81.486692
 30
0.0
 11
210.136358
 21
81.90694
 31
0.0
  0
LINE
  5
4B6
330
1D
100
AcDbEntity
  8
CutLine
  6
Continuous
 62
     8
100
AcDbLine
 10
210.845527
 20
82.881153
 30
0.0
 11
211.095647
 21
83.435117
 31
0.0
  0
LINE
  5
4B7
330
1D
100
AcDbEntity
  8
CutLine
  6
Continuous
 62
     8
100
AcDbLine
 10
209.148614
 20
81.111015
 30
0.0
 11
209.677309
 21
81.486692
 31
0.0
  0
LINE
  5
4B8
330
1D
100
AcDbEntity
  8
CutLine
  6
Continuous
 62
     8
100
AcDbLine
 10
207.159594
 20
79.950558
 30
0.0
 11
207.111244
 21
79.600749
 31
0.0
  0
LINE
  5
4B9
330
1D
100
AcDbEntity
  8
CutLine
  6
Continuous
 62
     8
100
AcDbLine
 10
197.12776
 20
80.817322
 30
0.0
 11
197.208349
 21
81.145044
 31
0.0
  0
LINE
  5
4BA
330
1D
100
AcDbEntity
  8
CutLine
  6
Continuous
 62
     8
100
AcDbLine
 10
197.208349
 20
81.145044
 30
0.0
 11
197.286152
 21
81.483511
 31
0.0
  0
LINE
  5
4BB
330
1D
100
AcDbEntity
  8
CutLine
  6
Continuous
 62
     8
100
AcDbLine
 10
197.286152
 20
81.483511
 30
0.0
 11
197.213523
 21
82.00345
 31
0.0
  0
LINE
  5
4BC
330
1D
100
AcDbEntity
  8
CutLine
  6
Continuous
 62
     8
100
AcDbLine
 10
211.276124
 20
84.033653
 30
0.0
 11
211.386956
 21
84.676759
 31
0.0
  0
LINE
  5
4BD
330
1D
100
AcDbEntity
  8
CutLine
  6
Continuous
 62
     8
100
AcDbLine
 10
210.570139
 20
92.437824
 30
0.0
 11
210.599988
 21
92.701075
 31
0.0
  0
LINE
  5
4BE
330
1D
100
AcDbEntity
  8
CutLine
  6
Continuous
 62
     8
100
AcDbLine
 10
210.599988
 20
92.701075
 30
0.0
 11
210.63859
 21
92.973479
 31
0.0
  0
LINE
  5
4BF
330
1D
100
AcDbEntity
  8
CutLine
  6
Continuous
 62
     8
100
AcDbLine
 10
210.63859
 20
92.973479
 30
0.0
 11
210.599192
 21
93.240117
 31
0.0
  0
LINE
  5
4C0
330
1D
100
AcDbEntity
  8
CutLine
  6
Continuous
 62
     8
100
AcDbLine
 10
207.056132
 20
92.556416
 30
0.0
 11
207.001809
 21
92.210189
 31
0.0
  0
LINE
  5
4C1
330
1D
100
AcDbEntity
  8
CutLine
  6
Continuous
 62
     8
100
AcDbLine
 10
207.001809
 20
92.210189
 30
0.0
 11
206.942313
 21
91.856003
 31
0.0
  0
LINE
  5
4C2
330
1D
100
AcDbEntity
  8
CutLine
  6
Continuous
 62
     8
100
AcDbLine
 10
206.942313
 20
91.856003
 30
0.0
 11
207.014941
 21
91.340444
 31
0.0
  0
LINE
  5
4C3
330
1D
100
AcDbEntity
  8
CutLine
  6
Continuous
 62
     8
100
AcDbLine
 10
211.428146
 20
85.364438
 30
0.0
 11
211.399691
 21
86.096689
 31
0.0
  0
LINE
  5
4C4
330
1D
100
AcDbEntity
  8
CutLine
  6
Continuous
 62
     8
100
AcDbLine
 10
211.386956
 20
84.676759
 30
0.0
 11
211.428146
 21
85.364438
 31
0.0
  0
LINE
  5
4C5
330
1D
100
AcDbEntity
  8
CutLine
  6
Continuous
 62
     8
100
AcDbLine
 10
211.301595
 20
86.873511
 30
0.0
 11
211.133853
 21
87.694906
 31
0.0
  0
LINE
  5
4C6
330
1D
100
AcDbEntity
  8
CutLine
  6
Continuous
 62
     8
100
AcDbLine
 10
211.399691
 20
86.096689
 30
0.0
 11
211.301595
 21
86.873511
 31
0.0
  0
LINE
  5
4C7
330
1D
100
AcDbEntity
  8
CutLine
  6
Continuous
 62
     8
100
AcDbLine
 10
222.316401
 20
92.792802
 30
0.0
 11
222.092745
 21
91.929421
 31
0.0
  0
LINE
  5
4C8
330
1D
100
AcDbEntity
  8
CutLine
  6
Continuous
 62
     8
100
AcDbLine
 10
227.538462
 20
93.064208
 30
0.0
 11
226.169671
 21
93.867696
 31
0.0
  0
LINE
  5
4C9
330
1D
100
AcDbEntity
  8
CutLine
  6
Continuous
 62
     8
100
AcDbLine
 10
221.915253
 20
91.047338
 30
0.0
 11
221.783926
 21
90.146549
 31
0.0
  0
LINE
  5
4CA
330
1D
100
AcDbEntity
  8
CutLine
  6
Continuous
 62
     8
100
AcDbLine
 10
222.092745
 20
91.929421
 30
0.0
 11
221.915253
 21
91.047338
 31
0.0
  0
LINE
  5
4CB
330
1D
100
AcDbEntity
  8
CutLine
  6
Continuous
 62
     8
100
AcDbLine
 10
206.942316
 20
104.119611
 30
0.0
 11
206.800453
 21
103.478099
 31
0.0
  0
LINE
  5
4CC
330
1D
100
AcDbEntity
  8
CutLine
  6
Continuous
 62
     8
100
AcDbLine
 10
206.800453
 20
103.478099
 30
0.0
 11
206.690017
 21
102.823848
 31
0.0
  0
LINE
  5
4CD
330
1D
100
AcDbEntity
  8
CutLine
  6
Continuous
 62
     8
100
AcDbLine
 10
221.698761
 20
89.227058
 30
0.0
 11
221.65976
 21
88.288862
 31
0.0
  0
LINE
  5
4CE
330
1D
100
AcDbEntity
  8
CutLine
  6
Continuous
 62
     8
100
AcDbLine
 10
221.783926
 20
90.146549
 30
0.0
 11
221.698761
 21
89.227058
 31
0.0
  0
LINE
  5
4CF
330
1D
100
AcDbEntity
  8
CutLine
  6
Continuous
 62
     8
100
AcDbLine
 10
206.611022
 20
102.156863
 30
0.0
 11
206.563464
 21
101.477143
 31
0.0
  0
LINE
  5
4D0
330
1D
100
AcDbEntity
  8
CutLine
  6
Continuous
 62
     8
100
AcDbLine
 10
206.690017
 20
102.823848
 30
0.0
 11
206.611022
 21
102.156863
 31
0.0
  0
LINE
  5
4D1
330
1D
100
AcDbEntity
  8
CutLine
  6
Continuous
 62
     8
100
AcDbLine
 10
221.666923
 20
87.331962
 30
0.0
 11
221.72025
 21
86.356356
 31
0.0
  0
LINE
  5
4D2
330
1D
100
AcDbEntity
  8
CutLine
  6
Continuous
 62
     8
100
AcDbLine
 10
221.65976
 20
88.288862
 30
0.0
 11
221.666923
 21
87.331962
 31
0.0
  0
LINE
  5
4D3
330
1D
100
AcDbEntity
  8
CutLine
  6
Continuous
 62
     8
100
AcDbLine
 10
206.547345
 20
100.784688
 30
0.0
 11
206.562667
 21
100.079498
 31
0.0
  0
LINE
  5
4D4
330
1D
100
AcDbEntity
  8
CutLine
  6
Continuous
 62
     8
100
AcDbLine
 10
206.563464
 20
101.477143
 30
0.0
 11
206.547345
 21
100.784688
 31
0.0
  0
LINE
  5
4D5
330
1D
100
AcDbEntity
  8
CutLine
  6
Continuous
 62
     8
100
AcDbLine
 10
197.251129
 20
92.14413
 30
0.0
 11
197.350623
 21
93.220619
 31
0.0
  0
LINE
  5
4D6
330
1D
100
AcDbEntity
  8
CutLine
  6
Continuous
 62
     8
100
AcDbLine
 10
196.913658
 20
90.022193
 30
0.0
 11
197.105476
 21
91.077988
 31
0.0
  0
LINE
  5
4D7
330
1D
100
AcDbEntity
  8
CutLine
  6
Continuous
 62
     8
100
AcDbLine
 10
197.105476
 20
91.077988
 30
0.0
 11
197.251129
 21
92.14413
 31
0.0
  0
LINE
  5
4D8
330
1D
100
AcDbEntity
  8
CutLine
  6
Continuous
 62
     8
100
AcDbLine
 10
221.819741
 20
85.362047
 30
0.0
 11
221.965396
 21
84.349035
 31
0.0
  0
LINE
  5
4D9
330
1D
100
AcDbEntity
  8
CutLine
  6
Continuous
 62
     8
100
AcDbLine
 10
221.72025
 20
86.356356
 30
0.0
 11
221.819741
 21
85.362047
 31
0.0
  0
LINE
  5
4DA
330
1D
100
AcDbEntity
  8
CutLine
  6
Continuous
 62
     8
100
AcDbLine
 10
197.403949
 20
94.307454
 30
0.0
 11
197.411113
 21
95.404636
 31
0.0
  0
LINE
  5
4DB
330
1D
100
AcDbEntity
  8
CutLine
  6
Continuous
 62
     8
100
AcDbLine
 10
197.350623
 20
93.220619
 30
0.0
 11
197.403949
 21
94.307454
 31
0.0
  0
LINE
  5
4DC
330
1D
100
AcDbEntity
  8
CutLine
  6
Continuous
 62
     8
100
AcDbLine
 10
206.609426
 20
99.361575
 30
0.0
 11
206.687624
 21
98.630915
 31
0.0
  0
LINE
  5
4DD
330
1D
100
AcDbEntity
  8
CutLine
  6
Continuous
 62
     8
100
AcDbLine
 10
206.562667
 20
100.079498
 30
0.0
 11
206.609426
 21
99.361575
 31
0.0
  0
LINE
  5
4DE
330
1D
100
AcDbEntity
  8
CutLine
  6
Continuous
 62
     8
100
AcDbLine
 10
197.372113
 20
96.512164
 30
0.0
 11
197.286949
 21
97.630042
 31
0.0
  0
LINE
  5
4DF
330
1D
100
AcDbEntity
  8
CutLine
  6
Continuous
 62
     8
100
AcDbLine
 10
197.411113
 20
95.404636
 30
0.0
 11
197.372113
 21
96.512164
 31
0.0
  0
LINE
  5
4E0
330
1D
100
AcDbEntity
  8
CutLine
  6
Continuous
 62
     8
100
AcDbLine
 10
197.155622
 20
98.758264
 30
0.0
 11
196.978131
 21
99.896834
 31
0.0
  0
LINE
  5
4E1
330
1D
100
AcDbEntity
  8
CutLine
  6
Continuous
 62
     8
100
AcDbLine
 10
197.286949
 20
97.630042
 30
0.0
 11
197.155622
 21
98.758264
 31
0.0
  0
LINE
  5
4E2
330
1D
100
AcDbEntity
  8
CutLine
  6
Continuous
 62
     8
100
AcDbLine
 10
206.797263
 20
97.887522
 30
0.0
 11
206.938339
 21
97.131393
 31
0.0
  0
LINE
  5
4E3
330
1D
100
AcDbEntity
  8
CutLine
  6
Continuous
 62
     8
100
AcDbLine
 10
206.687624
 20
98.630915
 30
0.0
 11
206.797263
 21
97.887522
 31
0.0
  0
LINE
  5
4E4
330
1D
100
AcDbEntity
  8
CutLine
  6
Continuous
 62
     8
100
AcDbLine
 10
196.754476
 20
101.045751
 30
0.0
 11
196.484657
 21
102.205017
 31
0.0
  0
LINE
  5
4E5
330
1D
100
AcDbEntity
  8
CutLine
  6
Continuous
 62
     8
100
AcDbLine
 10
196.978131
 20
99.896834
 30
0.0
 11
196.754476
 21
101.045751
 31
0.0
  0
LINE
  5
4E6
330
1D
100
AcDbEntity
  8
CutLine
  6
Continuous
 62
     8
100
AcDbLine
 10
212.407933
 20
98.969183
 30
0.0
 11
212.684715
 21
99.410324
 31
0.0
  0
LINE
  5
4E7
330
1D
100
AcDbEntity
  8
CutLine
  6
Continuous
 62
     8
100
AcDbLine
 10
196.382768
 20
78.582366
 30
0.0
 11
196.485638
 21
78.824128
 31
0.0
  0
LINE
  5
4E8
330
1D
100
AcDbEntity
  8
CutLine
  6
Continuous
 62
     8
100
AcDbLine
 10
196.168668
 20
78.131076
 30
0.0
 11
196.277109
 21
78.351348
 31
0.0
  0
LINE
  5
4E9
330
1D
100
AcDbEntity
  8
CutLine
  6
Continuous
 62
     8
100
AcDbLine
 10
196.277109
 20
78.351348
 30
0.0
 11
196.382768
 21
78.582366
 31
0.0
  0
LINE
  5
4EA
330
1D
100
AcDbEntity
  8
CutLine
  6
Continuous
 62
     8
100
AcDbLine
 10
212.956324
 20
99.869374
 30
0.0
 11
213.22276
 21
100.346331
 31
0.0
  0
LINE
  5
4EB
330
1D
100
AcDbEntity
  8
CutLine
  6
Continuous
 62
     8
100
AcDbLine
 10
212.684715
 20
99.410324
 30
0.0
 11
212.956324
 21
99.869374
 31
0.0
  0
LINE
  5
4EC
330
1D
100
AcDbEntity
  8
CutLine
  6
Continuous
 62
     8
100
AcDbLine
 10
196.585729
 20
79.076635
 30
0.0
 11
196.68303
 21
79.339887
 31
0.0
  0
LINE
  5
4ED
330
1D
100
AcDbEntity
  8
CutLine
  6
Continuous
 62
     8
100
AcDbLine
 10
196.485638
 20
78.824128
 30
0.0
 11
196.585729
 21
79.076635
 31
0.0
  0
LINE
  5
4EE
330
1D
100
AcDbEntity
  8
CutLine
  6
Continuous
 62
     8
100
AcDbLine
 10
213.484024
 20
100.841197
 30
0.0
 11
213.740112
 21
101.353972
 31
0.0
  0
LINE
  5
4EF
330
1D
100
AcDbEntity
  8
CutLine
  6
Continuous
 62
     8
100
AcDbLine
 10
213.22276
 20
100.346331
 30
0.0
 11
213.484024
 21
100.841197
 31
0.0
  0
LINE
  5
4F0
330
1D
100
AcDbEntity
  8
CutLine
  6
Continuous
 62
     8
100
AcDbLine
 10
196.777548
 20
79.613884
 30
0.0
 11
196.86928
 21
79.898627
 31
0.0
  0
LINE
  5
4F1
330
1D
100
AcDbEntity
  8
CutLine
  6
Continuous
 62
     8
100
AcDbLine
 10
196.68303
 20
79.339887
 30
0.0
 11
196.777548
 21
79.613884
 31
0.0
  0
LINE
  5
4F2
330
1D
100
AcDbEntity
  8
CutLine
  6
Continuous
 62
     8
100
AcDbLine
 10
226.225978
 20
77.070896
 30
0.0
 11
226.179217
 21
77.347679
 31
0.0
  0
LINE
  5
4F3
330
1D
100
AcDbEntity
  8
CutLine
  6
Continuous
 62
     8
100
AcDbLine
 10
226.179217
 20
77.347679
 30
0.0
 11
226.124895
 21
77.633615
 31
0.0
  0
LINE
  5
4F4
330
1D
100
AcDbEntity
  8
CutLine
  6
Continuous
 62
     8
100
AcDbLine
 10
196.958225
 20
80.194113
 30
0.0
 11
197.044387
 21
80.500345
 31
0.0
  0
LINE
  5
4F5
330
1D
100
AcDbEntity
  8
CutLine
  6
Continuous
 62
     8
100
AcDbLine
 10
196.86928
 20
79.898627
 30
0.0
 11
196.958225
 21
80.194113
 31
0.0
  0
LINE
  5
4F6
330
1D
100
AcDbEntity
  8
CutLine
  6
Continuous
 62
     8
100
AcDbLine
 10
226.063012
 20
77.928704
 30
0.0
 11
225.993567
 21
78.232947
 31
0.0
  0
LINE
  5
4F7
330
1D
100
AcDbEntity
  8
CutLine
  6
Continuous
 62
     8
100
AcDbLine
 10
226.124895
 20
77.633615
 30
0.0
 11
226.063012
 21
77.928704
 31
0.0
  0
LINE
  5
4F8
330
1D
100
AcDbEntity
  8
CutLine
  6
Continuous
 62
     8
100
AcDbLine
 10
225.916563
 20
78.546342
 30
0.0
 11
225.831995
 21
78.868891
 31
0.0
  0
LINE
  5
4F9
330
1D
100
AcDbEntity
  8
CutLine
  6
Continuous
 62
     8
100
AcDbLine
 10
225.993567
 20
78.232947
 30
0.0
 11
225.916563
 21
78.546342
 31
0.0
  0
LINE
  5
4FA
330
1D
100
AcDbEntity
  8
CutLine
  6
Continuous
 62
     8
100
AcDbLine
 10
225.739867
 20
79.200593
 30
0.0
 11
225.640177
 21
79.541447
 31
0.0
  0
LINE
  5
4FB
330
1D
100
AcDbEntity
  8
CutLine
  6
Continuous
 62
     8
100
AcDbLine
 10
225.831995
 20
78.868891
 30
0.0
 11
225.739867
 21
79.200593
 31
0.0
  0
LINE
  5
4FC
330
1D
100
AcDbEntity
  8
CutLine
  6
Continuous
 62
     8
100
AcDbLine
 10
225.532926
 20
79.891455
 30
0.0
 11
225.418115
 21
80.250616
 31
0.0
  0
LINE
  5
4FD
330
1D
100
AcDbEntity
  8
CutLine
  6
Continuous
 62
     8
100
AcDbLine
 10
225.640177
 20
79.541447
 30
0.0
 11
225.532926
 21
79.891455
 31
0.0
  0
LINE
  5
4FE
330
1D
100
AcDbEntity
  8
CutLine
  6
Continuous
 62
     8
100
AcDbLine
 10
225.418115
 20
80.250616
 30
0.0
 11
225.295742
 21
80.618931
 31
0.0
  0
LINE
  5
4FF
330
1D
100
AcDbEntity
  8
CutLine
  6
Continuous
 62
     8
100
AcDbLine
 10
207.325353
 20
85.156106
 30
0.0
 11
207.314806
 21
84.434799
 31
0.0
  0
LINE
  5
500
330
1D
100
AcDbEntity
  8
CutLine
  6
Continuous
 62
     8
100
AcDbLine
 10
207.314806
 20
84.434799
 30
0.0
 11
207.314806
 21
83.31732
 31
0.0
  0
LINE
  5
501
330
1D
100
AcDbEntity
  8
CutLine
  6
Continuous
 62
     8
100
AcDbLine
 10
207.314806
 20
83.31732
 30
0.0
 11
207.326142
 21
82.991389
 31
0.0
  0
LINE
  5
502
330
1D
100
AcDbEntity
  8
CutLine
  6
Continuous
 62
     8
100
AcDbLine
 10
211.582553
 20
74.800922
 30
0.0
 11
211.096641
 21
75.116109
 31
0.0
  0
LINE
  5
503
330
1D
100
AcDbEntity
  8
CutLine
  6
Continuous
 62
     8
100
AcDbLine
 10
211.096641
 20
75.116109
 30
0.0
 11
210.667238
 21
75.494969
 31
0.0
  0
LINE
  5
504
330
1D
100
AcDbEntity
  8
CutLine
  6
Continuous
 62
     8
100
AcDbLine
 10
210.566957
 20
93.51471
 30
0.0
 11
210.541886
 21
93.797262
 31
0.0
  0
LINE
  5
505
330
1D
100
AcDbEntity
  8
CutLine
  6
Continuous
 62
     8
100
AcDbLine
 10
210.599192
 20
93.240117
 30
0.0
 11
210.566957
 21
93.51471
 31
0.0
  0
LINE
  5
506
330
1D
100
AcDbEntity
  8
CutLine
  6
Continuous
 62
     8
100
AcDbLine
 10
197.044387
 20
80.500345
 30
0.0
 11
197.12776
 21
80.817322
 31
0.0
  0
LINE
  5
507
330
1D
100
AcDbEntity
  8
CutLine
  6
Continuous
 62
     8
100
AcDbLine
 10
197.213523
 20
82.00345
 30
0.0
 11
197.148458
 21
82.541297
 31
0.0
  0
LINE
  5
508
330
1D
100
AcDbEntity
  8
CutLine
  6
Continuous
 62
     8
100
AcDbLine
 10
236.696965
 20
78.080922
 30
0.0
 11
235.904423
 21
76.816198
 31
0.0
  0
LINE
  5
509
330
1D
100
AcDbEntity
  8
CutLine
  6
Continuous
 62
     8
100
AcDbLine
 10
237.396782
 20
79.633772
 30
0.0
 11
236.696965
 21
78.080922
 31
0.0
  0
LINE
  5
50A
330
1D
100
AcDbEntity
  8
CutLine
  6
Continuous
 62
     8
100
AcDbLine
 10
203.796814
 20
74.32337
 30
0.0
 11
202.848869
 21
74.091756
 31
0.0
  0
LINE
  5
50B
330
1D
100
AcDbEntity
  8
CutLine
  6
Continuous
 62
     8
100
AcDbLine
 10
204.743169
 20
74.757149
 30
0.0
 11
203.796814
 21
74.32337
 31
0.0
  0
LINE
  5
50C
330
1D
100
AcDbEntity
  8
CutLine
  6
Continuous
 62
     8
100
AcDbLine
 10
211.133853
 20
87.694906
 30
0.0
 11
210.896469
 21
88.560872
 31
0.0
  0
LINE
  5
50D
330
1D
100
AcDbEntity
  8
CutLine
  6
Continuous
 62
     8
100
AcDbLine
 10
210.695497
 20
90.480443
 30
0.0
 11
210.646546
 21
90.661317
 31
0.0
  0
LINE
  5
50E
330
1D
100
AcDbEntity
  8
CutLine
  6
Continuous
 62
     8
100
AcDbLine
 10
210.523978
 20
94.087775
 30
0.0
 11
210.513232
 21
94.386248
 31
0.0
  0
LINE
  5
50F
330
1D
100
AcDbEntity
  8
CutLine
  6
Continuous
 62
     8
100
AcDbLine
 10
210.541886
 20
93.797262
 30
0.0
 11
210.523978
 21
94.087775
 31
0.0
  0
LINE
  5
510
330
1D
100
AcDbEntity
  8
CutLine
  6
Continuous
 62
     8
100
AcDbLine
 10
202.848869
 20
74.091756
 30
0.0
 11
201.89933
 21
74.062308
 31
0.0
  0
LINE
  5
511
330
1D
100
AcDbEntity
  8
CutLine
  6
Continuous
 62
     8
100
AcDbLine
 10
212.723909
 20
74.361573
 30
0.0
 11
212.124976
 21
74.54941
 31
0.0
  0
LINE
  5
512
330
1D
100
AcDbEntity
  8
CutLine
  6
Continuous
 62
     8
100
AcDbLine
 10
186.833263
 20
59.999999
 30
0.0
 11
246.833261
 21
60.000001
 31
0.0
  0
LINE
  5
513
330
1D
100
AcDbEntity
  8
CutLine
  6
Continuous
 62
     8
100
AcDbLine
 10
234.041164
 20
75.151123
 30
0.0
 11
232.970445
 21
74.750774
 31
0.0
  0
LINE
  5
514
330
1D
100
AcDbEntity
  8
CutLine
  6
Continuous
 62
     8
100
AcDbLine
 10
238.31449
 20
97.355038
 30
0.0
 11
238.818309
 21
95.780897
 31
0.0
  0
LINE
  5
515
330
1D
100
AcDbEntity
  8
CutLine
  6
Continuous
 62
     8
100
AcDbLine
 10
238.818309
 20
95.780897
 30
0.0
 11
239.234578
 21
94.090951
 31
0.0
  0
LINE
  5
516
330
1D
100
AcDbEntity
  8
CutLine
  6
Continuous
 62
     8
100
AcDbLine
 10
235.859854
 20
88.551314
 30
0.0
 11
236.691596
 21
88.256424
 31
0.0
  0
LINE
  5
517
330
1D
100
AcDbEntity
  8
CutLine
  6
Continuous
 62
     8
100
AcDbLine
 10
236.691596
 20
88.256424
 30
0.0
 11
237.531297
 21
87.916166
 31
0.0
  0
LINE
  5
518
330
1D
100
AcDbEntity
  8
CutLine
  6
Continuous
 62
     8
100
AcDbLine
 10
222.154027
 20
82.04702
 30
0.0
 11
222.134328
 21
81.696614
 31
0.0
  0
LINE
  5
519
330
1D
100
AcDbEntity
  8
CutLine
  6
Continuous
 62
     8
100
AcDbLine
 10
222.166165
 20
82.384294
 30
0.0
 11
222.154027
 21
82.04702
 31
0.0
  0
LINE
  5
51A
330
1D
100
AcDbEntity
  8
CutLine
  6
Continuous
 62
     8
100
AcDbLine
 10
207.328337
 20
85.858709
 30
0.0
 11
207.325353
 21
85.156106
 31
0.0
  0
LINE
  5
51B
330
1D
100
AcDbEntity
  8
CutLine
  6
Continuous
 62
     8
100
AcDbLine
 10
207.326142
 20
82.991389
 30
0.0
 11
207.331514
 21
82.66307
 31
0.0
  0
LINE
  5
51C
330
1D
100
AcDbEntity
  8
CutLine
  6
Continuous
 62
     8
100
AcDbLine
 10
233.452982
 20
104.367934
 30
0.0
 11
234.482114
 21
103.488634
 31
0.0
  0
LINE
  5
51D
330
1D
100
AcDbEntity
  8
CutLine
  6
Continuous
 62
     8
100
AcDbLine
 10
234.482114
 20
103.488634
 30
0.0
 11
235.423692
 21
102.493528
 31
0.0
  0
LINE
  5
51E
330
1D
100
AcDbEntity
  8
CutLine
  6
Continuous
 62
     8
100
AcDbLine
 10
207.187455
 20
89.681536
 30
0.0
 11
207.229837
 21
89.091159
 31
0.0
  0
LINE
  5
51F
330
1D
100
AcDbEntity
  8
CutLine
  6
Continuous
 62
     8
100
AcDbLine
 10
207.137514
 20
90.25321
 30
0.0
 11
207.187455
 21
89.681536
 31
0.0
  0
LINE
  5
520
330
1D
100
AcDbEntity
  8
CutLine
  6
Continuous
 62
     8
100
AcDbLine
 10
207.10528
 20
92.894683
 30
0.0
 11
207.056132
 21
92.556416
 31
0.0
  0
LINE
  5
521
330
1D
100
AcDbEntity
  8
CutLine
  6
Continuous
 62
     8
100
AcDbLine
 10
246.833277
 20
119.999968
 30
0.0
 11
186.833279
 21
119.999969
 31
0.0
  0
LINE
  5
522
330
1D
100
AcDbEntity
  8
CutLine
  6
Continuous
 62
     8
100
AcDbLine
 10
229.840282
 20
106.310991
 30
0.0
 11
231.132067
 21
105.779113
 31
0.0
  0
LINE
  5
523
330
1D
100
AcDbEntity
  8
CutLine
  6
Continuous
 62
     8
100
AcDbLine
 10
228.460942
 20
106.727054
 30
0.0
 11
229.840282
 21
106.310991
 31
0.0
  0
LINE
  5
524
330
1D
100
AcDbEntity
  8
CutLine
  6
Continuous
 62
     8
100
AcDbLine
 10
232.612482
 20
89.277199
 30
0.0
 11
233.412385
 21
89.163778
 31
0.0
  0
LINE
  5
525
330
1D
100
AcDbEntity
  8
CutLine
  6
Continuous
 62
     8
100
AcDbLine
 10
233.412385
 20
89.163778
 30
0.0
 11
234.22025
 21
89.004991
 31
0.0
  0
LINE
  5
526
330
1D
100
AcDbEntity
  8
CutLine
  6
Continuous
 62
     8
100
AcDbLine
 10
196.903112
 20
88.187786
 30
0.0
 11
196.913658
 21
88.904716
 31
0.0
  0
LINE
  5
527
330
1D
100
AcDbEntity
  8
CutLine
  6
Continuous
 62
     8
100
AcDbLine
 10
196.913658
 20
88.904716
 30
0.0
 11
196.913658
 21
90.022193
 31
0.0
  0
LINE
  5
528
330
1D
100
AcDbEntity
  8
CutLine
  6
Continuous
 62
     8
100
AcDbLine
 10
196.916842
 20
86.144447
 30
0.0
 11
196.904706
 21
86.807652
 31
0.0
  0
LINE
  5
529
330
1D
100
AcDbEntity
  8
CutLine
  6
Continuous
 62
     8
100
AcDbLine
 10
196.936542
 20
85.499151
 30
0.0
 11
196.916842
 21
86.144447
 31
0.0
  0
LINE
  5
52A
330
1D
100
AcDbEntity
  8
CutLine
  6
Continuous
 62
     8
100
AcDbLine
 10
207.229837
 20
89.091159
 30
0.0
 11
207.264661
 21
88.482077
 31
0.0
  0
LINE
  5
52B
330
1D
100
AcDbEntity
  8
CutLine
  6
Continuous
 62
     8
100
AcDbLine
 10
207.264661
 20
88.482077
 30
0.0
 11
207.291923
 21
87.854291
 31
0.0
  0
LINE
  5
52C
330
1D
100
AcDbEntity
  8
CutLine
  6
Continuous
 62
     8
100
AcDbLine
 10
217.194828
 20
104.841313
 30
0.0
 11
218.324046
 21
105.56819
 31
0.0
  0
LINE
  5
52D
330
1D
100
AcDbEntity
  8
CutLine
  6
Continuous
 62
     8
100
AcDbLine
 10
218.324046
 20
105.56819
 30
0.0
 11
219.483908
 21
106.16573
 31
0.0
  0
LINE
  5
52E
330
1D
100
AcDbEntity
  8
CutLine
  6
Continuous
 62
     8
100
AcDbLine
 10
210.533128
 20
91.702984
 30
0.0
 11
210.53671
 21
91.938776
 31
0.0
  0
LINE
  5
52F
330
1D
100
AcDbEntity
  8
CutLine
  6
Continuous
 62
     8
100
AcDbLine
 10
210.513232
 20
94.386248
 30
0.0
 11
210.509651
 21
94.692679
 31
0.0
  0
LINE
  5
530
330
1D
100
AcDbEntity
  8
CutLine
  6
Continuous
 62
     8
100
AcDbLine
 10
232.651482
 20
91.497827
 30
0.0
 11
231.42755
 21
91.642286
 31
0.0
  0
LINE
  5
531
330
1D
100
AcDbEntity
  8
CutLine
  6
Continuous
 62
     8
100
AcDbLine
 10
233.839202
 20
91.518122
 30
0.0
 11
232.651482
 21
91.497827
 31
0.0
  0
LINE
  5
532
330
1D
100
AcDbEntity
  8
CutLine
  6
Continuous
 62
     8
100
AcDbLine
 10
231.42755
 20
91.642286
 30
0.0
 11
230.167401
 21
91.951504
 31
0.0
  0
LINE
  5
533
330
1D
100
AcDbEntity
  8
CutLine
  6
Continuous
 62
     8
100
AcDbLine
 10
230.167401
 20
91.951504
 30
0.0
 11
228.871039
 21
92.425479
 31
0.0
  0
LINE
  5
534
330
1D
100
AcDbEntity
  8
CutLine
  6
Continuous
 62
     8
100
AcDbLine
 10
225.165807
 20
80.996399
 30
0.0
 11
229.119963
 21
87.959148
 31
0.0
  0
LINE
  5
535
330
1D
100
AcDbEntity
  8
CutLine
  6
Continuous
 62
     8
100
AcDbLine
 10
229.119963
 20
87.959148
 30
0.0
 11
229.492456
 21
89.2772
 31
0.0
  0
LINE
  5
536
330
1D
100
AcDbEntity
  8
CutLine
  6
Continuous
 62
     8
100
AcDbLine
 10
207.188059
 20
93.547341
 30
0.0
 11
207.149257
 21
93.224991
 31
0.0
  0
LINE
  5
537
330
1D
100
AcDbEntity
  8
CutLine
  6
Continuous
 62
     8
100
AcDbLine
 10
207.149257
 20
93.224991
 30
0.0
 11
207.10528
 21
92.894683
 31
0.0
  0
LINE
  5
538
330
1D
100
AcDbEntity
  8
CutLine
  6
Continuous
 62
     8
100
AcDbLine
 10
207.221685
 20
93.861731
 30
0.0
 11
207.188059
 21
93.547341
 31
0.0
  0
LINE
  5
539
330
1D
100
AcDbEntity
  8
CutLine
  6
Continuous
 62
     8
100
AcDbLine
 10
210.599192
 20
96.344223
 30
0.0
 11
210.638591
 21
96.698409
 31
0.0
  0
LINE
  5
53A
330
1D
100
AcDbEntity
  8
CutLine
  6
Continuous
 62
     8
100
AcDbLine
 10
225.295742
 20
80.618931
 30
0.0
 11
225.165807
 21
80.996399
 31
0.0
  0
LINE
  5
53B
330
1D
100
AcDbEntity
  8
CutLine
  6
Continuous
 62
     8
100
AcDbLine
 10
222.107067
 20
81.333075
 30
0.0
 11
222.072244
 21
80.956404
 31
0.0
  0
LINE
  5
53C
330
1D
100
AcDbEntity
  8
CutLine
  6
Continuous
 62
     8
100
AcDbLine
 10
222.072244
 20
80.956404
 30
0.0
 11
222.029862
 21
80.5666
 31
0.0
  0
LINE
  5
53D
330
1D
100
AcDbEntity
  8
CutLine
  6
Continuous
 62
     8
100
AcDbLine
 10
221.784718
 20
77.758577
 30
0.0
 11
219.549759
 21
75.151127
 31
0.0
  0
LINE
  5
53E
330
1D
100
AcDbEntity
  8
CutLine
  6
Continuous
 62
     8
100
AcDbLine
 10
207.273421
 20
94.466635
 30
0.0
 11
207.250138
 21
94.168164
 31
0.0
  0
LINE
  5
53F
330
1D
100
AcDbEntity
  8
CutLine
  6
Continuous
 62
     8
100
AcDbLine
 10
213.740112
 20
101.353972
 30
0.0
 11
213.991028
 21
101.884652
 31
0.0
  0
LINE
  5
540
330
1D
100
AcDbEntity
  8
CutLine
  6
Continuous
 62
     8
100
AcDbLine
 10
227.760321
 20
76.030622
 30
0.0
 11
226.225978
 21
77.070896
 31
0.0
  0
LINE
  5
541
330
1D
100
AcDbEntity
  8
CutLine
  6
Continuous
 62
     8
100
AcDbLine
 10
229.20194
 20
75.278473
 30
0.0
 11
227.760321
 21
76.030622
 31
0.0
  0
LINE
  5
542
330
1D
100
AcDbEntity
  8
CutLine
  6
Continuous
 62
     8
100
AcDbLine
 10
216.566237
 20
74.37749
 30
0.0
 11
215.684749
 21
74.246958
 31
0.0
  0
LINE
  5
543
330
1D
100
AcDbEntity
  8
CutLine
  6
Continuous
 62
     8
100
AcDbLine
 10
217.504233
 20
74.571695
 30
0.0
 11
216.566237
 21
74.37749
 31
0.0
  0
LINE
  5
544
330
1D
100
AcDbEntity
  8
CutLine
  6
Continuous
 62
     8
100
AcDbLine
 10
214.859774
 20
74.1801
 30
0.0
 11
214.091309
 21
74.176917
 31
0.0
  0
LINE
  5
545
330
1D
100
AcDbEntity
  8
CutLine
  6
Continuous
 62
     8
100
AcDbLine
 10
214.091309
 20
74.176917
 30
0.0
 11
213.379353
 21
74.237408
 31
0.0
  0
LINE
  5
546
330
1D
100
AcDbEntity
  8
CutLine
  6
Continuous
 62
     8
100
AcDbLine
 10
198.085258
 20
75.966161
 30
0.0
 11
197.127758
 21
76.947536
 31
0.0
  0
LINE
  5
547
330
1D
100
AcDbEntity
  8
CutLine
  6
Continuous
 62
     8
100
AcDbLine
 10
199.041164
 20
75.18695
 30
0.0
 11
198.085258
 21
75.966161
 31
0.0
  0
LINE
  5
548
330
1D
100
AcDbEntity
  8
CutLine
  6
Continuous
 62
     8
100
AcDbLine
 10
197.127758
 20
76.947536
 30
0.0
 11
196.168668
 21
78.131076
 31
0.0
  0
LINE
  5
549
330
1D
100
AcDbEntity
  8
CutLine
  6
Continuous
 62
     8
100
AcDbLine
 10
196.168675
 20
103.374628
 30
0.0
 11
196.54117
 21
104.492109
 31
0.0
  0
LINE
  5
54A
330
1D
100
AcDbEntity
  8
CutLine
  6
Continuous
 62
     8
100
AcDbLine
 10
196.54117
 20
104.492109
 30
0.0
 11
196.541171
 21
105.609584
 31
0.0
  0
LINE
  5
54B
330
1D
100
AcDbEntity
  8
CutLine
  6
Continuous
 62
     8
100
AcDbLine
 10
213.991028
 20
101.884652
 30
0.0
 11
215.028319
 21
102.999544
 31
0.0
  0
LINE
  5
54C
330
1D
100
AcDbEntity
  8
CutLine
  6
Continuous
 62
     8
100
AcDbLine
 10
202.657257
 20
106.370093
 30
0.0
 11
203.51984
 21
106.106241
 31
0.0
  0
LINE
  5
54D
330
1D
100
AcDbEntity
  8
CutLine
  6
Continuous
 62
     8
100
AcDbLine
 10
204.379637
 20
105.749269
 30
0.0
 11
205.236651
 21
105.299172
 31
0.0
  0
LINE
  5
54E
330
1D
100
AcDbEntity
  8
CutLine
  6
Continuous
 62
     8
100
AcDbLine
 10
203.51984
 20
106.106241
 30
0.0
 11
204.379637
 21
105.749269
 31
0.0
  0
LINE
  5
54F
330
1D
100
AcDbEntity
  8
CutLine
  6
Continuous
 62
     8
100
AcDbLine
 10
207.110853
 20
96.362528
 30
0.0
 11
207.314809
 21
95.580929
 31
0.0
  0
LINE
  5
550
330
1D
100
AcDbEntity
  8
CutLine
  6
Continuous
 62
     8
100
AcDbLine
 10
206.938339
 20
97.131393
 30
0.0
 11
207.110853
 21
96.362528
 31
0.0
  0
LINE
  5
551
330
1D
100
AcDbEntity
  8
CutLine
  6
Continuous
 62
     8
100
AcDbLine
 10
206.090876
 20
104.755954
 30
0.0
 11
206.942316
 21
104.119611
 31
0.0
  0
LINE
  5
552
330
1D
100
AcDbEntity
  8
CutLine
  6
Continuous
 62
     8
100
AcDbLine
 10
205.236651
 20
105.299172
 30
0.0
 11
206.090876
 21
104.755954
 31
0.0
  0
LINE
  5
553
330
1D
100
AcDbEntity
  8
CutLine
  6
Continuous
 62
     8
100
AcDbLine
 10
207.314809
 20
95.580929
 30
0.0
 11
207.312224
 21
95.314293
 31
0.0
  0
LINE
  5
554
330
1D
100
AcDbEntity
  8
CutLine
  6
Continuous
 62
     8
100
AcDbLine
 10
207.312224
 20
95.314293
 30
0.0
 11
207.304464
 21
95.0397
 31
0.0
  0
LINE
  5
555
330
1D
100
AcDbEntity
  8
CutLine
  6
Continuous
 62
     8
100
AcDbLine
 10
207.304464
 20
95.0397
 30
0.0
 11
207.291526
 21
94.757146
 31
0.0
  0
LINE
  5
556
330
1D
100
AcDbEntity
  8
CutLine
  6
Continuous
 62
     8
100
AcDbLine
 10
201.791887
 20
106.540816
 30
0.0
 11
202.657257
 21
106.370093
 31
0.0
  0
LINE
  5
557
330
1D
100
AcDbEntity
  8
CutLine
  6
Continuous
 62
     8
100
AcDbLine
 10
200.923729
 20
106.618417
 30
0.0
 11
201.791887
 21
106.540816
 31
0.0
  0
LINE
  5
558
330
1D
100
AcDbEntity
  8
CutLine
  6
Continuous
 62
     8
100
AcDbLine
 10
200.052786
 20
106.602898
 30
0.0
 11
200.923729
 21
106.618417
 31
0.0
  0
LINE
  5
559
330
1D
100
AcDbEntity
  8
CutLine
  6
Continuous
 62
     8
100
AcDbLine
 10
199.17906
 20
106.494254
 30
0.0
 11
200.052786
 21
106.602898
 31
0.0
  0
LINE
  5
55A
330
1D
100
AcDbEntity
  8
CutLine
  6
Continuous
 62
     8
100
AcDbLine
 10
198.302546
 20
106.292489
 30
0.0
 11
199.17906
 21
106.494254
 31
0.0
  0
LINE
  5
55B
330
1D
100
AcDbEntity
  8
CutLine
  6
Continuous
 62
     8
100
AcDbLine
 10
197.423249
 20
105.997599
 30
0.0
 11
198.302546
 21
106.292489
 31
0.0
  0
LINE
  5
55C
330
1D
100
AcDbEntity
  8
CutLine
  6
Continuous
 62
     8
100
AcDbLine
 10
196.541171
 20
105.609584
 30
0.0
 11
197.423249
 21
105.997599
 31
0.0
  0
LINE
  5
55D
330
1D
100
AcDbEntity
  8
CutLine
  6
Continuous
 62
     8
100
AcDbLine
 10
207.291526
 20
94.757146
 30
0.0
 11
207.273421
 21
94.466635
 31
0.0
  0
LINE
  5
55E
330
1D
100
AcDbEntity
  8
CutLine
  6
Continuous
 62
     8
100
AcDbLine
 10
199.995479
 20
74.609904
 30
0.0
 11
199.041164
 21
75.18695
 31
0.0
  0
LINE
  5
55F
330
1D
100
AcDbEntity
  8
CutLine
  6
Continuous
 62
     8
100
AcDbLine
 10
200.948199
 20
74.235024
 30
0.0
 11
199.995479
 21
74.609904
 31
0.0
  0
LINE
  5
560
330
1D
100
AcDbEntity
  8
CutLine
  6
Continuous
 62
     8
100
AcDbLine
 10
201.89933
 20
74.062308
 30
0.0
 11
200.948199
 21
74.235024
 31
0.0
  0
LINE
  5
561
330
1D
100
AcDbEntity
  8
CutLine
  6
Continuous
 62
     8
100
AcDbLine
 10
215.684749
 20
74.246958
 30
0.0
 11
214.859774
 21
74.1801
 31
0.0
  0
LINE
  5
562
330
1D
100
AcDbEntity
  8
CutLine
  6
Continuous
 62
     8
100
AcDbLine
 10
218.498741
 20
74.829575
 30
0.0
 11
217.504233
 21
74.571695
 31
0.0
  0
LINE
  5
563
330
1D
100
AcDbEntity
  8
CutLine
  6
Continuous
 62
     8
100
AcDbLine
 10
219.549759
 20
75.151127
 30
0.0
 11
218.498741
 21
74.829575
 31
0.0
  0
LINE
  5
564
330
1D
100
AcDbEntity
  8
CutLine
  6
Continuous
 62
     8
100
AcDbLine
 10
207.250138
 20
94.168164
 30
0.0
 11
207.221685
 21
93.861731
 31
0.0
  0
LINE
  5
565
330
1D
100
AcDbEntity
  8
CutLine
  6
Continuous
 62
     8
100
AcDbLine
 10
222.134328
 20
81.696614
 30
0.0
 11
222.107067
 21
81.333075
 31
0.0
  0
LINE
  5
566
330
1D
100
AcDbEntity
  8
CutLine
  6
Continuous
 62
     8
100
AcDbLine
 10
210.566957
 20
95.997996
 30
0.0
 11
210.599192
 21
96.344223
 31
0.0
  0
LINE
  5
567
330
1D
100
AcDbEntity
  8
CutLine
  6
Continuous
 62
     8
100
AcDbLine
 10
210.541886
 20
95.659729
 30
0.0
 11
210.566957
 21
95.997996
 31
0.0
  0
LINE
  5
568
330
1D
100
AcDbEntity
  8
CutLine
  6
Continuous
 62
     8
100
AcDbLine
 10
229.492456
 20
89.2772
 30
0.0
 11
230.260524
 21
89.34525
 31
0.0
  0
LINE
  5
569
330
1D
100
AcDbEntity
  8
CutLine
  6
Continuous
 62
     8
100
AcDbLine
 10
210.523978
 20
95.32942
 30
0.0
 11
210.541886
 21
95.659729
 31
0.0
  0
LINE
  5
56A
330
1D
100
AcDbEntity
  8
CutLine
  6
Continuous
 62
     8
100
AcDbLine
 10
230.260524
 20
89.34525
 30
0.0
 11
231.03655
 21
89.367934
 31
0.0
  0
LINE
  5
56B
330
1D
100
AcDbEntity
  8
CutLine
  6
Continuous
 62
     8
100
AcDbLine
 10
210.513232
 20
95.00707
 30
0.0
 11
210.523978
 21
95.32942
 31
0.0
  0
LINE
  5
56C
330
1D
100
AcDbEntity
  8
CutLine
  6
Continuous
 62
     8
100
AcDbLine
 10
231.03655
 20
89.367934
 30
0.0
 11
231.820536
 21
89.34525
 31
0.0
  0
LINE
  5
56D
330
1D
100
AcDbEntity
  8
CutLine
  6
Continuous
 62
     8
100
AcDbLine
 10
215.028319
 20
102.999544
 30
0.0
 11
216.096251
 21
103.985098
 31
0.0
  0
LINE
  5
56E
330
1D
100
AcDbEntity
  8
CutLine
  6
Continuous
 62
     8
100
AcDbLine
 10
210.509651
 20
94.692679
 30
0.0
 11
210.513232
 21
95.00707
 31
0.0
  0
LINE
  5
56F
330
1D
100
AcDbEntity
  8
CutLine
  6
Continuous
 62
     8
100
AcDbLine
 10
231.820536
 20
89.34525
 30
0.0
 11
232.612482
 21
89.277199
 31
0.0
  0
LINE
  5
570
330
1D
100
AcDbEntity
  8
CutLine
  6
Continuous
 62
     8
100
AcDbLine
 10
216.096251
 20
103.985098
 30
0.0
 11
217.194828
 21
104.841313
 31
0.0
  0
LINE
  5
571
330
1D
100
AcDbEntity
  8
CutLine
  6
Continuous
 62
     8
100
AcDbLine
 10
210.538301
 20
91.476345
 30
0.0
 11
210.533128
 21
91.702984
 31
0.0
  0
LINE
  5
572
330
1D
100
AcDbEntity
  8
CutLine
  6
Continuous
 62
     8
100
AcDbLine
 10
210.55223
 20
91.258859
 30
0.0
 11
210.538301
 21
91.476345
 31
0.0
  0
LINE
  5
573
330
1D
100
AcDbEntity
  8
CutLine
  6
Continuous
 62
     8
100
AcDbLine
 10
219.483908
 20
106.16573
 30
0.0
 11
220.67441
 21
106.633932
 31
0.0
  0
LINE
  5
574
330
1D
100
AcDbEntity
  8
CutLine
  6
Continuous
 62
     8
100
AcDbLine
 10
210.574913
 20
91.050526
 30
0.0
 11
210.55223
 21
91.258859
 31
0.0
  0
LINE
  5
575
330
1D
100
AcDbEntity
  8
CutLine
  6
Continuous
 62
     8
100
AcDbLine
 10
234.990706
 20
91.703173
 30
0.0
 11
233.839202
 21
91.518122
 31
0.0
  0
LINE
  5
576
330
1D
100
AcDbEntity
  8
CutLine
  6
Continuous
 62
     8
100
AcDbLine
 10
220.67441
 20
106.633932
 30
0.0
 11
221.895558
 21
106.972799
 31
0.0
  0
LINE
  5
577
330
1D
100
AcDbEntity
  8
CutLine
  6
Continuous
 62
     8
100
AcDbLine
 10
210.606352
 20
90.851346
 30
0.0
 11
210.574913
 21
91.050526
 31
0.0
  0
LINE
  5
578
330
1D
100
AcDbEntity
  8
CutLine
  6
Continuous
 62
     8
100
AcDbLine
 10
236.105996
 20
92.052981
 30
0.0
 11
234.990706
 21
91.703173
 31
0.0
  0
LINE
  5
579
330
1D
100
AcDbEntity
  8
CutLine
  6
Continuous
 62
     8
100
AcDbLine
 10
221.895558
 20
106.972799
 30
0.0
 11
223.147349
 21
107.182323
 31
0.0
  0
LINE
  5
57A
330
1D
100
AcDbEntity
  8
CutLine
  6
Continuous
 62
     8
100
AcDbLine
 10
210.646546
 20
90.661317
 30
0.0
 11
210.606352
 21
90.851346
 31
0.0
  0
LINE
  5
57B
330
1D
100
AcDbEntity
  8
CutLine
  6
Continuous
 62
     8
100
AcDbLine
 10
237.185072
 20
92.567548
 30
0.0
 11
236.105996
 21
92.052981
 31
0.0
  0
LINE
  5
57C
330
1D
100
AcDbEntity
  8
CutLine
  6
Continuous
 62
     8
100
AcDbLine
 10
223.147349
 20
107.182323
 30
0.0
 11
224.429783
 21
107.262514
 31
0.0
  0
LINE
  5
57D
330
1D
100
AcDbEntity
  8
CutLine
  6
Continuous
 62
     8
100
AcDbLine
 10
224.429783
 20
107.262514
 30
0.0
 11
225.742859
 21
107.213366
 31
0.0
  0
LINE
  5
57E
330
1D
100
AcDbEntity
  8
CutLine
  6
Continuous
 62
     8
100
AcDbLine
 10
196.904706
 20
86.807652
 30
0.0
 11
196.900127
 21
87.488765
 31
0.0
  0
LINE
  5
57F
330
1D
100
AcDbEntity
  8
CutLine
  6
Continuous
 62
     8
100
AcDbLine
 10
225.742859
 20
107.213366
 30
0.0
 11
227.086579
 21
107.034879
 31
0.0
  0
LINE
  5
580
330
1D
100
AcDbEntity
  8
CutLine
  6
Continuous
 62
     8
100
AcDbLine
 10
196.900127
 20
87.488765
 30
0.0
 11
196.903112
 21
88.187786
 31
0.0
  0
LINE
  5
581
330
1D
100
AcDbEntity
  8
CutLine
  6
Continuous
 62
     8
100
AcDbLine
 10
196.963803
 20
84.871764
 30
0.0
 11
196.936542
 21
85.499151
 31
0.0
  0
LINE
  5
582
330
1D
100
AcDbEntity
  8
CutLine
  6
Continuous
 62
     8
100
AcDbLine
 10
227.086579
 20
107.034879
 30
0.0
 11
228.460942
 21
106.727054
 31
0.0
  0
LINE
  5
583
330
1D
100
AcDbEntity
  8
CutLine
  6
Continuous
 62
     8
100
AcDbLine
 10
196.484657
 20
102.205017
 30
0.0
 11
196.168675
 21
103.374628
 31
0.0
  0
LINE
  5
584
330
1D
100
AcDbEntity
  8
CutLine
  6
Continuous
 62
     8
100
AcDbLine
 10
234.22025
 20
89.004991
 30
0.0
 11
235.036074
 21
88.800837
 31
0.0
  0
LINE
  5
585
330
1D
100
AcDbEntity
  8
CutLine
  6
Continuous
 62
     8
100
AcDbLine
 10
231.132067
 20
105.779113
 30
0.0
 11
232.3363
 21
105.131427
 31
0.0
  0
LINE
  5
586
330
1D
100
AcDbEntity
  8
CutLine
  6
Continuous
 62
     8
100
AcDbLine
 10
222.029862
 20
80.5666
 30
0.0
 11
221.979918
 21
80.163663
 31
0.0
  0
LINE
  5
587
330
1D
100
AcDbEntity
  8
CutLine
  6
Continuous
 62
     8
100
AcDbLine
 10
232.3363
 20
105.131427
 30
0.0
 11
233.452982
 21
104.367934
 31
0.0
  0
LINE
  5
588
330
1D
100
AcDbEntity
  8
CutLine
  6
Continuous
 62
     8
100
AcDbLine
 10
207.291923
 20
87.854291
 30
0.0
 11
207.311622
 21
87.207801
 31
0.0
  0
LINE
  5
589
330
1D
100
AcDbEntity
  8
CutLine
  6
Continuous
 62
     8
100
AcDbLine
 10
207.311622
 20
87.207801
 30
0.0
 11
207.323759
 21
86.542607
 31
0.0
  0
LINE
  5
58A
330
1D
100
AcDbEntity
  8
CutLine
  6
Continuous
 62
     8
100
AcDbLine
 10
235.036074
 20
88.800837
 30
0.0
 11
235.859854
 21
88.551314
 31
0.0
  0
LINE
  5
58B
330
1D
100
AcDbEntity
  8
CutLine
  6
Continuous
 62
     8
100
AcDbLine
 10
207.323759
 20
86.542607
 30
0.0
 11
207.328337
 21
85.858709
 31
0.0
  0
LINE
  5
58C
330
1D
100
AcDbEntity
  8
CutLine
  6
Continuous
 62
     8
100
AcDbLine
 10
221.979918
 20
80.163663
 30
0.0
 11
221.922412
 21
79.747593
 31
0.0
  0
LINE
  5
58D
330
1D
100
AcDbEntity
  8
CutLine
  6
Continuous
 62
     8
100
AcDbLine
 10
235.423692
 20
102.493528
 30
0.0
 11
236.27772
 21
101.382617
 31
0.0
  0
LINE
  5
58E
330
1D
100
AcDbEntity
  8
CutLine
  6
Continuous
 62
     8
100
AcDbLine
 10
228.871039
 20
92.425479
 30
0.0
 11
227.538462
 21
93.064208
 31
0.0
  0
LINE
  5
58F
330
1D
100
AcDbEntity
  8
CutLine
  6
Continuous
 62
     8
100
AcDbLine
 10
236.27772
 20
101.382617
 30
0.0
 11
237.044194
 21
100.155897
 31
0.0
  0
LINE
  5
590
330
1D
100
AcDbEntity
  8
CutLine
  6
Continuous
 62
     8
100
AcDbLine
 10
207.331514
 20
82.66307
 30
0.0
 11
207.330917
 21
82.332363
 31
0.0
  0
LINE
  5
591
330
1D
100
AcDbEntity
  8
CutLine
  6
Continuous
 62
     8
100
AcDbLine
 10
237.044194
 20
100.155897
 30
0.0
 11
237.723117
 21
98.813371
 31
0.0
  0
LINE
  5
592
330
1D
100
AcDbEntity
  8
CutLine
  6
Continuous
 62
     8
100
AcDbLine
 10
207.330917
 20
82.332363
 30
0.0
 11
207.32435
 21
81.999268
 31
0.0
  0
LINE
  5
593
330
1D
100
AcDbEntity
  8
CutLine
  6
Continuous
 62
     8
100
AcDbLine
 10
221.922412
 20
79.747593
 30
0.0
 11
221.857346
 21
79.318391
 31
0.0
  0
LINE
  5
594
330
1D
100
AcDbEntity
  8
CutLine
  6
Continuous
 62
     8
100
AcDbLine
 10
237.723117
 20
98.813371
 30
0.0
 11
238.31449
 21
97.355038
 31
0.0
  0
LINE
  5
595
330
1D
100
AcDbEntity
  8
CutLine
  6
Continuous
 62
     8
100
AcDbLine
 10
207.32435
 20
81.999268
 30
0.0
 11
207.311814
 21
81.663786
 31
0.0
  0
LINE
  5
596
330
1D
100
AcDbEntity
  8
CutLine
  6
Continuous
 62
     8
100
AcDbLine
 10
207.311814
 20
81.663786
 30
0.0
 11
207.29331
 21
81.325916
 31
0.0
  0
LINE
  5
597
330
1D
100
AcDbEntity
  8
CutLine
  6
Continuous
 62
     8
100
AcDbLine
 10
207.29331
 20
81.325916
 30
0.0
 11
207.268835
 21
80.985658
 31
0.0
  0
LINE
  5
598
330
1D
100
AcDbEntity
  8
CutLine
  6
Continuous
 62
     8
100
AcDbLine
 10
237.531297
 20
87.916166
 30
0.0
 11
238.378957
 21
87.53054
 31
0.0
  0
LINE
  5
599
330
1D
100
AcDbEntity
  8
CutLine
  6
Continuous
 62
     8
100
AcDbLine
 10
207.268835
 20
80.985658
 30
0.0
 11
207.238392
 21
80.643012
 31
0.0
  0
LINE
  5
59A
330
1D
100
AcDbEntity
  8
CutLine
  6
Continuous
 62
     8
100
AcDbLine
 10
210.53671
 20
91.938776
 30
0.0
 11
210.549047
 21
92.183724
 31
0.0
  0
LINE
  5
59B
330
1D
100
AcDbEntity
  8
CutLine
  6
Continuous
 62
     8
100
AcDbLine
 10
207.238392
 20
80.643012
 30
0.0
 11
207.201977
 21
80.297979
 31
0.0
  0
LINE
  5
59C
330
1D
100
AcDbEntity
  8
CutLine
  6
Continuous
 62
     8
100
AcDbLine
 10
210.549047
 20
92.183724
 30
0.0
 11
210.570139
 21
92.437824
 31
0.0
  0
LINE
  5
59D
330
1D
100
AcDbEntity
  8
CutLine
  6
Continuous
 62
     8
100
AcDbLine
 10
230.550834
 20
74.814449
 30
0.0
 11
229.20194
 21
75.278473
 31
0.0
  0
LINE
  5
59E
330
1D
100
AcDbEntity
  8
CutLine
  6
Continuous
 62
     8
100
AcDbLine
 10
196.998625
 20
84.262285
 30
0.0
 11
196.963803
 21
84.871764
 31
0.0
  0
LINE
  5
59F
330
1D
100
AcDbEntity
  8
CutLine
  6
Continuous
 62
     8
100
AcDbLine
 10
207.201977
 20
80.297979
 30
0.0
 11
207.159594
 21
79.950558
 31
0.0
  0
LINE
  5
5A0
330
1D
100
AcDbEntity
  8
CutLine
  6
Continuous
 62
     8
100
AcDbLine
 10
231.807002
 20
74.638549
 30
0.0
 11
230.550834
 21
74.814449
 31
0.0
  0
LINE
  5
5A1
330
1D
100
AcDbEntity
  8
CutLine
  6
Continuous
 62
     8
100
AcDbLine
 10
197.041008
 20
83.670714
 30
0.0
 11
196.998625
 21
84.262285
 31
0.0
  0
LINE
  5
5A2
330
1D
100
AcDbEntity
  8
CutLine
  6
Continuous
 62
     8
100
AcDbLine
 10
232.970445
 20
74.750774
 30
0.0
 11
231.807002
 21
74.638549
 31
0.0
  0
LINE
  5
5A3
330
1D
100
AcDbEntity
  8
CutLine
  6
Continuous
 62
     8
100
AcDbLine
 10
207.080007
 20
90.806179
 30
0.0
 11
207.137514
 21
90.25321
 31
0.0
  0
LINE
  5
5A4
330
1D
100
AcDbEntity
  8
CutLine
  6
Continuous
 62
     8
100
AcDbLine
 10
222.170741
 20
82.708434
 30
0.0
 11
222.166165
 21
82.384294
 31
0.0
  0
LINE
  5
5A5
330
1D
100
AcDbEntity
  8
CutLine
  6
Continuous
 62
     8
100
AcDbLine
 10
213.379353
 20
74.237408
 30
0.0
 11
212.723909
 21
74.361573
 31
0.0
  0
LINE
  5
5A6
330
1D
100
AcDbEntity
  8
CutLine
  6
Continuous
 62
     8
100
AcDbLine
 10
235.019155
 20
75.839599
 30
0.0
 11
234.041164
 21
75.151123
 31
0.0
  0
LINE
  5
5A7
330
1D
100
AcDbEntity
  8
CutLine
  6
Continuous
 62
     8
100
AcDbLine
 10
222.167757
 20
83.019442
 30
0.0
 11
222.170741
 21
82.708434
 31
0.0
  0
LINE
  5
5A8
330
1D
100
AcDbEntity
  8
CutLine
  6
Continuous
 62
     8
100
AcDbLine
 10
212.124976
 20
74.54941
 30
0.0
 11
211.582553
 21
74.800922
 31
0.0
  0
LINE
  5
5A9
330
1D
100
AcDbEntity
  8
CutLine
  6
Continuous
 62
     8
100
AcDbLine
 10
197.090951
 20
83.097051
 30
0.0
 11
197.041008
 21
83.670714
 31
0.0
  0
LINE
  5
5AA
330
1D
100
AcDbEntity
  8
CutLine
  6
Continuous
 62
     8
100
AcDbLine
 10
207.014941
 20
91.340444
 30
0.0
 11
207.080007
 21
90.806179
 31
0.0
  0
LINE
  5
5AB
330
1D
100
AcDbEntity
  8
CutLine
  6
Continuous
 62
     8
100
AcDbLine
 10
197.148458
 20
82.541297
 30
0.0
 11
197.090951
 21
83.097051
 31
0.0
  0
LINE
  5
5AC
330
1D
100
AcDbEntity
  8
CutLine
  6
Continuous
 62
     8
100
AcDbLine
 10
235.904423
 20
76.816198
 30
0.0
 11
235.019155
 21
75.839599
 31
0.0
  0
LINE
  5
5AD
330
1D
100
AcDbEntity
  8
CutLine
  6
Continuous
 62
     8
100
AcDbLine
 10
238.003874
 20
81.474746
 30
0.0
 11
237.396782
 21
79.633772
 31
0.0
  0
LINE
  5
5AE
330
1D
100
AcDbEntity
  8
CutLine
  6
Continuous
 62
     8
100
AcDbLine
 10
205.687932
 20
75.393093
 30
0.0
 11
204.743169
 21
74.757149
 31
0.0
  0
LINE
  5
5AF
330
1D
100
AcDbEntity
  8
CutLine
  6
Continuous
 62
     8
100
AcDbLine
 10
222.157213
 20
83.317316
 30
0.0
 11
222.167757
 21
83.019442
 31
0.0
  0
LINE
  5
5B0
330
1D
100
AcDbEntity
  8
CutLine
  6
Continuous
 62
     8
100
AcDbLine
 10
238.518243
 20
83.603846
 30
0.0
 11
238.003874
 21
81.474746
 31
0.0
  0
LINE
  5
5B1
330
1D
100
AcDbEntity
  8
CutLine
  6
Continuous
 62
     8
100
AcDbLine
 10
221.965396
 20
84.349035
 30
0.0
 11
222.157213
 21
83.317316
 31
0.0
  0
LINE
  5
5B2
330
1D
100
AcDbEntity
  8
CutLine
  6
Continuous
 62
     8
100
AcDbLine
 10
221.857346
 20
79.318391
 30
0.0
 11
221.784718
 21
78.876056
 31
0.0
  0
LINE
  5
5B3
330
1D
100
AcDbEntity
  8
CutLine
  6
Continuous
 62
     8
100
AcDbLine
 10
221.784718
 20
78.876056
 30
0.0
 11
221.784718
 21
77.758577
 31
0.0
  0
LINE
  5
5B4
330
1D
100
AcDbEntity
  8
CutLine
  6
Continuous
 62
     8
100
AcDbLine
 10
210.896469
 20
88.560872
 30
0.0
 11
210.753201
 21
90.308723
 31
0.0
  0
LINE
  5
5B5
330
1D
100
AcDbEntity
  8
CutLine
  6
Continuous
 62
     8
100
AcDbLine
 10
210.753201
 20
90.308723
 30
0.0
 11
210.695497
 21
90.480443
 31
0.0
  0
LINE
  5
5B6
330
1D
100
AcDbEntity
  8
CutLine
  6
Continuous
 62
     8
100
AcDbLine
 10
211.095647
 20
83.435117
 30
0.0
 11
211.276124
 21
84.033653
 31
0.0
  0
LINE
  5
5B7
330
1D
100
AcDbEntity
  8
CutLine
  6
Continuous
 62
     8
100
AcDbLine
 10
207.111244
 20
79.600749
 30
0.0
 11
207.056922
 21
79.248551
 31
0.0
  0
LINE
  5
5B8
330
1D
100
AcDbEntity
  8
CutLine
  6
Continuous
 62
     8
100
AcDbLine
 10
239.234576
 20
87.099546
 30
0.0
 11
238.518243
 21
83.603846
 31
0.0
  0
LINE
  5
5B9
330
1D
100
AcDbEntity
  8
CutLine
  6
Continuous
 62
     8
100
AcDbLine
 10
239.234578
 20
94.090951
 30
0.0
 11
238.227931
 21
93.246867
 31
0.0
  0
LINE
  5
5BA
330
1D
100
AcDbEntity
  8
CutLine
  6
Continuous
 62
     8
100
AcDbLine
 10
211.249065
 20
97.383702
 30
0.0
 11
211.546543
 21
97.753209
 31
0.0
  0
LINE
  5
5BB
330
1D
100
AcDbEntity
  8
CutLine
  6
Continuous
 62
     8
100
AcDbLine
 10
210.638591
 20
96.698409
 30
0.0
 11
210.946415
 21
97.032101
 31
0.0
  0
LINE
  5
5BC
330
1D
100
AcDbEntity
  8
CutLine
  6
Continuous
 62
     8
100
AcDbLine
 10
210.946415
 20
97.032101
 30
0.0
 11
211.249065
 21
97.383702
 31
0.0
  0
LINE
  5
5BD
330
1D
100
AcDbEntity
  8
CutLine
  6
Continuous
 62
     8
100
AcDbLine
 10
211.838846
 20
98.140626
 30
0.0
 11
212.125977
 21
98.545951
 31
0.0
  0
LINE
  5
5BE
330
1D
100
AcDbEntity
  8
CutLine
  6
Continuous
 62
     8
100
AcDbLine
 10
211.546543
 20
97.753209
 30
0.0
 11
211.838846
 21
98.140626
 31
0.0
  0
LINE
  5
5BF
330
1D
100
AcDbEntity
  8
CutLine
  6
Continuous
 62
     8
100
AcDbLine
 10
212.125977
 20
98.545951
 30
0.0
 11
212.407933
 21
98.969183
 31
0.0
  0
LINE
  5
5C0
330
1D
100
AcDbEntity
  8
CutLine
  6
Continuous
 62
     8
100
AcDbLine
 10
246.833261
 20
60.000001
 30
0.0
 11
246.833277
 21
119.999968
 31
0.0
  0
ENDSEC
  0
SECTION
  2
OBJECTS
  0
DICTIONARY
  5
C
330
0
100
AcDbDictionary
281
     1
  3
ACAD_DETAILVIEWSTYLE
350
616
  3
ACAD_GROUP
350
D
  3
ACAD_IMAGE_VARS
350
60D
  3
ACAD_LAYOUT
350
1A
  3
ACAD_MATERIAL
350
603
  3
ACAD_MLEADERSTYLE
350
609
  3
ACAD_MLINESTYLE
350
17
  3
ACAD_PLOTSETTINGS
350
19
  3
ACAD_PLOTSTYLENAME
350
E
  3
ACAD_SCALELIST
350
5C4
  3
ACAD_SECTIONVIEWSTYLE
350
617
  3
ACAD_TABLESTYLE
350
607
  3
ACAD_VISUALSTYLE
350
5EA
  3
ACDB_RECOMPOSE_DATA
350
612
  3
AcDbVariableDictionary
350
60E
  3
APPDATA
350
60B
  0
SUN
  5
60C
330
5C1
100
AcDbSun
 90
        1
290
     0
 63
     7
421
 16777215
 40
1.0
291
     1
 91
  2455826
 92
 54000000
292
     0
 70
     2
 71
   256
280
     1
  0
DICTIONARY
  5
616
102
{ACAD_REACTORS
330
C
102
}
330
C
100
AcDbDictionary
281
     1
  0
DICTIONARY
  5
D
102
{ACAD_REACTORS
330
C
102
}
330
C
100
AcDbDictionary
281
     1
  0
RASTERVARIABLES
  5
60D
102
{ACAD_REACTORS
330
C
102
}
330
C
100
AcDbRasterVariables
 90
        0
 70
     1
 71
     1
 72
     0
  0
DICTIONARY
  5
1A
102
{ACAD_REACTORS
330
C
102
}
330
C
100
AcDbDictionary
281
     1
  3
Model
350
1E
  3
Sheet 1
350
1C
  0
DICTIONARY
  5
603
102
{ACAD_REACTORS
330
C
102
}
330
C
100
AcDbDictionary
281
     1
  3
ByBlock
350
605
  3
ByLayer
350
604
  3
Global
350
606
  0
DICTIONARY
  5
609
102
{ACAD_REACTORS
330
C
102
}
330
C
100
AcDbDictionary
281
     1
  3
Standard
350
60A
  0
DICTIONARY
  5
17
102
{ACAD_REACTORS
330
C
102
}
330
C
100
AcDbDictionary
281
     1
  3
Standard
350
18
  0
DICTIONARY
  5
19
102
{ACAD_REACTORS
330
C
102
}
330
C
100
AcDbDictionary
281
     1
  0
ACDBDICTIONARYWDFLT
  5
E
102
{ACAD_REACTORS
330
C
102
}
330
C
100
AcDbDictionary
281
     1
  3
Normal
350
F
100
AcDbDictionaryWithDefault
340
F
  0
DICTIONARY
  5
5C4
102
{ACAD_REACTORS
330
C
102
}
330
C
100
AcDbDictionary
281
     1
  3
A0
350
5C5
  3
A1
350
5C6
  3
A2
350
5C7
  3
A3
350
5C8
  3
A4
350
5C9
  3
A5
350
5CA
  3
A6
350
5CB
  3
A7
350
5CC
  3
A8
350
5CD
  3
A9
350
5CE
  3
B0
350
5CF
  3
B1
350
5D0
  3
B2
350
5D1
  3
B3
350
5D2
  3
B4
350
5D3
  3
B5
350
5D4
  3
B6
350
5D5
  3
B7
350
5D6
  3
B8
350
5D7
  3
B9
350
5D8
  3
C0
350
5D9
  3
C1
350
5DA
  3
C2
350
5DB
  3
C3
350
5DC
  3
C4
350
5DD
  3
C5
350
5DE
  3
C6
350
5DF
  3
C7
350
5E0
  3
C8
350
5E1
  3
C9
350
5E2
  3
D0
350
5E3
  3
D1
350
5E4
  3
D2
350
5E5
  0
DICTIONARY
  5
617
102
{ACAD_REACTORS
330
C
102
}
330
C
100
AcDbDictionary
281
     1
  0
DICTIONARY
  5
607
102
{ACAD_REACTORS
330
C
102
}
330
C
100
AcDbDictionary
281
     1
  3
Standard
350
608
  0
DICTIONARY
  5
5EA
102
{ACAD_REACTORS
330
C
102
}
330
C
100
AcDbDictionary
281
     1
  3
2dWireframe
350
5EF
  3
Basic
350
5F2
  3
Brighten
350
5F6
  3
ColorChange
350
5FA
  3
Conceptual
350
5F4
  3
Dim
350
5F5
  3
EdgeColorOff
350
5FD
  3
Facepattern
350
5F9
  3
Flat
350
5EB
  3
FlatWithEdges
350
5EC
  3
Gouraud
350
5ED
  3
GouraudWithEdges
350
5EE
  3
Hidden
350
5F1
  3
JitterOff
350
5FB
  3
Linepattern
350
5F8
  3
OverhangOff
350
5FC
  3
Realistic
350
5F3
  3
Shaded
350
602
  3
Shaded with edges
350
601
  3
Shades of Gray
350
5FE
  3
Sketchy
350
5FF
  3
Thicken
350
5F7
  3
Wireframe
350
5F0
  3
X-Ray
350
600
  0
XRECORD
  5
612
102
{ACAD_REACTORS
330
C
102
}
330
C
100
AcDbXrecord
280
     1
 90
        1
330
608
  0
DICTIONARY
  5
60E
102
{ACAD_REACTORS
330
C
102
}
330
C
100
AcDbDictionary
281
     1
  3
CANNOSCALE
350
60F
  3
CMLEADERSTYLE
350
614
  3
CTABLESTYLE
350
613
  3
MSLTSCALE
350
615
  0
DICTIONARY
  5
60B
102
{ACAD_REACTORS
330
C
102
}
330
C
100
AcDbDictionary
281
     1
  0
LAYOUT
  5
1E
102
{ACAD_REACTORS
330
1A
102
}
330
1A
100
AcDbPlotSettings
  1

  2
none_device
  4
Letter_(8.50_x_11.00_Inches)
  6

 40
6.35
 41
6.35
 42
6.35
 43
6.35
 44
215.9
 45
279.4
 46
0.0
 47
0.0
 48
0.0
 49
0.0
140
0.0
141
0.0
142
1.0
143
1.0
 70
  1712
 72
     0
 73
     0
 74
     0
  7

 75
     0
 76
     0
 77
     2
 78
   300
147
1.0
148
0.0
149
0.0
100
AcDbLayout
  1
Model
 70
     1
 71
     0
 10
0.0
 20
0.0
 11
12.0
 21
9.0
 12
0.0
 22
0.0
 32
0.0
 14
6.833332
 24
0.0
 34
0.0
 15
246.833277
 25
179.999968
 35
0.0
146
0.0
 13
0.0
 23
0.0
 33
0.0
 16
1.0
 26
0.0
 36
0.0
 17
0.0
 27
1.0
 37
0.0
 76
     0
330
1D
331
5C1
  0
LAYOUT
  5
1C
102
{ACAD_REACTORS
330
1A
102
}
330
1A
100
AcDbPlotSettings
  1

  2
none_device
  4

  6

 40
0.0
 41
0.0
 42
0.0
 43
0.0
 44
0.0
 45
0.0
 46
0.0
 47
0.0
 48
0.0
 49
0.0
140
0.0
141
0.0
142
1.0
143
1.0
 70
   688
 72
     0
 73
     0
 74
     5
  7

 75
    16
 76
     0
 77
     2
 78
   300
147
1.0
148
0.0
149
0.0
100
AcDbLayout
  1
Sheet 1
 70
     1
 71
     1
 10
0.0
 20
0.0
 11
0.0
 21
0.0
 12
0.0
 22
0.0
 32
0.0
 14
1.000000000000000E+20
 24
1.000000000000000E+20
 34
1.000000000000000E+20
 15
-1.000000000000000E+20
 25
-1.000000000000000E+20
 35
-1.000000000000000E+20
146
0.0
 13
0.0
 23
0.0
 33
0.0
 16
1.0
 26
0.0
 36
0.0
 17
0.0
 27
1.0
 37
0.0
 76
     0
330
1B
  0
MATERIAL
  5
605
102
{ACAD_REACTORS
330
603
102
}
330
603
100
AcDbMaterial
  1
ByBlock
 72
     1
 94
      127
  0
MATERIAL
  5
604
102
{ACAD_REACTORS
330
603
102
}
330
603
100
AcDbMaterial
  1
ByLayer
 72
     1
 94
      127
  0
MATERIAL
  5
606
102
{ACAD_REACTORS
330
603
102
}
330
603
100
AcDbMaterial
  1
Global
 72
     1
 94
      127
  0
MLEADERSTYLE
  5
60A
102
{ACAD_REACTORS
330
609
102
}
330
609
100
AcDbMLeaderStyle
179
     2
170
     2
171
     1
172
     0
 90
        2
 40
0.0
 41
0.0
173
     1
 91
-1056964608
340
14
 92
       -2
290
     1
 42
0.09
291
     1
 43
0.36
  3
Standard
341
0
 44
0.18
300

342
11
174
     1
178
     6
175
     1
176
     0
 93
-1056964608
 45
0.18
292
     0
297
     0
 46
0.18
343
0
 94
-1056964608
 47
1.0
 49
1.0
140
1.0
293
     1
141
0.0
294
     1
177
     0
142
1.0
295
     0
296
     0
143
0.125
271
     0
272
     9
273
     9
298
     0
  0
MLINESTYLE
  5
18
102
{ACAD_REACTORS
330
17
102
}
330
17
100
AcDbMlineStyle
  2
Standard
 70
     0
  3

 62
   256
 51
90.0
 52
90.0
 71
     2
 49
0.5
 62
   256
  6
BYLAYER
 49
-0.5
 62
   256
  6
BYLAYER
  0
ACDBPLACEHOLDER
  5
F
102
{ACAD_REACTORS
330
E
102
}
330
E
  0
SCALE
  5
5C5
102
{ACAD_REACTORS
330
5C4
102
}
330
5C4
100
AcDbScale
 70
     0
300
1:1
140
1.0
141
1.0
290
     1
  0
SCALE
  5
5C6
102
{ACAD_REACTORS
330
5C4
102
}
330
5C4
100
AcDbScale
 70
     0
300
1:2
140
1.0
141
2.0
290
     0
  0
SCALE
  5
5C7
102
{ACAD_REACTORS
330
5C4
102
}
330
5C4
100
AcDbScale
 70
     0
300
1:4
140
1.0
141
4.0
290
     0
  0
SCALE
  5
5C8
102
{ACAD_REACTORS
330
5C4
102
}
330
5C4
100
AcDbScale
 70
     0
300
1:5
140
1.0
141
5.0
290
     0
  0
SCALE
  5
5C9
102
{ACAD_REACTORS
330
5C4
102
}
330
5C4
100
AcDbScale
 70
     0
300
1:8
140
1.0
141
8.0
290
     0
  0
SCALE
  5
5CA
102
{ACAD_REACTORS
330
5C4
102
}
330
5C4
100
AcDbScale
 70
     0
300
1:10
140
1.0
141
10.0
290
     0
  0
SCALE
  5
5CB
102
{ACAD_REACTORS
330
5C4
102
}
330
5C4
100
AcDbScale
 70
     0
300
1:16
140
1.0
141
16.0
290
     0
  0
SCALE
  5
5CC
102
{ACAD_REACTORS
330
5C4
102
}
330
5C4
100
AcDbScale
 70
     0
300
1:20
140
1.0
141
20.0
290
     0
  0
SCALE
  5
5CD
102
{ACAD_REACTORS
330
5C4
102
}
330
5C4
100
AcDbScale
 70
     0
300
1:30
140
1.0
141
30.0
290
     0
  0
SCALE
  5
5CE
102
{ACAD_REACTORS
330
5C4
102
}
330
5C4
100
AcDbScale
 70
     0
300
1:40
140
1.0
141
40.0
290
     0
  0
SCALE
  5
5CF
102
{ACAD_REACTORS
330
5C4
102
}
330
5C4
100
AcDbScale
 70
     0
300
1:50
140
1.0
141
50.0
290
     0
  0
SCALE
  5
5D0
102
{ACAD_REACTORS
330
5C4
102
}
330
5C4
100
AcDbScale
 70
     0
300
1:100
140
1.0
141
100.0
290
     0
  0
SCALE
  5
5D1
102
{ACAD_REACTORS
330
5C4
102
}
330
5C4
100
AcDbScale
 70
     0
300
2:1
140
2.0
141
1.0
290
     0
  0
SCALE
  5
5D2
102
{ACAD_REACTORS
330
5C4
102
}
330
5C4
100
AcDbScale
 70
     0
300
4:1
140
4.0
141
1.0
290
     0
  0
SCALE
  5
5D3
102
{ACAD_REACTORS
330
5C4
102
}
330
5C4
100
AcDbScale
 70
     0
300
8:1
140
8.0
141
1.0
290
     0
  0
SCALE
  5
5D4
102
{ACAD_REACTORS
330
5C4
102
}
330
5C4
100
AcDbScale
 70
     0
300
10:1
140
10.0
141
1.0
290
     0
  0
SCALE
  5
5D5
102
{ACAD_REACTORS
330
5C4
102
}
330
5C4
100
AcDbScale
 70
     0
300
100:1
140
100.0
141
1.0
290
     0
  0
SCALE
  5
5D6
102
{ACAD_REACTORS
330
5C4
102
}
330
5C4
100
AcDbScale
 70
     0
300
1/128" = 1'-0"
140
0.0078125
141
12.0
290
     0
  0
SCALE
  5
5D7
102
{ACAD_REACTORS
330
5C4
102
}
330
5C4
100
AcDbScale
 70
     0
300
1/64" = 1'-0"
140
0.015625
141
12.0
290
     0
  0
SCALE
  5
5D8
102
{ACAD_REACTORS
330
5C4
102
}
330
5C4
100
AcDbScale
 70
     0
300
1/32" = 1'-0"
140
0.03125
141
12.0
290
     0
  0
SCALE
  5
5D9
102
{ACAD_REACTORS
330
5C4
102
}
330
5C4
100
AcDbScale
 70
     0
300
1/16" = 1'-0"
140
0.0625
141
12.0
290
     0
  0
SCALE
  5
5DA
102
{ACAD_REACTORS
330
5C4
102
}
330
5C4
100
AcDbScale
 70
     0
300
3/32" = 1'-0"
140
0.09375
141
12.0
290
     0
  0
SCALE
  5
5DB
102
{ACAD_REACTORS
330
5C4
102
}
330
5C4
100
AcDbScale
 70
     0
300
1/8" = 1'-0"
140
0.125
141
12.0
290
     0
  0
SCALE
  5
5DC
102
{ACAD_REACTORS
330
5C4
102
}
330
5C4
100
AcDbScale
 70
     0
300
3/16" = 1'-0"
140
0.1875
141
12.0
290
     0
  0
SCALE
  5
5DD
102
{ACAD_REACTORS
330
5C4
102
}
330
5C4
100
AcDbScale
 70
     0
300
1/4" = 1'-0"
140
0.25
141
12.0
290
     0
  0
SCALE
  5
5DE
102
{ACAD_REACTORS
330
5C4
102
}
330
5C4
100
AcDbScale
 70
     0
300
3/8" = 1'-0"
140
0.375
141
12.0
290
     0
  0
SCALE
  5
5DF
102
{ACAD_REACTORS
330
5C4
102
}
330
5C4
100
AcDbScale
 70
     0
300
1/2" = 1'-0"
140
0.5
141
12.0
290
     0
  0
SCALE
  5
5E0
102
{ACAD_REACTORS
330
5C4
102
}
330
5C4
100
AcDbScale
 70
     0
300
3/4" = 1'-0"
140
0.75
141
12.0
290
     0
  0
SCALE
  5
5E1
102
{ACAD_REACTORS
330
5C4
102
}
330
5C4
100
AcDbScale
 70
     0
300
1" = 1'-0"
140
1.0
141
12.0
290
     0
  0
SCALE
  5
5E2
102
{ACAD_REACTORS
330
5C4
102
}
330
5C4
100
AcDbScale
 70
     0
300
1-1/2" = 1'-0"
140
1.5
141
12.0
290
     0
  0
SCALE
  5
5E3
102
{ACAD_REACTORS
330
5C4
102
}
330
5C4
100
AcDbScale
 70
     0
300
3" = 1'-0"
140
3.0
141
12.0
290
     0
  0
SCALE
  5
5E4
102
{ACAD_REACTORS
330
5C4
102
}
330
5C4
100
AcDbScale
 70
     0
300
6" = 1'-0"
140
6.0
141
12.0
290
     0
  0
SCALE
  5
5E5
102
{ACAD_REACTORS
330
5C4
102
}
330
5C4
100
AcDbScale
 70
     0
300
1'-0" = 1'-0"
140
12.0
141
12.0
290
     0
  0
TABLESTYLE
  5
608
102
{ACAD_REACTORS
330
607
102
}
102
{ACAD_XDICTIONARY
360
610
102
}
330
607
100
AcDbTableStyle
  3
Standard
 70
     0
 71
     0
 40
0.06
 41
0.06
280
     0
281
     0
  7
Standard
140
0.18
170
     2
 62
     0
 63
   257
283
     0
 90
        4
 91
        0
  1

274
    -2
284
     1
 64
     0
275
    -2
285
     1
 65
     0
276
    -2
286
     1
 66
     0
277
    -2
287
     1
 67
     0
278
    -2
288
     1
 68
     0
279
    -2
289
     1
 69
     0
  7
Standard
140
0.25
170
     5
 62
     0
 63
   257
283
     0
 90
        4
 91
        0
  1

274
    -2
284
     1
 64
     0
275
    -2
285
     1
 65
     0
276
    -2
286
     1
 66
     0
277
    -2
287
     1
 67
     0
278
    -2
288
     1
 68
     0
279
    -2
289
     1
 69
     0
  7
Standard
140
0.18
170
     5
 62
     0
 63
   257
283
     0
 90
        4
 91
        0
  1

274
    -2
284
     1
 64
     0
275
    -2
285
     1
 65
     0
276
    -2
286
     1
 66
     0
277
    -2
287
     1
 67
     0
278
    -2
288
     1
 68
     0
279
    -2
289
     1
 69
     0
  0
VISUALSTYLE
  5
5EF
102
{ACAD_REACTORS
330
5EA
102
}
330
5EA
100
AcDbVisualStyle
  2
2dWireframe
 70
     4
177
     3
291
     0
 70
    58
 90
        0
176
     1
 90
        2
176
     1
 90
        0
176
     1
 90
        0
176
     1
 40
0.6
176
     1
 40
30.0
176
     1
 62
     7
420
 16777215
176
     1
 90
        1
176
     1
 90
        4
176
     1
 62
     7
176
     1
 62
   257
176
     1
 90
        1
176
     1
 90
        1
176
     1
 40
1.0
176
     1
 90
        0
176
     1
 62
   257
176
     1
 40
1.0
176
     1
 90
        1
176
     1
 90
        6
176
     1
 90
        2
176
     1
 62
     7
176
     1
 90
        5
176
     1
 90
        0
176
     1
 90
        0
176
     1
290
     0
176
     1
 90
        1
176
     1
 40
0.0
176
     1
 90
        0
176
     1
290
     1
176
     1
290
     1
176
     1
290
     0
176
     1
290
     0
176
     1
290
     0
176
     1
290
     0
176
     1
290
     0
176
     1
290
     0
176
     1
290
     0
176
     1
 90
       50
176
     1
 40
0.0
176
     1
 40
1.0
176
     1
 90
        0
176
     1
 62
    18
420
        0
176
     1
 90
       50
176
     1
 90
        3
176
     1
 62
     5
420
      255
176
     1
290
     0
176
     1
 90
       50
176
     1
 90
       50
176
     1
 90
       50
176
     1
290
     0
176
     1
 90
       50
176
     1
 62
   256
176
     0
 40
1.0
176
     0
 90
        2
176
     1
  1
strokes_ogs.tif
176
     1
290
     0
176
     1
 40
1.0
176
     1
 40
1.0
176
     1
  0
VISUALSTYLE
  5
5F2
102
{ACAD_REACTORS
330
5EA
102
}
330
5EA
100
AcDbVisualStyle
  2
Basic
 70
     7
177
     3
291
     1
 70
    58
 90
        1
176
     1
 90
        0
176
     1
 90
        1
176
     1
 90
        0
176
     1
 40
0.6
176
     1
 40
30.0
176
     1
 62
     7
420
 16777215
176
     1
 90
        0
176
     1
 90
        4
176
     1
 62
     7
176
     1
 62
   257
176
     1
 90
        1
176
     1
 90
        1
176
     1
 40
1.0
176
     1
 90
        8
176
     1
 62
     7
176
     1
 40
1.0
176
     1
 90
        1
176
     1
 90
        6
176
     1
 90
        2
176
     1
 62
     7
176
     1
 90
        5
176
     1
 90
        0
176
     1
 90
        0
176
     1
290
     0
176
     1
 90
        1
176
     1
 40
0.0
176
     1
 90
        0
176
     1
290
     0
176
     1
290
     1
176
     1
290
     1
176
     1
290
     0
176
     1
290
     0
176
     1
290
     0
176
     1
290
     0
176
     1
290
     0
176
     1
290
     0
176
     1
 90
       50
176
     1
 40
0.0
176
     1
 40
1.0
176
     1
 90
        0
176
     1
 62
    18
420
        0
176
     1
 90
       50
176
     1
 90
        3
176
     1
 62
     5
420
      255
176
     1
290
     0
176
     1
 90
       50
176
     1
 90
       50
176
     1
 90
       50
176
     1
290
     0
176
     1
 90
       50
176
     1
 62
   256
176
     0
 40
1.0
176
     0
 90
        2
176
     1
  1
strokes_ogs.tif
176
     1
290
     0
176
     1
 40
1.0
176
     1
 40
1.0
176
     1
  0
VISUALSTYLE
  5
5F6
102
{ACAD_REACTORS
330
5EA
102
}
330
5EA
100
AcDbVisualStyle
  2
Brighten
 70
    12
177
     3
291
     1
 70
    58
 90
        2
176
     1
 90
        2
176
     1
 90
        0
176
     1
 90
        0
176
     1
 40
0.6
176
     1
 40
30.0
176
     1
 62
     7
420
 16777215
176
     1
 90
        1
176
     1
 90
        4
176
     1
 62
     7
176
     1
 62
   257
176
     1
 90
        1
176
     1
 90
        1
176
     1
 40
1.0
176
     1
 90
        8
176
     1
 62
     7
176
     1
 40
1.0
176
     1
 90
        1
176
     1
 90
        6
176
     1
 90
        2
176
     1
 62
     7
176
     1
 90
        5
176
     1
 90
        0
176
     1
 90
        0
176
     1
290
     0
176
     1
 90
        1
176
     1
 40
50.0
176
     1
 90
        0
176
     1
290
     0
176
     1
290
     1
176
     1
290
     1
176
     1
290
     0
176
     1
290
     0
176
     1
290
     0
176
     1
290
     0
176
     1
290
     0
176
     1
290
     0
176
     1
 90
       50
176
     1
 40
0.0
176
     1
 40
1.0
176
     1
 90
        0
176
     1
 62
    18
420
        0
176
     1
 90
       50
176
     1
 90
        3
176
     1
 62
     5
420
      255
176
     1
290
     0
176
     1
 90
       50
176
     1
 90
       50
176
     1
 90
       50
176
     1
290
     0
176
     1
 90
       50
176
     1
 62
   256
176
     0
 40
1.0
176
     0
 90
        2
176
     1
  1
strokes_ogs.tif
176
     1
290
     0
176
     1
 40
1.0
176
     1
 40
1.0
176
     1
  0
VISUALSTYLE
  5
5FA
102
{ACAD_REACTORS
330
5EA
102
}
330
5EA
100
AcDbVisualStyle
  2
ColorChange
 70
    16
177
     3
291
     1
 70
    58
 90
        2
176
     1
 90
        2
176
     1
 90
        3
176
     1
 90
        0
176
     1
 40
0.6
176
     1
 40
30.0
176
     1
 62
     8
420
  8421504
176
     1
 90
        1
176
     1
 90
        4
176
     1
 62
     7
176
     1
 62
   257
176
     1
 90
        1
176
     1
 90
        1
176
     1
 40
1.0
176
     1
 90
        8
176
     1
 62
     8
420
  8421504
176
     1
 40
1.0
176
     1
 90
        1
176
     1
 90
        6
176
     1
 90
        2
176
     1
 62
     7
176
     1
 90
        5
176
     1
 90
        0
176
     1
 90
        0
176
     1
290
     0
176
     1
 90
        1
176
     1
 40
0.0
176
     1
 90
        0
176
     1
290
     0
176
     1
290
     1
176
     1
290
     1
176
     1
290
     0
176
     1
290
     0
176
     1
290
     0
176
     1
290
     0
176
     1
290
     0
176
     1
290
     0
176
     1
 90
       50
176
     1
 40
0.0
176
     1
 40
1.0
176
     1
 90
        0
176
     1
 62
    18
420
        0
176
     1
 90
       50
176
     1
 90
        3
176
     1
 62
     5
420
      255
176
     1
290
     0
176
     1
 90
       50
176
     1
 90
       50
176
     1
 90
       50
176
     1
290
     0
176
     1
 90
       50
176
     1
 62
   256
176
     0
 40
1.0
176
     0
 90
        2
176
     1
  1
strokes_ogs.tif
176
     1
290
     0
176
     1
 40
1.0
176
     1
 40
1.0
176
     1
  0
VISUALSTYLE
  5
5F4
102
{ACAD_REACTORS
330
5EA
102
}
330
5EA
100
AcDbVisualStyle
  2
Conceptual
 70
     9
177
     3
291
     0
 70
    58
 90
        3
176
     1
 90
        2
176
     1
 90
        0
176
     1
 90
        0
176
     1
 40
0.6
176
     1
 40
30.0
176
     1
 62
     7
420
 16777215
176
     1
 90
        2
176
     1
 90
        2
176
     1
 62
     7
176
     1
 62
   257
176
     1
 90
        1
176
     1
 90
        1
176
     1
 40
179.0
176
     1
 90
        8
176
     1
 62
     7
176
     1
 40
1.0
176
     1
 90
        1
176
     1
 90
        6
176
     1
 90
        2
176
     1
 62
     7
176
     1
 90
        3
176
     1
 90
        0
176
     1
 90
        0
176
     1
290
     0
176
     1
 90
        1
176
     1
 40
0.0
176
     1
 90
        0
176
     1
290
     0
176
     1
290
     1
176
     1
290
     1
176
     1
290
     0
176
     1
290
     0
176
     1
290
     0
176
     1
290
     0
176
     1
290
     0
176
     1
290
     0
176
     1
 90
       50
176
     1
 40
0.0
176
     1
 40
1.0
176
     1
 90
        0
176
     1
 62
    18
420
        0
176
     1
 90
       50
176
     1
 90
        3
176
     1
 62
     5
420
      255
176
     1
290
     0
176
     1
 90
       50
176
     1
 90
       50
176
     1
 90
       50
176
     1
290
     0
176
     1
 90
       50
176
     1
 62
   256
176
     0
 40
1.0
176
     0
 90
        2
176
     1
  1
strokes_ogs.tif
176
     1
290
     0
176
     1
 40
1.0
176
     1
 40
1.0
176
     1
  0
VISUALSTYLE
  5
5F5
102
{ACAD_REACTORS
330
5EA
102
}
330
5EA
100
AcDbVisualStyle
  2
Dim
 70
    11
177
     3
291
     1
 70
    58
 90
        2
176
     1
 90
        2
176
     1
 90
        0
176
     1
 90
        0
176
     1
 40
0.6
176
     1
 40
30.0
176
     1
 62
     7
420
 16777215
176
     1
 90
        1
176
     1
 90
        4
176
     1
 62
     7
176
     1
 62
   257
176
     1
 90
        1
176
     1
 90
        1
176
     1
 40
1.0
176
     1
 90
        8
176
     1
 62
     7
176
     1
 40
1.0
176
     1
 90
        1
176
     1
 90
        6
176
     1
 90
        2
176
     1
 62
     7
176
     1
 90
        5
176
     1
 90
        0
176
     1
 90
        0
176
     1
290
     0
176
     1
 90
        1
176
     1
 40
-50.0
176
     1
 90
        0
176
     1
290
     0
176
     1
290
     1
176
     1
290
     1
176
     1
290
     0
176
     1
290
     0
176
     1
290
     0
176
     1
290
     0
176
     1
290
     0
176
     1
290
     0
176
     1
 90
       50
176
     1
 40
0.0
176
     1
 40
1.0
176
     1
 90
        0
176
     1
 62
    18
420
        0
176
     1
 90
       50
176
     1
 90
        3
176
     1
 62
     5
420
      255
176
     1
290
     0
176
     1
 90
       50
176
     1
 90
       50
176
     1
 90
       50
176
     1
290
     0
176
     1
 90
       50
176
     1
 62
   256
176
     0
 40
1.0
176
     0
 90
        2
176
     1
  1
strokes_ogs.tif
176
     1
290
     0
176
     1
 40
1.0
176
     1
 40
1.0
176
     1
  0
VISUALSTYLE
  5
5FD
102
{ACAD_REACTORS
330
5EA
102
}
330
5EA
100
AcDbVisualStyle
  2
EdgeColorOff
 70
    22
177
     3
291
     1
 70
    58
 90
        2
176
     0
 90
        2
176
     0
 90
        0
176
     0
 90
        0
176
     0
 40
0.6
176
     0
 40
30.0
176
     0
 62
     7
420
 16777215
176
     0
 90
        1
176
     0
 90
        4
176
     0
 62
     7
176
     0
 62
   257
176
     0
 90
        1
176
     0
 90
        1
176
     0
 40
1.0
176
     0
 90
        8
176
     2
 62
     7
176
     0
 40
1.0
176
     0
 90
        1
176
     0
 90
        6
176
     0
 90
        2
176
     0
 62
     7
176
     0
 90
        5
176
     0
 90
        0
176
     0
 90
        0
176
     0
290
     0
176
     0
 90
        1
176
     0
 40
0.0
176
     0
 90
        0
176
     0
290
     0
176
     0
290
     1
176
     0
290
     1
176
     0
290
     0
176
     0
290
     0
176
     0
290
     0
176
     0
290
     0
176
     0
290
     0
176
     0
290
     0
176
     0
 90
       50
176
     0
 40
0.0
176
     0
 40
1.0
176
     0
 90
        0
176
     0
 62
    18
420
        0
176
     0
 90
       50
176
     0
 90
        3
176
     0
 62
     5
420
      255
176
     0
290
     0
176
     0
 90
       50
176
     0
 90
       50
176
     0
 90
       50
176
     0
290
     0
176
     0
 90
       50
176
     0
 62
   256
176
     0
 40
1.0
176
     0
 90
        2
176
     0
  1
strokes_ogs.tif
176
     0
290
     0
176
     0
 40
1.0
176
     0
 40
1.0
176
     0
  0
VISUALSTYLE
  5
5F9
102
{ACAD_REACTORS
330
5EA
102
}
330
5EA
100
AcDbVisualStyle
  2
Facepattern
 70
    15
177
     3
291
     1
 70
    58
 90
        2
176
     1
 90
        2
176
     1
 90
        0
176
     1
 90
        0
176
     1
 40
0.6
176
     1
 40
30.0
176
     1
 62
     7
420
 16777215
176
     1
 90
        1
176
     1
 90
        4
176
     1
 62
     7
176
     1
 62
   257
176
     1
 90
        1
176
     1
 90
        1
176
     1
 40
1.0
176
     1
 90
        8
176
     1
 62
     7
176
     1
 40
1.0
176
     1
 90
        1
176
     1
 90
        6
176
     1
 90
        2
176
     1
 62
     7
176
     1
 90
        5
176
     1
 90
        0
176
     1
 90
        0
176
     1
290
     0
176
     1
 90
        1
176
     1
 40
0.0
176
     1
 90
        0
176
     1
290
     0
176
     1
290
     1
176
     1
290
     1
176
     1
290
     0
176
     1
290
     0
176
     1
290
     0
176
     1
290
     0
176
     1
290
     0
176
     1
290
     0
176
     1
 90
       50
176
     1
 40
0.0
176
     1
 40
1.0
176
     1
 90
        0
176
     1
 62
    18
420
        0
176
     1
 90
       50
176
     1
 90
        3
176
     1
 62
     5
420
      255
176
     1
290
     0
176
     1
 90
       50
176
     1
 90
       50
176
     1
 90
       50
176
     1
290
     0
176
     1
 90
       50
176
     1
 62
   256
176
     0
 40
1.0
176
     0
 90
        2
176
     1
  1
strokes_ogs.tif
176
     1
290
     0
176
     1
 40
1.0
176
     1
 40
1.0
176
     1
  0
VISUALSTYLE
  5
5EB
102
{ACAD_REACTORS
330
5EA
102
}
330
5EA
100
AcDbVisualStyle
  2
Flat
 70
     0
177
     3
291
     1
 70
    58
 90
        2
176
     1
 90
        1
176
     1
 90
        1
176
     1
 90
        2
176
     1
 40
0.6
176
     1
 40
30.0
176
     1
 62
     7
420
 16777215
176
     1
 90
        0
176
     1
 90
        0
176
     1
 62
     7
176
     1
 62
   257
176
     1
 90
        1
176
     1
 90
        1
176
     1
 40
1.0
176
     1
 90
        8
176
     1
 62
     7
176
     1
 40
1.0
176
     1
 90
        1
176
     1
 90
        6
176
     1
 90
        2
176
     1
 62
     7
176
     1
 90
        5
176
     1
 90
        0
176
     1
 90
        0
176
     1
290
     0
176
     1
 90
       13
176
     1
 40
0.0
176
     1
 90
        0
176
     1
290
     0
176
     1
290
     1
176
     1
290
     1
176
     1
290
     0
176
     1
290
     0
176
     1
290
     0
176
     1
290
     0
176
     1
290
     0
176
     1
290
     0
176
     1
 90
       50
176
     1
 40
0.0
176
     1
 40
1.0
176
     1
 90
        0
176
     1
 62
    18
420
        0
176
     1
 90
       50
176
     1
 90
        3
176
     1
 62
     5
420
      255
176
     1
290
     0
176
     1
 90
       50
176
     1
 90
       50
176
     1
 90
       50
176
     1
290
     0
176
     1
 90
       50
176
     1
 62
   256
176
     0
 40
1.0
176
     0
 90
        2
176
     1
  1
strokes_ogs.tif
176
     1
290
     0
176
     1
 40
1.0
176
     1
 40
1.0
176
     1
  0
VISUALSTYLE
  5
5EC
102
{ACAD_REACTORS
330
5EA
102
}
330
5EA
100
AcDbVisualStyle
  2
FlatWithEdges
 70
     1
177
     3
291
     1
 70
    58
 90
        2
176
     1
 90
        1
176
     1
 90
        1
176
     1
 90
        2
176
     1
 40
0.6
176
     1
 40
30.0
176
     1
 62
     7
420
 16777215
176
     1
 90
        1
176
     1
 90
        0
176
     1
 62
     7
176
     1
 62
   257
176
     1
 90
        1
176
     1
 90
        1
176
     1
 40
1.0
176
     1
 90
        0
176
     1
 62
   257
176
     1
 40
1.0
176
     1
 90
        1
176
     1
 90
        6
176
     1
 90
        2
176
     1
 62
     7
176
     1
 90
        5
176
     1
 90
        0
176
     1
 90
        0
176
     1
290
     0
176
     1
 90
       13
176
     1
 40
0.0
176
     1
 90
        0
176
     1
290
     0
176
     1
290
     1
176
     1
290
     1
176
     1
290
     0
176
     1
290
     0
176
     1
290
     0
176
     1
290
     0
176
     1
290
     0
176
     1
290
     0
176
     1
 90
       50
176
     1
 40
0.0
176
     1
 40
1.0
176
     1
 90
        0
176
     1
 62
    18
420
        0
176
     1
 90
       50
176
     1
 90
        3
176
     1
 62
     5
420
      255
176
     1
290
     0
176
     1
 90
       50
176
     1
 90
       50
176
     1
 90
       50
176
     1
290
     0
176
     1
 90
       50
176
     1
 62
   256
176
     0
 40
1.0
176
     0
 90
        2
176
     1
  1
strokes_ogs.tif
176
     1
290
     0
176
     1
 40
1.0
176
     1
 40
1.0
176
     1
  0
VISUALSTYLE
  5
5ED
102
{ACAD_REACTORS
330
5EA
102
}
330
5EA
100
AcDbVisualStyle
  2
Gouraud
 70
     2
177
     3
291
     1
 70
    58
 90
        2
176
     1
 90
        2
176
     1
 90
        1
176
     1
 90
        2
176
     1
 40
0.6
176
     1
 40
30.0
176
     1
 62
     7
420
 16777215
176
     1
 90
        0
176
     1
 90
        0
176
     1
 62
     7
176
     1
 62
   257
176
     1
 90
        1
176
     1
 90
        1
176
     1
 40
1.0
176
     1
 90
        0
176
     1
 62
     7
176
     1
 40
1.0
176
     1
 90
        1
176
     1
 90
        6
176
     1
 90
        2
176
     1
 62
     7
176
     1
 90
        5
176
     1
 90
        0
176
     1
 90
        0
176
     1
290
     0
176
     1
 90
       13
176
     1
 40
0.0
176
     1
 90
        0
176
     1
290
     0
176
     1
290
     1
176
     1
290
     1
176
     1
290
     0
176
     1
290
     0
176
     1
290
     0
176
     1
290
     0
176
     1
290
     0
176
     1
290
     0
176
     1
 90
       50
176
     1
 40
0.0
176
     1
 40
1.0
176
     1
 90
        0
176
     1
 62
    18
420
        0
176
     1
 90
       50
176
     1
 90
        3
176
     1
 62
     5
420
      255
176
     1
290
     0
176
     1
 90
       50
176
     1
 90
       50
176
     1
 90
       50
176
     1
290
     0
176
     1
 90
       50
176
     1
 62
   256
176
     0
 40
1.0
176
     0
 90
        2
176
     1
  1
strokes_ogs.tif
176
     1
290
     0
176
     1
 40
1.0
176
     1
 40
1.0
176
     1
  0
VISUALSTYLE
  5
5EE
102
{ACAD_REACTORS
330
5EA
102
}
330
5EA
100
AcDbVisualStyle
  2
GouraudWithEdges
 70
     3
177
     3
291
     1
 70
    58
 90
        2
176
     1
 90
        2
176
     1
 90
        1
176
     1
 90
        2
176
     1
 40
0.6
176
     1
 40
30.0
176
     1
 62
     7
420
 16777215
176
     1
 90
        1
176
     1
 90
        0
176
     1
 62
     7
176
     1
 62
   257
176
     1
 90
        1
176
     1
 90
        1
176
     1
 40
1.0
176
     1
 90
        0
176
     1
 62
   257
176
     1
 40
1.0
176
     1
 90
        1
176
     1
 90
        6
176
     1
 90
        2
176
     1
 62
     7
176
     1
 90
        5
176
     1
 90
        0
176
     1
 90
        0
176
     1
290
     0
176
     1
 90
       13
176
     1
 40
0.0
176
     1
 90
        0
176
     1
290
     0
176
     1
290
     1
176
     1
290
     1
176
     1
290
     0
176
     1
290
     0
176
     1
290
     0
176
     1
290
     0
176
     1
290
     0
176
     1
290
     0
176
     1
 90
       50
176
     1
 40
0.0
176
     1
 40
1.0
176
     1
 90
        0
176
     1
 62
    18
420
        0
176
     1
 90
       50
176
     1
 90
        3
176
     1
 62
     5
420
      255
176
     1
290
     0
176
     1
 90
       50
176
     1
 90
       50
176
     1
 90
       50
176
     1
290
     0
176
     1
 90
       50
176
     1
 62
   256
176
     0
 40
1.0
176
     0
 90
        2
176
     1
  1
strokes_ogs.tif
176
     1
290
     0
176
     1
 40
1.0
176
     1
 40
1.0
176
     1
  0
VISUALSTYLE
  5
5F1
102
{ACAD_REACTORS
330
5EA
102
}
330
5EA
100
AcDbVisualStyle
  2
Hidden
 70
     6
177
     3
291
     0
 70
    58
 90
        1
176
     1
 90
        2
176
     1
 90
        2
176
     1
 90
        0
176
     1
 40
0.6
176
     1
 40
30.0
176
     1
 62
     7
420
 16777215
176
     1
 90
        2
176
     1
 90
        2
176
     1
 62
     7
176
     1
 62
   257
176
     1
 90
        2
176
     1
 90
        1
176
     1
 40
40.0
176
     1
 90
        0
176
     1
 62
   257
176
     1
 40
1.0
176
     1
 90
        1
176
     1
 90
        6
176
     1
 90
        2
176
     1
 62
     7
176
     1
 90
        3
176
     1
 90
        0
176
     1
 90
        0
176
     1
290
     0
176
     1
 90
        1
176
     1
 40
0.0
176
     1
 90
        0
176
     1
290
     0
176
     1
290
     1
176
     1
290
     1
176
     1
290
     0
176
     1
290
     0
176
     1
290
     0
176
     1
290
     0
176
     1
290
     0
176
     1
290
     0
176
     1
 90
       50
176
     1
 40
0.0
176
     1
 40
1.0
176
     1
 90
        0
176
     1
 62
    18
420
        0
176
     1
 90
       50
176
     1
 90
        3
176
     1
 62
     5
420
      255
176
     1
290
     0
176
     1
 90
       50
176
     1
 90
       50
176
     1
 90
       50
176
     1
290
     0
176
     1
 90
       50
176
     1
 62
   256
176
     0
 40
1.0
176
     0
 90
        2
176
     1
  1
strokes_ogs.tif
176
     1
290
     0
176
     1
 40
1.0
176
     1
 40
1.0
176
     1
  0
VISUALSTYLE
  5
5FB
102
{ACAD_REACTORS
330
5EA
102
}
330
5EA
100
AcDbVisualStyle
  2
JitterOff
 70
    20
177
     3
291
     1
 70
    58
 90
        2
176
     0
 90
        2
176
     0
 90
        0
176
     0
 90
        0
176
     0
 40
0.6
176
     0
 40
30.0
176
     0
 62
     7
420
 16777215
176
     0
 90
        1
176
     0
 90
        4
176
     0
 62
     7
176
     0
 62
   257
176
     0
 90
        1
176
     0
 90
        1
176
     0
 40
1.0
176
     0
 90
       10
176
     2
 62
     7
176
     0
 40
1.0
176
     0
 90
        1
176
     0
 90
        6
176
     0
 90
        2
176
     0
 62
     7
176
     0
 90
        5
176
     0
 90
        0
176
     0
 90
        0
176
     0
290
     0
176
     0
 90
        1
176
     0
 40
0.0
176
     0
 90
        0
176
     0
290
     0
176
     0
290
     1
176
     0
290
     1
176
     0
290
     0
176
     0
290
     0
176
     0
290
     0
176
     0
290
     0
176
     0
290
     0
176
     0
290
     0
176
     0
 90
       50
176
     0
 40
0.0
176
     0
 40
1.0
176
     0
 90
        0
176
     0
 62
    18
420
        0
176
     0
 90
       50
176
     0
 90
        3
176
     0
 62
     5
420
      255
176
     0
290
     0
176
     0
 90
       50
176
     0
 90
       50
176
     0
 90
       50
176
     0
290
     0
176
     0
 90
       50
176
     0
 62
   256
176
     0
 40
1.0
176
     0
 90
        2
176
     0
  1
strokes_ogs.tif
176
     0
290
     0
176
     0
 40
1.0
176
     0
 40
1.0
176
     0
  0
VISUALSTYLE
  5
5F8
102
{ACAD_REACTORS
330
5EA
102
}
330
5EA
100
AcDbVisualStyle
  2
Linepattern
 70
    14
177
     3
291
     1
 70
    58
 90
        2
176
     1
 90
        2
176
     1
 90
        0
176
     1
 90
        0
176
     1
 40
0.6
176
     1
 40
30.0
176
     1
 62
     7
420
 16777215
176
     1
 90
        1
176
     1
 90
        4
176
     1
 62
     7
176
     1
 62
   257
176
     1
 90
        7
176
     1
 90
        7
176
     1
 40
1.0
176
     1
 90
        8
176
     1
 62
     7
176
     1
 40
1.0
176
     1
 90
        1
176
     1
 90
        6
176
     1
 90
        2
176
     1
 62
     7
176
     1
 90
        5
176
     1
 90
        0
176
     1
 90
        0
176
     1
290
     0
176
     1
 90
        1
176
     1
 40
0.0
176
     1
 90
        0
176
     1
290
     0
176
     1
290
     1
176
     1
290
     1
176
     1
290
     0
176
     1
290
     0
176
     1
290
     0
176
     1
290
     0
176
     1
290
     0
176
     1
290
     0
176
     1
 90
       50
176
     1
 40
0.0
176
     1
 40
1.0
176
     1
 90
        0
176
     1
 62
    18
420
        0
176
     1
 90
       50
176
     1
 90
        3
176
     1
 62
     5
420
      255
176
     1
290
     0
176
     1
 90
       50
176
     1
 90
       50
176
     1
 90
       50
176
     1
290
     0
176
     1
 90
       50
176
     1
 62
   256
176
     0
 40
1.0
176
     0
 90
        2
176
     1
  1
strokes_ogs.tif
176
     1
290
     0
176
     1
 40
1.0
176
     1
 40
1.0
176
     1
  0
VISUALSTYLE
  5
5FC
102
{ACAD_REACTORS
330
5EA
102
}
330
5EA
100
AcDbVisualStyle
  2
OverhangOff
 70
    21
177
     3
291
     1
 70
    58
 90
        2
176
     0
 90
        2
176
     0
 90
        0
176
     0
 90
        0
176
     0
 40
0.6
176
     0
 40
30.0
176
     0
 62
     7
420
 16777215
176
     0
 90
        1
176
     0
 90
        4
176
     0
 62
     7
176
     0
 62
   257
176
     0
 90
        1
176
     0
 90
        1
176
     0
 40
1.0
176
     0
 90
        9
176
     2
 62
     7
176
     0
 40
1.0
176
     0
 90
        1
176
     0
 90
        6
176
     0
 90
        2
176
     0
 62
     7
176
     0
 90
        5
176
     0
 90
        0
176
     0
 90
        0
176
     0
290
     0
176
     0
 90
        1
176
     0
 40
0.0
176
     0
 90
        0
176
     0
290
     0
176
     0
290
     1
176
     0
290
     1
176
     0
290
     0
176
     0
290
     0
176
     0
290
     0
176
     0
290
     0
176
     0
290
     0
176
     0
290
     0
176
     0
 90
       50
176
     0
 40
0.0
176
     0
 40
1.0
176
     0
 90
        0
176
     0
 62
    18
420
        0
176
     0
 90
       50
176
     0
 90
        3
176
     0
 62
     5
420
      255
176
     0
290
     0
176
     0
 90
       50
176
     0
 90
       50
176
     0
 90
       50
176
     0
290
     0
176
     0
 90
       50
176
     0
 62
   256
176
     0
 40
1.0
176
     0
 90
        2
176
     0
  1
strokes_ogs.tif
176
     0
290
     0
176
     0
 40
1.0
176
     0
 40
1.0
176
     0
  0
VISUALSTYLE
  5
5F3
102
{ACAD_REACTORS
330
5EA
102
}
330
5EA
100
AcDbVisualStyle
  2
Realistic
 70
     8
177
     3
291
     0
 70
    58
 90
        2
176
     1
 90
        3
176
     1
 90
        0
176
     1
 90
        2
176
     1
 40
0.6
176
     1
 40
30.0
176
     1
 62
     7
420
 16777215
176
     1
 90
        0
176
     1
 90
        0
176
     1
 62
     7
176
     1
 62
   257
176
     1
 90
        1
176
     1
 90
        1
176
     1
 40
1.0
176
     1
 90
        8
176
     1
 62
   257
176
     1
 40
1.0
176
     1
 90
        1
176
     1
 90
        6
176
     1
 90
        2
176
     1
 62
     7
176
     1
 90
        3
176
     1
 90
        0
176
     1
 90
        0
176
     1
290
     0
176
     1
 90
       13
176
     1
 40
0.0
176
     1
 90
        0
176
     1
290
     0
176
     1
290
     1
176
     1
290
     1
176
     1
290
     0
176
     1
290
     0
176
     1
290
     0
176
     1
290
     0
176
     1
290
     0
176
     1
290
     0
176
     1
 90
       50
176
     1
 40
0.0
176
     1
 40
1.0
176
     1
 90
        0
176
     1
 62
    18
420
        0
176
     1
 90
       50
176
     1
 90
        3
176
     1
 62
     5
420
      255
176
     1
290
     0
176
     1
 90
       50
176
     1
 90
       50
176
     1
 90
       50
176
     1
290
     0
176
     1
 90
       50
176
     1
 62
   256
176
     0
 40
1.0
176
     0
 90
        2
176
     1
  1
strokes_ogs.tif
176
     1
290
     0
176
     1
 40
1.0
176
     1
 40
1.0
176
     1
  0
VISUALSTYLE
  5
602
102
{ACAD_REACTORS
330
5EA
102
}
330
5EA
100
AcDbVisualStyle
  2
Shaded
 70
    27
177
     3
291
     0
 70
    58
 90
        2
176
     1
 90
        2
176
     1
 90
        1
176
     1
 90
        2
176
     1
 40
0.6
176
     1
 40
30.0
176
     1
 62
     7
420
 16777215
176
     1
 90
        0
176
     1
 90
        4
176
     1
 62
     7
176
     1
 62
   257
176
     1
 90
        1
176
     1
 90
        1
176
     1
 40
1.0
176
     1
 90
        8
176
     1
 62
   257
176
     1
 40
1.0
176
     1
 90
        1
176
     1
 90
        6
176
     1
 90
        2
176
     1
 62
     8
420
  7895160
176
     1
 90
        3
176
     1
 90
        0
176
     1
 90
        0
176
     1
290
     0
176
     1
 90
        5
176
     1
 40
0.0
176
     1
 90
        0
176
     1
290
     0
176
     1
290
     1
176
     1
290
     1
176
     1
290
     0
176
     1
290
     0
176
     1
290
     0
176
     1
290
     0
176
     1
290
     0
176
     1
290
     0
176
     1
 90
       50
176
     1
 40
0.0
176
     1
 40
1.0
176
     1
 90
        0
176
     1
 62
    18
420
        0
176
     1
 90
       50
176
     1
 90
        3
176
     1
 62
     5
420
      255
176
     1
290
     0
176
     1
 90
       50
176
     1
 90
       50
176
     1
 90
       50
176
     1
290
     0
176
     1
 90
       50
176
     1
 62
   256
176
     0
 40
1.0
176
     0
 90
        2
176
     1
  1
strokes_ogs.tif
176
     1
290
     0
176
     1
 40
1.0
176
     1
 40
1.0
176
     1
  0
VISUALSTYLE
  5
601
102
{ACAD_REACTORS
330
5EA
102
}
330
5EA
100
AcDbVisualStyle
  2
Shaded with edges
 70
    26
177
     3
291
     0
 70
    58
 90
        2
176
     1
 90
        2
176
     1
 90
        1
176
     1
 90
        2
176
     1
 40
0.6
176
     1
 40
30.0
176
     1
 62
     7
420
 16777215
176
     1
 90
        1
176
     1
 90
       10
176
     1
 62
     7
176
     1
 62
   257
176
     1
 90
        2
176
     1
 90
        1
176
     1
 40
1.0
176
     1
 90
        8
176
     1
 62
   257
176
     1
 40
1.0
176
     1
 90
        1
176
     1
 90
        6
176
     1
 90
        2
176
     1
 62
     7
176
     1
 90
        3
176
     1
 90
        0
176
     1
 90
        0
176
     1
290
     0
176
     1
 90
        5
176
     1
 40
0.0
176
     1
 90
        0
176
     1
290
     0
176
     1
290
     1
176
     1
290
     1
176
     1
290
     0
176
     1
290
     0
176
     1
290
     0
176
     1
290
     0
176
     1
290
     0
176
     1
290
     0
176
     1
 90
       50
176
     1
 40
0.0
176
     1
 40
1.0
176
     1
 90
        0
176
     1
 62
    18
420
        0
176
     1
 90
       50
176
     1
 90
        3
176
     1
 62
     5
420
      255
176
     1
290
     0
176
     1
 90
       50
176
     1
 90
       50
176
     1
 90
       50
176
     1
290
     0
176
     1
 90
       50
176
     1
 62
   256
176
     0
 40
1.0
176
     0
 90
        2
176
     1
  1
strokes_ogs.tif
176
     1
290
     0
176
     1
 40
1.0
176
     1
 40
1.0
176
     1
  0
VISUALSTYLE
  5
5FE
102
{ACAD_REACTORS
330
5EA
102
}
330
5EA
100
AcDbVisualStyle
  2
Shades of Gray
 70
    23
177
     3
291
     0
 70
    58
 90
        2
176
     1
 90
        2
176
     1
 90
        3
176
     1
 90
        0
176
     1
 40
0.6
176
     1
 40
30.0
176
     1
 62
     7
420
 16777215
176
     1
 90
        2
176
     1
 90
        2
176
     1
 62
     7
176
     1
 62
     7
176
     1
 90
        1
176
     1
 90
        1
176
     1
 40
40.0
176
     1
 90
        8
176
     1
 62
     7
176
     1
 40
1.0
176
     1
 90
        1
176
     1
 90
        6
176
     1
 90
        2
176
     1
 62
     7
176
     1
 90
        3
176
     1
 90
        0
176
     1
 90
        0
176
     1
290
     0
176
     1
 90
        1
176
     1
 40
0.0
176
     1
 90
        0
176
     1
290
     0
176
     1
290
     1
176
     1
290
     1
176
     1
290
     0
176
     1
290
     0
176
     1
290
     0
176
     1
290
     0
176
     1
290
     0
176
     1
290
     0
176
     1
 90
       50
176
     1
 40
0.0
176
     1
 40
1.0
176
     1
 90
        0
176
     1
 62
    18
420
        0
176
     1
 90
       50
176
     1
 90
        3
176
     1
 62
     5
420
      255
176
     1
290
     0
176
     1
 90
       50
176
     1
 90
       50
176
     1
 90
       50
176
     1
290
     0
176
     1
 90
       50
176
     1
 62
   256
176
     0
 40
1.0
176
     0
 90
        2
176
     1
  1
strokes_ogs.tif
176
     1
290
     0
176
     1
 40
1.0
176
     1
 40
1.0
176
     1
  0
VISUALSTYLE
  5
5FF
102
{ACAD_REACTORS
330
5EA
102
}
330
5EA
100
AcDbVisualStyle
  2
Sketchy
 70
    24
177
     3
291
     0
 70
    58
 90
        1
176
     1
 90
        2
176
     1
 90
        2
176
     1
 90
        0
176
     1
 40
0.6
176
     1
 40
30.0
176
     1
 62
     7
420
 16777215
176
     1
 90
        2
176
     1
 90
        2
176
     1
 62
     7
176
     1
 62
     7
176
     1
 90
        1
176
     1
 90
        1
176
     1
 40
40.0
176
     1
 90
       11
176
     1
 62
     7
176
     1
 40
1.0
176
     1
 90
        1
176
     1
 90
        6
176
     1
 90
        2
176
     1
 62
     7
176
     1
 90
        6
176
     1
 90
        0
176
     1
 90
        0
176
     1
290
     0
176
     1
 90
        1
176
     1
 40
0.0
176
     1
 90
        0
176
     1
290
     0
176
     1
290
     1
176
     1
290
     1
176
     1
290
     0
176
     1
290
     0
176
     1
290
     0
176
     1
290
     0
176
     1
290
     0
176
     1
290
     0
176
     1
 90
       50
176
     1
 40
0.0
176
     1
 40
1.0
176
     1
 90
        0
176
     1
 62
    18
420
        0
176
     1
 90
       50
176
     1
 90
        3
176
     1
 62
     5
420
      255
176
     1
290
     0
176
     1
 90
       50
176
     1
 90
       50
176
     1
 90
       50
176
     1
290
     0
176
     1
 90
       50
176
     1
 62
   256
176
     0
 40
1.0
176
     0
 90
        2
176
     1
  1
strokes_ogs.tif
176
     1
290
     0
176
     1
 40
1.0
176
     1
 40
1.0
176
     1
  0
VISUALSTYLE
  5
5F7
102
{ACAD_REACTORS
330
5EA
102
}
330
5EA
100
AcDbVisualStyle
  2
Thicken
 70
    13
177
     3
291
     1
 70
    58
 90
        2
176
     1
 90
        2
176
     1
 90
        0
176
     1
 90
        0
176
     1
 40
0.6
176
     1
 40
30.0
176
     1
 62
     7
420
 16777215
176
     1
 90
        1
176
     1
 90
        4
176
     1
 62
     7
176
     1
 62
   257
176
     1
 90
        1
176
     1
 90
        1
176
     1
 40
1.0
176
     1
 90
       12
176
     1
 62
     7
176
     1
 40
1.0
176
     1
 90
        1
176
     1
 90
        6
176
     1
 90
        2
176
     1
 62
     7
176
     1
 90
        5
176
     1
 90
        0
176
     1
 90
        0
176
     1
290
     0
176
     1
 90
        1
176
     1
 40
0.0
176
     1
 90
        0
176
     1
290
     0
176
     1
290
     1
176
     1
290
     1
176
     1
290
     0
176
     1
290
     0
176
     1
290
     0
176
     1
290
     0
176
     1
290
     0
176
     1
290
     0
176
     1
 90
       50
176
     1
 40
0.0
176
     1
 40
1.0
176
     1
 90
        0
176
     1
 62
    18
420
        0
176
     1
 90
       50
176
     1
 90
        3
176
     1
 62
     5
420
      255
176
     1
290
     0
176
     1
 90
       50
176
     1
 90
       50
176
     1
 90
       50
176
     1
290
     0
176
     1
 90
       50
176
     1
 62
   256
176
     0
 40
1.0
176
     0
 90
        2
176
     1
  1
strokes_ogs.tif
176
     1
290
     0
176
     1
 40
1.0
176
     1
 40
1.0
176
     1
  0
VISUALSTYLE
  5
5F0
102
{ACAD_REACTORS
330
5EA
102
}
330
5EA
100
AcDbVisualStyle
  2
Wireframe
 70
     5
177
     3
291
     0
 70
    58
 90
        0
176
     1
 90
        2
176
     1
 90
        0
176
     1
 90
        0
176
     1
 40
0.6
176
     1
 40
30.0
176
     1
 62
     7
420
 16777215
176
     1
 90
        1
176
     1
 90
        4
176
     1
 62
     7
176
     1
 62
   257
176
     1
 90
        1
176
     1
 90
        1
176
     1
 40
1.0
176
     1
 90
        0
176
     1
 62
   257
176
     1
 40
1.0
176
     1
 90
        1
176
     1
 90
        6
176
     1
 90
        2
176
     1
 62
     7
176
     1
 90
        3
176
     1
 90
        0
176
     1
 90
        0
176
     1
290
     0
176
     1
 90
        1
176
     1
 40
0.0
176
     1
 90
        0
176
     1
290
     0
176
     1
290
     1
176
     1
290
     1
176
     1
290
     0
176
     1
290
     0
176
     1
290
     0
176
     1
290
     0
176
     1
290
     0
176
     1
290
     0
176
     1
 90
       50
176
     1
 40
0.0
176
     1
 40
1.0
176
     1
 90
        0
176
     1
 62
    18
420
        0
176
     1
 90
       50
176
     1
 90
        3
176
     1
 62
     5
420
      255
176
     1
290
     0
176
     1
 90
       50
176
     1
 90
       50
176
     1
 90
       50
176
     1
290
     0
176
     1
 90
       50
176
     1
 62
   256
176
     0
 40
1.0
176
     0
 90
        2
176
     1
  1
strokes_ogs.tif
176
     1
290
     0
176
     1
 40
1.0
176
     1
 40
1.0
176
     1
  0
VISUALSTYLE
  5
600
102
{ACAD_REACTORS
330
5EA
102
}
330
5EA
100
AcDbVisualStyle
  2
X-Ray
 70
    25
177
     3
291
     0
 70
    58
 90
        2
176
     1
 90
        2
176
     1
 90
        1
176
     1
 90
        1
176
     1
 40
0.5
176
     1
 40
30.0
176
     1
 62
     7
420
 16777215
176
     1
 90
        1
176
     1
 90
        0
176
     1
 62
     7
176
     1
 62
   257
176
     1
 90
        1
176
     1
 90
        1
176
     1
 40
1.0
176
     1
 90
        8
176
     1
 62
     7
176
     1
 40
1.0
176
     1
 90
        1
176
     1
 90
        6
176
     1
 90
        2
176
     1
 62
     7
176
     1
 90
        3
176
     1
 90
        0
176
     1
 90
        0
176
     1
290
     0
176
     1
 90
       13
176
     1
 40
0.0
176
     1
 90
        0
176
     1
290
     0
176
     1
290
     1
176
     1
290
     1
176
     1
290
     0
176
     1
290
     0
176
     1
290
     0
176
     1
290
     0
176
     1
290
     0
176
     1
290
     0
176
     1
 90
       50
176
     1
 40
0.0
176
     1
 40
1.0
176
     1
 90
        0
176
     1
 62
    18
420
        0
176
     1
 90
       50
176
     1
 90
        3
176
     1
 62
     5
420
      255
176
     1
290
     0
176
     1
 90
       50
176
     1
 90
       50
176
     1
 90
       50
176
     1
290
     0
176
     1
 90
       50
176
     1
 62
   256
176
     0
 40
1.0
176
     0
 90
        2
176
     1
  1
strokes_ogs.tif
176
     1
290
     0
176
     1
 40
1.0
176
     1
 40
1.0
176
     1
  0
DICTIONARYVAR
  5
60F
102
{ACAD_REACTORS
330
60E
102
}
330
60E
100
DictionaryVariables
280
     0
  1
1:1
  0
DICTIONARYVAR
  5
614
102
{ACAD_REACTORS
330
60E
102
}
330
60E
100
DictionaryVariables
280
     0
  1
Standard
  0
DICTIONARYVAR
  5
613
102
{ACAD_REACTORS
330
60E
102
}
330
60E
100
DictionaryVariables
280
     0
  1
Standard
  0
DICTIONARYVAR
  5
615
102
{ACAD_REACTORS
330
60E
102
}
330
60E
100
DictionaryVariables
280
     0
  1
0
  0
DICTIONARY
  5
610
330
608
100
AcDbDictionary
280
     1
281
     1
  3
ACAD_ROUNDTRIP_2008_TABLESTYLE_CELLSTYLEMAP
360
611
  0
CELLSTYLEMAP
  5
611
102
{ACAD_REACTORS
330
610
102
}
330
610
100
AcDbCellStyleMap
 90
        3
300
CELLSTYLE
  1
TABLEFORMAT_BEGIN
 90
        5
170
     1
 91
        0
 92
    32768
 62
   257
 93
        1
300
CONTENTFORMAT
  1
CONTENTFORMAT_BEGIN
 90
        0
 91
        0
 92
        4
 93
        0
300

 40
0.0
140
1.0
 94
        5
 62
     0
340
11
144
0.25
309
CONTENTFORMAT_END
171
     1
301
MARGIN
  1
CELLMARGIN_BEGIN
 40
0.06
 40
0.06
 40
0.06
 40
0.06
 40
0.06
 40
0.06
309
CELLMARGIN_END
 94
        6
 95
        1
302
GRIDFORMAT
  1
GRIDFORMAT_BEGIN
 90
        0
 91
        1
 62
     0
 92
       -2
340
14
 93
        0
 40
0.045
309
GRIDFORMAT_END
 95
        2
302
GRIDFORMAT
  1
GRIDFORMAT_BEGIN
 90
        0
 91
        1
 62
     0
 92
       -2
340
14
 93
        0
 40
0.045
309
GRIDFORMAT_END
 95
        4
302
GRIDFORMAT
  1
GRIDFORMAT_BEGIN
 90
        0
 91
        1
 62
     0
 92
       -2
340
14
 93
        0
 40
0.045
309
GRIDFORMAT_END
 95
        8
302
GRIDFORMAT
  1
GRIDFORMAT_BEGIN
 90
        0
 91
        1
 62
     0
 92
       -2
340
14
 93
        0
 40
0.045
309
GRIDFORMAT_END
 95
       16
302
GRIDFORMAT
  1
GRIDFORMAT_BEGIN
 90
        0
 91
        1
 62
     0
 92
       -2
340
14
 93
        0
 40
0.045
309
GRIDFORMAT_END
 95
       32
302
GRIDFORMAT
  1
GRIDFORMAT_BEGIN
 90
        0
 91
        1
 62
     0
 92
       -2
340
14
 93
        0
 40
0.045
309
GRIDFORMAT_END
309
TABLEFORMAT_END
  1
CELLSTYLE_BEGIN
 90
        1
 91
        1
300
_TITLE
309
CELLSTYLE_END
300
CELLSTYLE
  1
TABLEFORMAT_BEGIN
 90
        5
170
     1
 91
        0
 92
        0
 62
   257
 93
        1
300
CONTENTFORMAT
  1
CONTENTFORMAT_BEGIN
 90
        0
 91
        0
 92
        4
 93
        0
300

 40
0.0
140
1.0
 94
        5
 62
     0
340
11
144
0.18
309
CONTENTFORMAT_END
171
     1
301
MARGIN
  1
CELLMARGIN_BEGIN
 40
0.06
 40
0.06
 40
0.06
 40
0.06
 40
0.06
 40
0.06
309
CELLMARGIN_END
 94
        6
 95
        1
302
GRIDFORMAT
  1
GRIDFORMAT_BEGIN
 90
        0
 91
        1
 62
     0
 92
       -2
340
14
 93
        0
 40
0.045
309
GRIDFORMAT_END
 95
        2
302
GRIDFORMAT
  1
GRIDFORMAT_BEGIN
 90
        0
 91
        1
 62
     0
 92
       -2
340
14
 93
        0
 40
0.045
309
GRIDFORMAT_END
 95
        4
302
GRIDFORMAT
  1
GRIDFORMAT_BEGIN
 90
        0
 91
        1
 62
     0
 92
       -2
340
14
 93
        0
 40
0.045
309
GRIDFORMAT_END
 95
        8
302
GRIDFORMAT
  1
GRIDFORMAT_BEGIN
 90
        0
 91
        1
 62
     0
 92
       -2
340
14
 93
        0
 40
0.045
309
GRIDFORMAT_END
 95
       16
302
GRIDFORMAT
  1
GRIDFORMAT_BEGIN
 90
        0
 91
        1
 62
     0
 92
       -2
340
14
 93
        0
 40
0.045
309
GRIDFORMAT_END
 95
       32
302
GRIDFORMAT
  1
GRIDFORMAT_BEGIN
 90
        0
 91
        1
 62
     0
 92
       -2
340
14
 93
        0
 40
0.045
309
GRIDFORMAT_END
309
TABLEFORMAT_END
  1
CELLSTYLE_BEGIN
 90
        2
 91
        1
300
_HEADER
309
CELLSTYLE_END
300
CELLSTYLE
  1
TABLEFORMAT_BEGIN
 90
        5
170
     1
 91
        0
 92
        0
 62
   257
 93
        1
300
CONTENTFORMAT
  1
CONTENTFORMAT_BEGIN
 90
        0
 91
        0
 92
        4
 93
        0
300

 40
0.0
140
1.0
 94
        2
 62
     0
340
11
144
0.18
309
CONTENTFORMAT_END
171
     1
301
MARGIN
  1
CELLMARGIN_BEGIN
 40
0.06
 40
0.06
 40
0.06
 40
0.06
 40
0.06
 40
0.06
309
CELLMARGIN_END
 94
        6
 95
        1
302
GRIDFORMAT
  1
GRIDFORMAT_BEGIN
 90
        0
 91
        1
 62
     0
 92
       -2
340
14
 93
        0
 40
0.045
309
GRIDFORMAT_END
 95
        2
302
GRIDFORMAT
  1
GRIDFORMAT_BEGIN
 90
        0
 91
        1
 62
     0
 92
       -2
340
14
 93
        0
 40
0.045
309
GRIDFORMAT_END
 95
        4
302
GRIDFORMAT
  1
GRIDFORMAT_BEGIN
 90
        0
 91
        1
 62
     0
 92
       -2
340
14
 93
        0
 40
0.045
309
GRIDFORMAT_END
 95
        8
302
GRIDFORMAT
  1
GRIDFORMAT_BEGIN
 90
        0
 91
        1
 62
     0
 92
       -2
340
14
 93
        0
 40
0.045
309
GRIDFORMAT_END
 95
       16
302
GRIDFORMAT
  1
GRIDFORMAT_BEGIN
 90
        0
 91
        1
 62
     0
 92
       -2
340
14
 93
        0
 40
0.045
309
GRIDFORMAT_END
 95
       32
302
GRIDFORMAT
  1
GRIDFORMAT_BEGIN
 90
        0
 91
        1
 62
     0
 92
       -2
340
14
 93
        0
 40
0.045
309
GRIDFORMAT_END
309
TABLEFORMAT_END
  1
CELLSTYLE_BEGIN
 90
        3
 91
        2
300
_DATA
309
CELLSTYLE_END
  0
ENDSEC
  0
EOF
