  0
SECTION
  2
HEADER
  9
$ACADVER
  1
AC1009
  9
$DWGCODEPAGE
  3
mac-roman
  9
$INSBASE
 10
0.0
 20
0.0
 30
0.0
  9
$EXTMIN
 10
-1504.594734985526
 20
-229.8500885373517
 30
0.0
  9
$EXTMAX
 10
-464.5947349855248
 20
810.1499114626484
 30
0.0
  9
$LIMMIN
 10
0.0
 20
0.0
  9
$LIMMAX
 10
12.0
 20
9.0
  9
$ORTHOMODE
 70
     0
  9
$REGENMODE
 70
     1
  9
$FILLMODE
 70
     1
  9
$QTEXTMODE
 70
     0
  9
$MIRRTEXT
 70
     1
  9
$DRAGMODE
 70
     2
  9
$LTSCALE
 40
1.0
  9
$OSMODE
 70
    37
  9
$ATTMODE
 70
     1
  9
$TEXTSIZE
 40
0.2
  9
$TRACEWID
 40
0.05
  9
$TEXTSTYLE
  7
STANDARD
  9
$CLAYER
  8
NO_CUT
  9
$CELTYPE
  6
BYLAYER
  9
$CECOLOR
 62
   256
  9
$DIMSCALE
 40
1.0
  9
$DIMASZ
 40
0.18
  9
$DIMEXO
 40
0.0625
  9
$DIMDLI
 40
0.38
  9
$DIMRND
 40
0.0
  9
$DIMDLE
 40
0.0
  9
$DIMEXE
 40
0.18
  9
$DIMTP
 40
0.0
  9
$DIMTM
 40
0.0
  9
$DIMTXT
 40
0.18
  9
$DIMCEN
 40
0.09
  9
$DIMTSZ
 40
0.0
  9
$DIMTOL
 70
     0
  9
$DIMLIM
 70
     0
  9
$DIMTIH
 70
     1
  9
$DIMTOH
 70
     1
  9
$DIMSE1
 70
     0
  9
$DIMSE2
 70
     0
  9
$DIMTAD
 70
     0
  9
$DIMZIN
 70
     0
  9
$DIMBLK
  1

  9
$DIMASO
 70
     1
  9
$DIMSHO
 70
     1
  9
$DIMPOST
  1

  9
$DIMAPOST
  1

  9
$DIMALT
 70
     0
  9
$DIMALTD
 70
     2
  9
$DIMALTF
 40
25.4
  9
$DIMLFAC
 40
1.0
  9
$DIMTOFL
 70
     0
  9
$DIMTVP
 40
0.0
  9
$DIMTIX
 70
     0
  9
$DIMSOXD
 70
     0
  9
$DIMSAH
 70
     0
  9
$DIMBLK1
  1

  9
$DIMBLK2
  1

  9
$DIMSTYLE
  2
STANDARD
  9
$DIMCLRD
 70
     0
  9
$DIMCLRE
 70
     0
  9
$DIMCLRT
 70
     0
  9
$DIMTFAC
 40
1.0
  9
$DIMGAP
 40
0.09
  9
$LUNITS
 70
     2
  9
$LUPREC
 70
     2
  9
$SKETCHINC
 40
0.1
  9
$FILLETRAD
 40
0.5
  9
$AUNITS
 70
     0
  9
$AUPREC
 70
     0
  9
$MENU
  1
.
  9
$ELEVATION
 40
0.0
  9
$PELEVATION
 40
0.0
  9
$THICKNESS
 40
0.0
  9
$LIMCHECK
 70
     0
  9
$CHAMFERA
 40
0.0
  9
$CHAMFERB
 40
0.0
  9
$SKPOLY
 70
     0
  9
$TDCREATE
 40
2457751.791134259
  9
$TDUPDATE
 40
2457751.791157407
  9
$TDINDWG
 40
0.0000000116
  9
$TDUSRTIMER
 40
0.0000000116
  9
$USRTIMER
 70
     1
  9
$ANGBASE
 50
0.0
  9
$ANGDIR
 70
     0
  9
$PDMODE
 70
     0
  9
$PDSIZE
 40
0.0
  9
$PLINEWID
 40
0.0
  9
$COORDS
 70
     1
  9
$SPLFRAME
 70
     0
  9
$SPLINETYPE
 70
     6
  9
$SPLINESEGS
 70
     8
  9
$ATTDIA
 70
     0
  9
$ATTREQ
 70
     1
  9
$HANDLING
 70
     1
  9
$HANDSEED
  5
132
  9
$SURFTAB1
 70
     6
  9
$SURFTAB2
 70
     6
  9
$SURFTYPE
 70
     6
  9
$SURFU
 70
     6
  9
$SURFV
 70
     6
  9
$UCSNAME
  2

  9
$UCSORG
 10
0.0
 20
0.0
 30
0.0
  9
$UCSXDIR
 10
1.0
 20
0.0
 30
0.0
  9
$UCSYDIR
 10
0.0
 20
1.0
 30
0.0
  9
$PUCSNAME
  2

  9
$PUCSORG
 10
0.0
 20
0.0
 30
0.0
  9
$PUCSXDIR
 10
1.0
 20
0.0
 30
0.0
  9
$PUCSYDIR
 10
0.0
 20
1.0
 30
0.0
  9
$USERI1
 70
     0
  9
$USERI2
 70
     0
  9
$USERI3
 70
     0
  9
$USERI4
 70
     0
  9
$USERI5
 70
     0
  9
$USERR1
 40
0.0
  9
$USERR2
 40
0.0
  9
$USERR3
 40
0.0
  9
$USERR4
 40
0.0
  9
$USERR5
 40
0.0
  9
$WORLDVIEW
 70
     1
  9
$SHADEDGE
 70
     3
  9
$SHADEDIF
 70
    70
  9
$TILEMODE
 70
     1
  9
$MAXACTVP
 70
    64
  9
$PLIMCHECK
 70
     0
  9
$PEXTMIN
 10
1.000000000000000E+20
 20
1.000000000000000E+20
 30
1.000000000000000E+20
  9
$PEXTMAX
 10
-1.000000000000000E+20
 20
-1.000000000000000E+20
 30
-1.000000000000000E+20
  9
$PLIMMIN
 10
0.0
 20
0.0
  9
$PLIMMAX
 10
12.0
 20
9.0
  9
$UNITMODE
 70
     0
  9
$VISRETAIN
 70
     1
  9
$PLINEGEN
 70
     0
  9
$PSLTSCALE
 70
     1
  0
ENDSEC
  0
SECTION
  2
TABLES
  0
TABLE
  2
VPORT
 70
     1
  0
VPORT
  2
*ACTIVE
 70
     0
 10
0.0
 20
0.0
 11
1.0
 21
1.0
 12
-984.5947349855253
 22
290.1499114626484
 13
0.0
 23
0.0
 14
0.5
 24
0.5
 15
0.5
 25
0.5
 16
0.0
 26
0.0
 36
1.0
 17
0.0
 27
0.0
 37
0.0
 40
1060.8
 41
1.000000000000001
 42
50.0
 43
0.0
 44
0.0
 50
0.0
 51
0.0
 71
     0
 72
   100
 73
     1
 74
     3
 75
     0
 76
     0
 77
     0
 78
     0
  0
ENDTAB
  0
TABLE
  2
LTYPE
 70
     1
  0
LTYPE
  2
CONTINUOUS
 70
     0
  3
Solid line
 72
    65
 73
     0
 40
0.0
  0
ENDTAB
  0
TABLE
  2
LAYER
 70
     4
  0
LAYER
  2
0
 70
     0
 62
     7
  6
CONTINUOUS
  0
LAYER
  2
20MM
 70
     0
 62
     1
  6
CONTINUOUS
  0
LAYER
  2
NO_CUT
 70
     0
 62
     7
  6
CONTINUOUS
  0
LAYER
  2
4MM
 70
     0
 62
     5
  6
CONTINUOUS
  0
ENDTAB
  0
TABLE
  2
STYLE
 70
     1
  0
STYLE
  2
STANDARD
 70
     0
 40
0.0
 41
1.0
 50
0.0
 71
     0
 42
0.2
  3
txt
  4

  0
ENDTAB
  0
TABLE
  2
VIEW
 70
     0
  0
ENDTAB
  0
TABLE
  2
UCS
 70
     0
  0
ENDTAB
  0
TABLE
  2
APPID
 70
     1
  0
APPID
  2
ACAD
 70
     0
  0
ENDTAB
  0
TABLE
  2
DIMSTYLE
 70
     1
  0
DIMSTYLE
  2
STANDARD
 70
     0
  3

  4

  5

  6

  7

 40
1.0
 41
0.18
 42
0.0625
 43
0.38
 44
0.18
 45
0.0
 46
0.0
 47
0.0
 48
0.0
140
0.18
141
0.09
142
0.0
143
25.4
144
1.0
145
0.0
146
1.0
147
0.09
 71
     0
 72
     0
 73
     1
 74
     1
 75
     0
 76
     0
 77
     0
 78
     0
170
     0
171
     2
172
     0
173
     0
174
     0
175
     0
176
     0
177
     0
178
     0
  0
ENDTAB
  0
ENDSEC
  0
SECTION
  2
BLOCKS
  0
BLOCK
  8
0
  2
$MODEL_SPACE
 70
     0
 10
0.0
 20
0.0
 30
0.0
  3
$MODEL_SPACE
  1

  0
ENDBLK
  5
21
  8
0
  0
BLOCK
 67
     1
  8
0
  2
$PAPER_SPACE
 70
     0
 10
0.0
 20
0.0
 30
0.0
  3
$PAPER_SPACE
  1

  0
ENDBLK
  5
1D
 67
     1
  8
0
  0
ENDSEC
  0
SECTION
  2
ENTITIES
  0
POLYLINE
  5
6F
  8
20MM
 66
     1
 10
0.0
 20
0.0
 30
0.0
 70
     1
  0
VERTEX
  5
70
  8
20MM
 10
-649.6878193105232
 20
-139.8500885373517
 30
0.0
  0
VERTEX
  5
71
  8
20MM
 10
-1319.501650660527
 20
-139.850088537352
 30
0.0
 42
-0.4142135623730948
  0
VERTEX
  5
72
  8
20MM
 10
-1414.594734985525
 20
-44.75700421235359
 30
0.0
  0
VERTEX
  5
73
  8
20MM
 10
-1414.594734985525
 20
625.0568271376503
 30
0.0
 42
-0.4142135623730973
  0
VERTEX
  5
74
  8
20MM
 10
-1319.501650660527
 20
720.1499114626487
 30
0.0
  0
VERTEX
  5
75
  8
20MM
 10
-649.6878193105232
 20
720.1499114626482
 30
0.0
 42
-0.4142135623730954
  0
VERTEX
  5
76
  8
20MM
 10
-554.5947349855251
 20
625.0568271376503
 30
0.0
  0
VERTEX
  5
77
  8
20MM
 10
-554.5947349855251
 20
-44.75700421235351
 30
0.0
 42
-0.4142135623730953
  0
SEQEND
  5
78
  8
20MM
  0
POLYLINE
  5
7A
  8
NO_CUT
 66
     1
 10
0.0
 20
0.0
 30
0.0
 70
     1
  0
VERTEX
  5
7B
  8
NO_CUT
 10
-649.6878193105232
 20
-149.8500885373517
 30
0.0
  0
VERTEX
  5
7C
  8
NO_CUT
 10
-1319.501650660527
 20
-149.8500885373516
 30
0.0
 42
-0.4142135623730955
  0
VERTEX
  5
7D
  8
NO_CUT
 10
-1424.594734985526
 20
-44.75700421235356
 30
0.0
  0
VERTEX
  5
7E
  8
NO_CUT
 10
-1424.594734985525
 20
625.0568271376503
 30
0.0
 42
-0.414213562373096
  0
VERTEX
  5
7F
  8
NO_CUT
 10
-1319.501650660527
 20
730.1499114626484
 30
0.0
  0
VERTEX
  5
80
  8
NO_CUT
 10
-649.6878193105232
 20
730.1499114626483
 30
0.0
 42
-0.4142135623730951
  0
VERTEX
  5
81
  8
NO_CUT
 10
-544.5947349855251
 20
625.0568271376503
 30
0.0
  0
VERTEX
  5
82
  8
NO_CUT
 10
-544.594734985525
 20
-44.75700421235354
 30
0.0
 42
-0.4142135623730946
  0
SEQEND
  5
83
  8
NO_CUT
  0
POLYLINE
  5
84
  8
20MM
 66
     1
 10
0.0
 20
0.0
 30
0.0
 70
     1
  0
VERTEX
  5
85
  8
20MM
 10
-964.594734985525
 20
270.1499114626483
 30
0.0
  0
VERTEX
  5
86
  8
20MM
 10
-1004.594734985525
 20
270.1499114626483
 30
0.0
  0
VERTEX
  5
87
  8
20MM
 10
-1004.594734985525
 20
310.1499114626486
 30
0.0
  0
VERTEX
  5
88
  8
20MM
 10
-964.5947349855248
 20
310.1499114626485
 30
0.0
  0
SEQEND
  5
89
  8
20MM
  0
POLYLINE
  5
8A
  8
20MM
 66
     1
 10
0.0
 20
0.0
 30
0.0
 70
     1
  0
VERTEX
  5
8B
  8
20MM
 10
-944.594734985525
 20
250.1499114626483
 30
0.0
  0
VERTEX
  5
8C
  8
20MM
 10
-1024.594734985526
 20
250.1499114626484
 30
0.0
  0
VERTEX
  5
8D
  8
20MM
 10
-1024.594734985525
 20
330.1499114626486
 30
0.0
  0
VERTEX
  5
8E
  8
20MM
 10
-944.5947349855248
 20
330.1499114626484
 30
0.0
  0
SEQEND
  5
8F
  8
20MM
  0
POLYLINE
  5
90
  8
20MM
 66
     1
 10
0.0
 20
0.0
 30
0.0
 70
     1
  0
VERTEX
  5
91
  8
20MM
 10
-924.594734985525
 20
230.1499114626483
 30
0.0
  0
VERTEX
  5
92
  8
20MM
 10
-1044.594734985526
 20
230.1499114626484
 30
0.0
  0
VERTEX
  5
93
  8
20MM
 10
-1044.594734985525
 20
350.1499114626486
 30
0.0
  0
VERTEX
  5
94
  8
20MM
 10
-924.5947349855248
 20
350.1499114626484
 30
0.0
  0
SEQEND
  5
95
  8
20MM
  0
POLYLINE
  5
96
  8
20MM
 66
     1
 10
0.0
 20
0.0
 30
0.0
 70
     1
  0
VERTEX
  5
97
  8
20MM
 10
-904.594734985525
 20
210.1499114626483
 30
0.0
  0
VERTEX
  5
98
  8
20MM
 10
-1064.594734985526
 20
210.1499114626484
 30
0.0
  0
VERTEX
  5
99
  8
20MM
 10
-1064.594734985525
 20
370.1499114626486
 30
0.0
  0
VERTEX
  5
9A
  8
20MM
 10
-904.5947349855248
 20
370.1499114626484
 30
0.0
  0
SEQEND
  5
9B
  8
20MM
  0
POLYLINE
  5
9C
  8
20MM
 66
     1
 10
0.0
 20
0.0
 30
0.0
 70
     1
  0
VERTEX
  5
9D
  8
20MM
 10
-884.594734985525
 20
190.1499114626483
 30
0.0
  0
VERTEX
  5
9E
  8
20MM
 10
-1084.594734985526
 20
190.1499114626484
 30
0.0
  0
VERTEX
  5
9F
  8
20MM
 10
-1084.594734985525
 20
390.1499114626486
 30
0.0
  0
VERTEX
  5
A0
  8
20MM
 10
-884.5947349855248
 20
390.1499114626484
 30
0.0
  0
SEQEND
  5
A1
  8
20MM
  0
POLYLINE
  5
A2
  8
20MM
 66
     1
 10
0.0
 20
0.0
 30
0.0
 70
     1
  0
VERTEX
  5
A3
  8
20MM
 10
-864.594734985525
 20
170.1499114626483
 30
0.0
  0
VERTEX
  5
A4
  8
20MM
 10
-1104.594734985526
 20
170.1499114626484
 30
0.0
  0
VERTEX
  5
A5
  8
20MM
 10
-1104.594734985525
 20
410.1499114626484
 30
0.0
  0
VERTEX
  5
A6
  8
20MM
 10
-864.5947349855248
 20
410.1499114626486
 30
0.0
  0
SEQEND
  5
A7
  8
20MM
  0
POLYLINE
  5
A8
  8
20MM
 66
     1
 10
0.0
 20
0.0
 30
0.0
 70
     1
  0
VERTEX
  5
A9
  8
20MM
 10
-844.594734985525
 20
150.1499114626483
 30
0.0
  0
VERTEX
  5
AA
  8
20MM
 10
-1124.594734985526
 20
150.1499114626484
 30
0.0
  0
VERTEX
  5
AB
  8
20MM
 10
-1124.594734985525
 20
430.1499114626484
 30
0.0
  0
VERTEX
  5
AC
  8
20MM
 10
-844.5947349855248
 20
430.1499114626484
 30
0.0
  0
SEQEND
  5
AD
  8
20MM
  0
POLYLINE
  5
AE
  8
20MM
 66
     1
 10
0.0
 20
0.0
 30
0.0
 70
     1
  0
VERTEX
  5
AF
  8
20MM
 10
-824.594734985525
 20
130.1499114626483
 30
0.0
  0
VERTEX
  5
B0
  8
20MM
 10
-1144.594734985526
 20
130.1499114626484
 30
0.0
  0
VERTEX
  5
B1
  8
20MM
 10
-1144.594734985525
 20
450.1499114626484
 30
0.0
  0
VERTEX
  5
B2
  8
20MM
 10
-824.5947349855248
 20
450.1499114626484
 30
0.0
  0
SEQEND
  5
B3
  8
20MM
  0
POLYLINE
  5
B4
  8
20MM
 66
     1
 10
0.0
 20
0.0
 30
0.0
 70
     1
  0
VERTEX
  5
B5
  8
20MM
 10
-804.594734985525
 20
110.1499114626483
 30
0.0
  0
VERTEX
  5
B6
  8
20MM
 10
-1164.594734985526
 20
110.1499114626484
 30
0.0
  0
VERTEX
  5
B7
  8
20MM
 10
-1164.594734985525
 20
470.1499114626484
 30
0.0
  0
VERTEX
  5
B8
  8
20MM
 10
-804.5947349855248
 20
470.1499114626484
 30
0.0
  0
SEQEND
  5
B9
  8
20MM
  0
POLYLINE
  5
BA
  8
20MM
 66
     1
 10
0.0
 20
0.0
 30
0.0
 70
     1
  0
VERTEX
  5
BB
  8
20MM
 10
-784.594734985525
 20
90.1499114626483
 30
0.0
  0
VERTEX
  5
BC
  8
20MM
 10
-1184.594734985526
 20
90.14991146264836
 30
0.0
  0
VERTEX
  5
BD
  8
20MM
 10
-1184.594734985525
 20
490.1499114626484
 30
0.0
  0
VERTEX
  5
BE
  8
20MM
 10
-784.5947349855248
 20
490.1499114626484
 30
0.0
  0
SEQEND
  5
BF
  8
20MM
  0
POLYLINE
  5
C0
  8
20MM
 66
     1
 10
0.0
 20
0.0
 30
0.0
 70
     1
  0
VERTEX
  5
C1
  8
20MM
 10
-764.5947349855248
 20
70.1499114626483
 30
0.0
  0
VERTEX
  5
C2
  8
20MM
 10
-1204.594734985526
 20
70.14991146264836
 30
0.0
  0
VERTEX
  5
C3
  8
20MM
 10
-1204.594734985525
 20
510.1499114626484
 30
0.0
  0
VERTEX
  5
C4
  8
20MM
 10
-764.5947349855248
 20
510.1499114626484
 30
0.0
  0
SEQEND
  5
C5
  8
20MM
  0
POLYLINE
  5
C6
  8
20MM
 66
     1
 10
0.0
 20
0.0
 30
0.0
 70
     1
  0
VERTEX
  5
C7
  8
20MM
 10
-744.594734985525
 20
50.1499114626483
 30
0.0
  0
VERTEX
  5
C8
  8
20MM
 10
-1224.594734985526
 20
50.14991146264835
 30
0.0
  0
VERTEX
  5
C9
  8
20MM
 10
-1224.594734985525
 20
530.1499114626484
 30
0.0
  0
VERTEX
  5
CA
  8
20MM
 10
-744.5947349855248
 20
530.1499114626484
 30
0.0
  0
SEQEND
  5
CB
  8
20MM
  0
POLYLINE
  5
CC
  8
20MM
 66
     1
 10
0.0
 20
0.0
 30
0.0
 70
     1
  0
VERTEX
  5
CD
  8
20MM
 10
-724.594734985525
 20
30.1499114626483
 30
0.0
  0
VERTEX
  5
CE
  8
20MM
 10
-1244.594734985526
 20
30.14991146264833
 30
0.0
  0
VERTEX
  5
CF
  8
20MM
 10
-1244.594734985525
 20
550.1499114626484
 30
0.0
  0
VERTEX
  5
D0
  8
20MM
 10
-724.5947349855248
 20
550.1499114626484
 30
0.0
  0
SEQEND
  5
D1
  8
20MM
  0
POLYLINE
  5
D2
  8
20MM
 66
     1
 10
0.0
 20
0.0
 30
0.0
 70
     1
  0
VERTEX
  5
D3
  8
20MM
 10
-704.594734985525
 20
10.1499114626483
 30
0.0
  0
VERTEX
  5
D4
  8
20MM
 10
-1264.594734985526
 20
10.14991146264832
 30
0.0
  0
VERTEX
  5
D5
  8
20MM
 10
-1264.594734985525
 20
570.1499114626486
 30
0.0
  0
VERTEX
  5
D6
  8
20MM
 10
-704.5947349855248
 20
570.1499114626484
 30
0.0
  0
SEQEND
  5
D7
  8
20MM
  0
POLYLINE
  5
D8
  8
20MM
 66
     1
 10
0.0
 20
0.0
 30
0.0
 70
     1
  0
VERTEX
  5
D9
  8
20MM
 10
-684.5947349855251
 20
-9.850088537351702
 30
0.0
  0
VERTEX
  5
DA
  8
20MM
 10
-1284.594734985526
 20
-9.85008853735168
 30
0.0
  0
VERTEX
  5
DB
  8
20MM
 10
-1284.594734985525
 20
590.1499114626486
 30
0.0
  0
VERTEX
  5
DC
  8
20MM
 10
-684.5947349855248
 20
590.1499114626484
 30
0.0
  0
SEQEND
  5
DD
  8
20MM
  0
POLYLINE
  5
DE
  8
20MM
 66
     1
 10
0.0
 20
0.0
 30
0.0
 70
     1
  0
VERTEX
  5
DF
  8
20MM
 10
-664.5947349855248
 20
-29.8500885373517
 30
0.0
  0
VERTEX
  5
E0
  8
20MM
 10
-1304.594734985526
 20
-29.85008853735167
 30
0.0
  0
VERTEX
  5
E1
  8
20MM
 10
-1304.594734985525
 20
610.1499114626486
 30
0.0
  0
VERTEX
  5
E2
  8
20MM
 10
-664.5947349855248
 20
610.1499114626483
 30
0.0
  0
SEQEND
  5
E3
  8
20MM
  0
POLYLINE
  5
E4
  8
20MM
 66
     1
 10
0.0
 20
0.0
 30
0.0
 70
     1
  0
VERTEX
  5
E5
  8
20MM
 10
-649.6878193105232
 20
-49.8500885373517
 30
0.0
  0
VERTEX
  5
E6
  8
20MM
 10
-1319.501650660527
 20
-49.85008853735187
 30
0.0
 42
-0.4142135623730527
  0
VERTEX
  5
E7
  8
20MM
 10
-1324.594734985525
 20
-44.75700421235398
 30
0.0
  0
VERTEX
  5
E8
  8
20MM
 10
-1324.594734985525
 20
625.0568271376507
 30
0.0
 42
-0.4142135623730877
  0
VERTEX
  5
E9
  8
20MM
 10
-1319.501650660527
 20
630.1499114626486
 30
0.0
  0
VERTEX
  5
EA
  8
20MM
 10
-649.6878193105231
 20
630.1499114626483
 30
0.0
 42
-0.4142135623730884
  0
VERTEX
  5
EB
  8
20MM
 10
-644.5947349855251
 20
625.0568271376503
 30
0.0
  0
VERTEX
  5
EC
  8
20MM
 10
-644.594734985525
 20
-44.75700421235345
 30
0.0
 42
-0.4142135623730969
  0
SEQEND
  5
ED
  8
20MM
  0
POLYLINE
  5
EE
  8
20MM
 66
     1
 10
0.0
 20
0.0
 30
0.0
 70
     1
  0
VERTEX
  5
EF
  8
20MM
 10
-649.6878193105232
 20
-69.8500885373517
 30
0.0
  0
VERTEX
  5
F0
  8
20MM
 10
-1319.501650660527
 20
-69.85008853735165
 30
0.0
 42
-0.4142135623731054
  0
VERTEX
  5
F1
  8
20MM
 10
-1344.594734985525
 20
-44.75700421235381
 30
0.0
  0
VERTEX
  5
F2
  8
20MM
 10
-1344.594734985525
 20
625.0568271376505
 30
0.0
 42
-0.4142135623730954
  0
VERTEX
  5
F3
  8
20MM
 10
-1319.501650660527
 20
650.1499114626486
 30
0.0
  0
VERTEX
  5
F4
  8
20MM
 10
-649.6878193105231
 20
650.1499114626483
 30
0.0
 42
-0.4142135623730976
  0
VERTEX
  5
F5
  8
20MM
 10
-624.5947349855248
 20
625.0568271376503
 30
0.0
  0
VERTEX
  5
F6
  8
20MM
 10
-624.594734985525
 20
-44.75700421235347
 30
0.0
 42
-0.4142135623730943
  0
SEQEND
  5
F7
  8
20MM
  0
POLYLINE
  5
F8
  8
20MM
 66
     1
 10
0.0
 20
0.0
 30
0.0
 70
     1
  0
VERTEX
  5
F9
  8
20MM
 10
-649.6878193105232
 20
-89.8500885373517
 30
0.0
  0
VERTEX
  5
FA
  8
20MM
 10
-1319.501650660527
 20
-89.85008853735177
 30
0.0
 42
-0.4142135623731005
  0
VERTEX
  5
FB
  8
20MM
 10
-1364.594734985525
 20
-44.75700421235367
 30
0.0
  0
VERTEX
  5
FC
  8
20MM
 10
-1364.594734985525
 20
625.0568271376505
 30
0.0
 42
-0.4142135623730954
  0
VERTEX
  5
FD
  8
20MM
 10
-1319.501650660527
 20
670.1499114626486
 30
0.0
  0
VERTEX
  5
FE
  8
20MM
 10
-649.6878193105231
 20
670.1499114626483
 30
0.0
 42
-0.4142135623730968
  0
VERTEX
  5
FF
  8
20MM
 10
-604.5947349855248
 20
625.0568271376503
 30
0.0
  0
VERTEX
  5
100
  8
20MM
 10
-604.594734985525
 20
-44.75700421235349
 30
0.0
 42
-0.4142135623730943
  0
SEQEND
  5
101
  8
20MM
  0
POLYLINE
  5
102
  8
20MM
 66
     1
 10
0.0
 20
0.0
 30
0.0
 70
     1
  0
VERTEX
  5
103
  8
20MM
 10
-649.6878193105232
 20
-109.8500885373517
 30
0.0
  0
VERTEX
  5
104
  8
20MM
 10
-1319.501650660527
 20
-109.8500885373518
 30
0.0
 42
-0.4142135623731013
  0
VERTEX
  5
105
  8
20MM
 10
-1384.594734985526
 20
-44.7570042123536
 30
0.0
  0
VERTEX
  5
106
  8
20MM
 10
-1384.594734985525
 20
625.0568271376504
 30
0.0
 42
-0.4142135623730964
  0
VERTEX
  5
107
  8
20MM
 10
-1319.501650660527
 20
690.1499114626488
 30
0.0
  0
VERTEX
  5
108
  8
20MM
 10
-649.6878193105232
 20
690.1499114626483
 30
0.0
 42
-0.4142135623730968
  0
VERTEX
  5
109
  8
20MM
 10
-584.594734985525
 20
625.0568271376503
 30
0.0
  0
VERTEX
  5
10A
  8
20MM
 10
-584.5947349855251
 20
-44.75700421235349
 30
0.0
 42
-0.4142135623730944
  0
SEQEND
  5
10B
  8
20MM
  0
POLYLINE
  5
10C
  8
20MM
 66
     1
 10
0.0
 20
0.0
 30
0.0
 70
     1
  0
VERTEX
  5
10D
  8
20MM
 10
-649.6878193105232
 20
-129.8500885373517
 30
0.0
  0
VERTEX
  5
10E
  8
20MM
 10
-1319.501650660527
 20
-129.8500885373516
 30
0.0
 42
-0.4142135623730968
  0
VERTEX
  5
10F
  8
20MM
 10
-1404.594734985526
 20
-44.75700421235357
 30
0.0
  0
VERTEX
  5
110
  8
20MM
 10
-1404.594734985525
 20
625.0568271376503
 30
0.0
 42
-0.4142135623730962
  0
VERTEX
  5
111
  8
20MM
 10
-1319.501650660527
 20
710.1499114626486
 30
0.0
  0
VERTEX
  5
112
  8
20MM
 10
-649.6878193105232
 20
710.1499114626482
 30
0.0
 42
-0.4142135623730959
  0
VERTEX
  5
113
  8
20MM
 10
-564.594734985525
 20
625.0568271376503
 30
0.0
  0
VERTEX
  5
114
  8
20MM
 10
-564.5947349855251
 20
-44.75700421235351
 30
0.0
 42
-0.4142135623730952
  0
SEQEND
  5
115
  8
20MM
  0
POLYLINE
  5
117
  8
4MM
 66
     1
 10
0.0
 20
0.0
 30
0.0
 70
     1
  0
VERTEX
  5
118
  8
4MM
 10
-649.6878193105232
 20
-229.8500885373517
 30
0.0
  0
VERTEX
  5
119
  8
4MM
 10
-1319.501650660527
 20
-229.8500885373516
 30
0.0
 42
-0.4142135623730946
  0
VERTEX
  5
11A
  8
4MM
 10
-1504.594734985526
 20
-44.75700421235364
 30
0.0
  0
VERTEX
  5
11B
  8
4MM
 10
-1504.594734985525
 20
625.0568271376502
 30
0.0
 42
-0.4142135623730952
  0
VERTEX
  5
11C
  8
4MM
 10
-1319.501650660527
 20
810.1499114626483
 30
0.0
  0
VERTEX
  5
11D
  8
4MM
 10
-649.6878193105232
 20
810.1499114626484
 30
0.0
 42
-0.4142135623730951
  0
VERTEX
  5
11E
  8
4MM
 10
-464.5947349855248
 20
625.0568271376502
 30
0.0
  0
VERTEX
  5
11F
  8
4MM
 10
-464.5947349855249
 20
-44.75700421235361
 30
0.0
 42
-0.4142135623730951
  0
SEQEND
  5
120
  8
4MM
  0
POLYLINE
  5
121
  8
NO_CUT
 66
     1
 10
0.0
 20
0.0
 30
0.0
 70
     1
  0
VERTEX
  5
122
  8
NO_CUT
 10
-649.6878193105232
 20
-209.8500885373517
 30
0.0
  0
VERTEX
  5
123
  8
NO_CUT
 10
-1319.501650660527
 20
-209.8500885373517
 30
0.0
 42
-0.4142135623730928
  0
VERTEX
  5
124
  8
NO_CUT
 10
-1484.594734985526
 20
-44.75700421235359
 30
0.0
  0
VERTEX
  5
125
  8
NO_CUT
 10
-1484.594734985525
 20
625.0568271376502
 30
0.0
 42
-0.4142135623730952
  0
VERTEX
  5
126
  8
NO_CUT
 10
-1319.501650660527
 20
790.1499114626483
 30
0.0
  0
VERTEX
  5
127
  8
NO_CUT
 10
-649.6878193105232
 20
790.1499114626482
 30
0.0
 42
-0.4142135623730948
  0
VERTEX
  5
128
  8
NO_CUT
 10
-484.594734985525
 20
625.0568271376502
 30
0.0
  0
VERTEX
  5
129
  8
NO_CUT
 10
-484.5947349855251
 20
-44.75700421235361
 30
0.0
 42
-0.4142135623730952
  0
SEQEND
  5
12A
  8
NO_CUT
  0
ENDSEC
  0
EOF
