  0
SECTION
  2
HEADER
  9
$ACADVER
  1
AC1015
  9
$ACADMAINTVER
 70
     6
  9
$DWGCODEPAGE
  3
ANSI_1252
  9
$INSBASE
 10
0.0
 20
0.0
 30
0.0
  9
$EXTMIN
 10
-103.2737388221
 20
-185.2761260846
 30
0.0
  9
$EXTMAX
 10
54.540580401
 20
176.6329739154
 30
0.0
  9
$LIMMIN
 10
0.0
 20
0.0
  9
$LIMMAX
 10
420.0
 20
297.0
  9
$ORTHOMODE
 70
     0
  9
$REGENMODE
 70
     1
  9
$FILLMODE
 70
     1
  9
$QTEXTMODE
 70
     0
  9
$MIRRTEXT
 70
     1
  9
$LTSCALE
 40
1.0
  9
$ATTMODE
 70
     1
  9
$TEXTSIZE
 40
3.5
  9
$TRACEWID
 40
1.0
  9
$TEXTSTYLE
  7
Standard
  9
$CLAYER
  8
0
  9
$CELTYPE
  6
ByLayer
  9
$CECOLOR
 62
   256
  9
$CELTSCALE
 40
1.0
  9
$DISPSILH
 70
     0
  9
$DIMSCALE
 40
1.0
  9
$DIMASZ
 40
3.302
  9
$DIMEXO
 40
1.0
  9
$DIMDLI
 40
3.75
  9
$DIMRND
 40
0.0
  9
$DIMDLE
 40
0.0
  9
$DIMEXE
 40
1.0
  9
$DIMTP
 40
0.0
  9
$DIMTM
 40
0.0
  9
$DIMTXT
 40
3.5
  9
$DIMCEN
 40
2.5
  9
$DIMTSZ
 40
0.0
  9
$DIMTOL
 70
     0
  9
$DIMLIM
 70
     0
  9
$DIMTIH
 70
     1
  9
$DIMTOH
 70
     1
  9
$DIMSE1
 70
     0
  9
$DIMSE2
 70
     0
  9
$DIMTAD
 70
     1
  9
$DIMZIN
 70
     0
  9
$DIMBLK
  1

  9
$DIMASO
 70
     1
  9
$DIMSHO
 70
     1
  9
$DIMPOST
  1

  9
$DIMAPOST
  1

  9
$DIMALT
 70
     0
  9
$DIMALTD
 70
     3
  9
$DIMALTF
 40
0.0393700787
  9
$DIMLFAC
 40
1.0
  9
$DIMTOFL
 70
     1
  9
$DIMTVP
 40
0.0
  9
$DIMTIX
 70
     0
  9
$DIMSOXD
 70
     0
  9
$DIMSAH
 70
     0
  9
$DIMBLK1
  1

  9
$DIMBLK2
  1

  9
$DIMSTYLE
  2
ISO-25
  9
$DIMCLRD
 70
     0
  9
$DIMCLRE
 70
     0
  9
$DIMCLRT
 70
     0
  9
$DIMTFAC
 40
1.0
  9
$DIMGAP
 40
1.524
  9
$DIMJUST
 70
     0
  9
$DIMSD1
 70
     0
  9
$DIMSD2
 70
     0
  9
$DIMTOLJ
 70
     0
  9
$DIMTZIN
 70
     0
  9
$DIMALTZ
 70
     0
  9
$DIMALTTZ
 70
     0
  9
$DIMUPT
 70
     0
  9
$DIMDEC
 70
     2
  9
$DIMTDEC
 70
     2
  9
$DIMALTU
 70
     2
  9
$DIMALTTD
 70
     3
  9
$DIMTXSTY
  7
Standard
  9
$DIMAUNIT
 70
     0
  9
$DIMADEC
 70
     2
  9
$DIMALTRND
 40
0.0
  9
$DIMAZIN
 70
     0
  9
$DIMDSEP
 70
    44
  9
$DIMATFIT
 70
     3
  9
$DIMFRAC
 70
     0
  9
$DIMLDRBLK
  1

  9
$DIMLUNIT
 70
     2
  9
$DIMLWD
 70
    -2
  9
$DIMLWE
 70
    -2
  9
$DIMTMOVE
 70
     0
  9
$LUNITS
 70
     2
  9
$LUPREC
 70
     2
  9
$SKETCHINC
 40
1.0
  9
$FILLETRAD
 40
10.0
  9
$AUNITS
 70
     0
  9
$AUPREC
 70
     2
  9
$MENU
  1
.
  9
$ELEVATION
 40
0.0
  9
$PELEVATION
 40
0.0
  9
$THICKNESS
 40
0.0
  9
$LIMCHECK
 70
     0
  9
$CHAMFERA
 40
10.0
  9
$CHAMFERB
 40
10.0
  9
$CHAMFERC
 40
20.0
  9
$CHAMFERD
 40
0.0
  9
$SKPOLY
 70
     0
  9
$TDCREATE
 40
2456780.584971933
  9
$TDUCREATE
 40
2456780.2516386
  9
$TDUPDATE
 40
2456780.585023206
  9
$TDUUPDATE
 40
2456780.251689873
  9
$TDINDWG
 40
0.0000000116
  9
$TDUSRTIMER
 40
0.0000000116
  9
$USRTIMER
 70
     1
  9
$ANGBASE
 50
0.0
  9
$ANGDIR
 70
     0
  9
$PDMODE
 70
     0
  9
$PDSIZE
 40
-1.0
  9
$PLINEWID
 40
0.0
  9
$SPLFRAME
 70
     0
  9
$SPLINETYPE
 70
     6
  9
$SPLINESEGS
 70
     8
  9
$HANDSEED
  5
11C
  9
$SURFTAB1
 70
     6
  9
$SURFTAB2
 70
     6
  9
$SURFTYPE
 70
     6
  9
$SURFU
 70
     6
  9
$SURFV
 70
     6
  9
$UCSBASE
  2

  9
$UCSNAME
  2

  9
$UCSORG
 10
0.0
 20
0.0
 30
0.0
  9
$UCSXDIR
 10
1.0
 20
0.0
 30
0.0
  9
$UCSYDIR
 10
0.0
 20
1.0
 30
0.0
  9
$UCSORTHOREF
  2

  9
$UCSORTHOVIEW
 70
     0
  9
$UCSORGTOP
 10
0.0
 20
0.0
 30
0.0
  9
$UCSORGBOTTOM
 10
0.0
 20
0.0
 30
0.0
  9
$UCSORGLEFT
 10
0.0
 20
0.0
 30
0.0
  9
$UCSORGRIGHT
 10
0.0
 20
0.0
 30
0.0
  9
$UCSORGFRONT
 10
0.0
 20
0.0
 30
0.0
  9
$UCSORGBACK
 10
0.0
 20
0.0
 30
0.0
  9
$PUCSBASE
  2

  9
$PUCSNAME
  2

  9
$PUCSORG
 10
0.0
 20
0.0
 30
0.0
  9
$PUCSXDIR
 10
1.0
 20
0.0
 30
0.0
  9
$PUCSYDIR
 10
0.0
 20
1.0
 30
0.0
  9
$PUCSORTHOREF
  2

  9
$PUCSORTHOVIEW
 70
     0
  9
$PUCSORGTOP
 10
0.0
 20
0.0
 30
0.0
  9
$PUCSORGBOTTOM
 10
0.0
 20
0.0
 30
0.0
  9
$PUCSORGLEFT
 10
0.0
 20
0.0
 30
0.0
  9
$PUCSORGRIGHT
 10
0.0
 20
0.0
 30
0.0
  9
$PUCSORGFRONT
 10
0.0
 20
0.0
 30
0.0
  9
$PUCSORGBACK
 10
0.0
 20
0.0
 30
0.0
  9
$USERI1
 70
     0
  9
$USERI2
 70
     0
  9
$USERI3
 70
     0
  9
$USERI4
 70
     0
  9
$USERI5
 70
     0
  9
$USERR1
 40
0.0
  9
$USERR2
 40
0.0
  9
$USERR3
 40
0.0
  9
$USERR4
 40
0.0
  9
$USERR5
 40
0.0
  9
$WORLDVIEW
 70
     1
  9
$SHADEDGE
 70
     3
  9
$SHADEDIF
 70
    70
  9
$TILEMODE
 70
     1
  9
$MAXACTVP
 70
    64
  9
$PINSBASE
 10
0.0
 20
0.0
 30
0.0
  9
$PLIMCHECK
 70
     0
  9
$PEXTMIN
 10
1.0000000000E+20
 20
1.0000000000E+20
 30
1.0000000000E+20
  9
$PEXTMAX
 10
-1.0000000000E+20
 20
-1.0000000000E+20
 30
-1.0000000000E+20
  9
$PLIMMIN
 10
0.0
 20
0.0
  9
$PLIMMAX
 10
420.0
 20
297.0
  9
$UNITMODE
 70
     0
  9
$VISRETAIN
 70
     1
  9
$PLINEGEN
 70
     0
  9
$PSLTSCALE
 70
     1
  9
$TREEDEPTH
 70
  3020
  9
$CMLSTYLE
  2
Standard
  9
$CMLJUST
 70
     0
  9
$CMLSCALE
 40
20.0
  9
$PROXYGRAPHICS
 70
     1
  9
$MEASUREMENT
 70
     1
  9
$CELWEIGHT
370
    -1
  9
$ENDCAPS
280
     0
  9
$JOINSTYLE
280
     0
  9
$LWDISPLAY
290
     1
  9
$INSUNITS
 70
     4
  9
$HYPERLINKBASE
  1

  9
$STYLESHEET
  1

  9
$XEDIT
290
     1
  9
$CEPSNTYPE
380
     0
  9
$PSTYLEMODE
290
     1
  9
$FINGERPRINTGUID
  2
{49A70180-DF8A-4AA8-B217-863D6FF76BB7}
  9
$VERSIONGUID
  2
{FAEB1C32-E019-11D5-929B-00C0DF256EC4}
  9
$EXTNAMES
290
     1
  9
$PSVPSCALE
 40
0.0
  9
$OLESTARTUP
290
     0
  0
ENDSEC
  0
SECTION
  2
CLASSES
  0
CLASS
  1
ACDBDICTIONARYWDFLT
  2
AcDbDictionaryWithDefault
  3
ObjectDBX Classes
 90
        0
280
     0
281
     0
  0
CLASS
  1
VISUALSTYLE
  2
AcDbVisualStyle
  3
ObjectDBX Classes
 90
     4095
280
     0
281
     0
  0
CLASS
  1
MATERIAL
  2
AcDbMaterial
  3
ObjectDBX Classes
 90
     1153
280
     0
281
     0
  0
CLASS
  1
ACDBPLACEHOLDER
  2
AcDbPlaceHolder
  3
ObjectDBX Classes
 90
        0
280
     0
281
     0
  0
CLASS
  1
LAYOUT
  2
AcDbLayout
  3
ObjectDBX Classes
 90
        0
280
     0
281
     0
  0
ENDSEC
  0
SECTION
  2
TABLES
  0
TABLE
  2
VPORT
  5
8
330
0
100
AcDbSymbolTable
 70
     1
  0
VPORT
  5
29
330
8
100
AcDbSymbolTableRecord
100
AcDbViewportTableRecord
  2
*Active
 70
     0
 10
0.0
 20
0.0
 11
1.0
 21
1.0
 12
-24.3665792106
 22
-4.3215760846
 13
0.0
 23
0.0
 14
10.0
 24
10.0
 15
10.0
 25
10.0
 16
0.0
 26
0.0
 36
1.0
 17
0.0
 27
0.0
 37
0.0
 40
369.147282
 41
0.4360606551
 42
50.0
 43
0.0
 44
0.0
 50
0.0
 51
0.0
 71
     0
 72
   100
 73
     1
 74
     3
 75
     0
 76
     0
 77
     0
 78
     0
281
     0
 65
     1
110
0.0
120
0.0
130
0.0
111
1.0
121
0.0
131
0.0
112
0.0
122
1.0
132
0.0
 79
     0
146
0.0
  0
ENDTAB
  0
TABLE
  2
LTYPE
  5
5
330
0
100
AcDbSymbolTable
 70
     6
  0
LTYPE
  5
14
330
5
100
AcDbSymbolTableRecord
100
AcDbLinetypeTableRecord
  2
ByBlock
 70
     0
  3

 72
    65
 73
     0
 40
0.0
  0
LTYPE
  5
15
330
5
100
AcDbSymbolTableRecord
100
AcDbLinetypeTableRecord
  2
ByLayer
 70
     0
  3

 72
    65
 73
     0
 40
0.0
  0
LTYPE
  5
16
330
5
100
AcDbSymbolTableRecord
100
AcDbLinetypeTableRecord
  2
Continuous
 70
     0
  3
Solid line
 72
    65
 73
     0
 40
0.0
  0
LTYPE
  5
3F
330
5
100
AcDbSymbolTableRecord
100
AcDbLinetypeTableRecord
  2
HIDDEN
 70
     0
  3
Hidden __ __ __ __ __ __ __ __ __ __ __ __ __ __
 72
    65
 73
     2
 40
1.905
 49
1.27
 74
     0
 49
-0.635
 74
     0
  0
LTYPE
  5
40
330
5
100
AcDbSymbolTableRecord
100
AcDbLinetypeTableRecord
  2
PHANTOM
 70
     0
  3
Phantom ______  __  __  ______  __  __  ______
 72
    65
 73
     6
 40
12.7
 49
6.35
 74
     0
 49
-1.27
 74
     0
 49
1.27
 74
     0
 49
-1.27
 74
     0
 49
1.27
 74
     0
 49
-1.27
 74
     0
  0
LTYPE
  5
41
330
5
100
AcDbSymbolTableRecord
100
AcDbLinetypeTableRecord
  2
CENTER
 70
     0
  3
Center ____ _ ____ _ ____ _ ____ _ ____ _ ____
 72
    65
 73
     4
 40
10.16
 49
6.35
 74
     0
 49
-1.27
 74
     0
 49
1.27
 74
     0
 49
-1.27
 74
     0
  0
LTYPE
  5
42
330
5
100
AcDbSymbolTableRecord
100
AcDbLinetypeTableRecord
  2
CENTERX2
 70
     0
  3
Center (2x) ________  __  ________  __  _____
 72
    65
 73
     4
 40
20.32
 49
12.7
 74
     0
 49
-2.54
 74
     0
 49
2.54
 74
     0
 49
-2.54
 74
     0
  0
LTYPE
  5
43
330
5
100
AcDbSymbolTableRecord
100
AcDbLinetypeTableRecord
  2
DOT2
 70
     0
  3
Dot (.5x) ........................................
 72
    65
 73
     2
 40
0.635
 49
0.0
 74
     0
 49
-0.635
 74
     0
  0
ENDTAB
  0
TABLE
  2
LAYER
  5
2
330
0
100
AcDbSymbolTable
 70
     1
  0
LAYER
  5
10
330
2
100
AcDbSymbolTableRecord
100
AcDbLayerTableRecord
  2
0
 70
     0
 62
     7
  6
Continuous
370
    -3
390
F
  0
ENDTAB
  0
TABLE
  2
STYLE
  5
3
330
0
100
AcDbSymbolTable
 70
     1
  0
STYLE
  5
11
330
3
100
AcDbSymbolTableRecord
100
AcDbTextStyleTableRecord
  2
Standard
 70
     0
 40
0.0
 41
1.0
 50
0.0
 71
     0
 42
3.5
  3
txt
  4

  0
ENDTAB
  0
TABLE
  2
VIEW
  5
6
330
0
100
AcDbSymbolTable
 70
     0
  0
ENDTAB
  0
TABLE
  2
UCS
  5
7
330
0
100
AcDbSymbolTable
 70
     0
  0
ENDTAB
  0
TABLE
  2
APPID
  5
9
330
0
100
AcDbSymbolTable
 70
     1
  0
APPID
  5
12
330
9
100
AcDbSymbolTableRecord
100
AcDbRegAppTableRecord
  2
ACAD
 70
     0
  0
ENDTAB
  0
TABLE
  2
DIMSTYLE
  5
A
330
0
100
AcDbSymbolTable
 70
     1
100
AcDbDimStyleTable
  0
DIMSTYLE
105
27
330
A
100
AcDbSymbolTableRecord
100
AcDbDimStyleTableRecord
  2
ISO-25
 70
     0
 41
2.5
 42
0.625
 43
3.75
 44
1.25
 73
     0
 74
     0
 77
     1
 78
     8
140
2.5
141
2.5
143
0.0393700787
147
0.625
171
     3
172
     1
178
     0
271
     2
272
     2
274
     3
278
    44
283
     0
284
     8
340
11
  0
ENDTAB
  0
TABLE
  2
BLOCK_RECORD
  5
1
330
0
100
AcDbSymbolTable
 70
     1
  0
BLOCK_RECORD
  5
1F
330
1
100
AcDbSymbolTableRecord
100
AcDbBlockTableRecord
  2
*Model_Space
340
22
  0
BLOCK_RECORD
  5
1B
330
1
100
AcDbSymbolTableRecord
100
AcDbBlockTableRecord
  2
*Paper_Space
340
1E
  0
BLOCK_RECORD
  5
23
330
1
100
AcDbSymbolTableRecord
100
AcDbBlockTableRecord
  2
*Paper_Space0
340
26
  0
ENDTAB
  0
ENDSEC
  0
SECTION
  2
BLOCKS
  0
BLOCK
  5
20
330
1F
100
AcDbEntity
  8
0
100
AcDbBlockBegin
  2
*Model_Space
 70
     0
 10
0.0
 20
0.0
 30
0.0
  3
*Model_Space
  1

  0
ENDBLK
  5
21
330
1F
100
AcDbEntity
  8
0
100
AcDbBlockEnd
  0
BLOCK
  5
1C
330
1B
100
AcDbEntity
 67
     1
  8
0
100
AcDbBlockBegin
  2
*Paper_Space
 70
     0
 10
0.0
 20
0.0
 30
0.0
  3
*Paper_Space
  1

  0
ENDBLK
  5
1D
330
1B
100
AcDbEntity
 67
     1
  8
0
100
AcDbBlockEnd
  0
BLOCK
  5
24
330
23
100
AcDbEntity
  8
0
100
AcDbBlockBegin
  2
*Paper_Space0
 70
     0
 10
0.0
 20
0.0
 30
0.0
  3
*Paper_Space0
  1

  0
ENDBLK
  5
25
330
23
100
AcDbEntity
  8
0
100
AcDbBlockEnd
  0
ENDSEC
  0
SECTION
  2
ENTITIES
  0
SPLINE
  5
44
330
1F
100
AcDbEntity
  8
0
  6
Continuous
 62
     7
370
    15
100
AcDbSpline
210
0.0
220
0.0
230
1.0
 70
     8
 71
     3
 72
    51
 73
    47
 74
     0
 42
0.00000001
 43
0.00000001
 12
1.0
 22
0.0
 32
0.0
 13
1.0
 23
0.0
 33
0.0
 40
0.0
 40
0.0
 40
0.0
 40
0.0
 40
0.0624999999999993
 40
0.0624999999999993
 40
0.0937499999999995
 40
0.0937499999999995
 40
0.1249999999999996
 40
0.1249999999999996
 40
0.1874999999999999
 40
0.1874999999999999
 40
0.2187500000000008
 40
0.2187500000000008
 40
0.2500000000000018
 40
0.2500000000000018
 40
0.3125000000000037
 40
0.3125000000000037
 40
0.3437500000000041
 40
0.3437500000000041
 40
0.3750000000000046
 40
0.406250000000005
 40
0.406250000000005
 40
0.4375000000000054
 40
0.4375000000000054
 40
0.5000000000000064
 40
0.5000000000000064
 40
0.5312500000000069
 40
0.5312500000000069
 40
0.5625000000000073
 40
0.5625000000000073
 40
0.6250000000000071
 40
0.6250000000000071
 40
0.6562500000000062
 40
0.6562500000000062
 40
0.6875000000000053
 40
0.6875000000000053
 40
0.7500000000000042
 40
0.7500000000000042
 40
0.8125000000000031
 40
0.8125000000000031
 40
0.8437500000000023
 40
0.8437500000000023
 40
0.8750000000000016
 40
0.8750000000000016
 40
0.9375000000000008
 40
0.9375000000000008
 40
1.0
 40
1.0
 40
1.0
 40
1.0
 10
-65.67990008173479
 20
95.4106976230154
 30
0.0
 10
-66.42076992541462
 20
95.41012485455776
 30
0.0
 10
-67.14931972293446
 20
95.48225390768725
 30
0.0
 10
-68.22441198663351
 20
95.6950883412425
 30
0.0
 10
-68.57979871980642
 20
95.7836028197273
 30
0.0
 10
-69.28448024429494
 20
95.99658093340258
 30
0.0
 10
-69.63471918675933
 20
96.12164296828817
 30
0.0
 10
-70.65352690595762
 20
96.54315185840593
 30
0.0
 10
-71.29783818442137
 20
96.8872361576335
 30
0.0
 10
-72.21241607990541
 20
97.49716347434946
 30
0.0
 10
-72.50956716528098
 20
97.71704879331016
 30
0.0
 10
-73.0812673899366
 20
98.18584165273876
 30
0.0
 10
-73.35332753252963
 20
98.43253045127264
 30
0.0
 10
-74.12942659350385
 20
99.2083253475914
 30
0.0
 10
-74.59376398598519
 20
99.77282135619171
 30
0.0
 10
-75.20875945778528
 20
100.6922238727136
 30
0.0
 10
-75.39965785463927
 20
101.0107309304334
 30
0.0
 10
-75.7456273672283
 20
101.6581256063255
 30
0.0
 10
-76.05816389550182
 20
102.3192900937317
 30
0.0
 10
-76.30484048769596
 20
103.0075798565117
 30
0.0
 10
-76.51813564137358
 20
103.7096182009949
 30
0.0
 10
-76.60844337913545
 20
104.0694679667492
 30
0.0
 10
-76.8242744040806
 20
105.1550370129665
 30
0.0
 10
-76.89537499710772
 20
105.8826450409437
 30
0.0
 10
-76.89573535427729
 20
106.9797454357078
 30
0.0
 10
-76.87801291028175
 20
107.3464004481418
 30
0.0
 10
-76.80579339278256
 20
108.0816785416798
 30
0.0
 10
-76.75136251179059
 20
108.4478365108461
 30
0.0
 10
-76.53667894272495
 20
109.526405710044
 30
0.0
 10
-76.32495845063215
 20
110.2254517835921
 30
0.0
 10
-75.90387329979318
 20
111.2438437606851
 30
0.0
 10
-75.74510306812194
 20
111.5799894571838
 30
0.0
 10
-75.39798970685996
 20
112.2296625178104
 30
0.0
 10
-75.20959995292996
 20
112.543890421799
 30
0.0
 10
-74.60098892587388
 20
113.4555045472197
 30
0.0
 10
-74.13774992979207
 20
114.0221244575189
 30
0.0
 10
-73.0917401717183
 20
115.0698750600091
 30
0.0
 10
-72.5245683235972
 20
115.5350560409738
 30
0.0
 10
-71.61415087826572
 20
116.1449100513953
 30
0.0
 10
-71.30045025683442
 20
116.333644071008
 30
0.0
 10
-70.6521571040721
 20
116.6813910768797
 30
0.0
 10
-70.31610975197717
 20
116.8408402967948
 30
0.0
 10
-69.29728359475824
 20
117.2640820928815
 30
0.0
 10
-68.59846742922264
 20
117.4768621083924
 30
0.0
 10
-67.16210006622676
 20
117.7652967923614
 30
0.0
 10
-66.4207665057879
 20
117.8401248572015
 30
0.0
 10
-65.67990008173479
 20
117.8406976230154
 30
0.0
  0
SPLINE
  5
45
330
1F
100
AcDbEntity
  8
0
  6
Continuous
 62
     7
370
    15
100
AcDbSpline
210
0.0
220
0.0
230
1.0
 70
     8
 71
     3
 72
     8
 73
     4
 74
     0
 42
0.00000001
 43
0.00000001
 12
1.0
 22
0.0
 32
0.0
 13
1.0
 23
0.0
 33
0.0
 40
0.0
 40
0.0
 40
0.0
 40
0.0
 40
1.0
 40
1.0
 40
1.0
 40
1.0
 10
-65.67990008173481
 20
117.8406976230153
 30
0.0
 10
-65.69168465965049
 20
117.7750947070672
 30
0.0
 10
-65.69168465965046
 20
117.7094781236624
 30
0.0
 10
-65.67990008173477
 20
117.6438752077142
 30
0.0
  0
SPLINE
  5
46
330
1F
100
AcDbEntity
  8
0
  6
Continuous
 62
     7
370
    15
100
AcDbSpline
210
0.0
220
0.0
230
1.0
 70
     8
 71
     3
 72
    17
 73
    13
 74
     0
 42
0.00000001
 43
0.00000001
 12
1.0
 22
0.0
 32
0.0
 13
1.0
 23
0.0
 33
0.0
 40
0.0
 40
0.0
 40
0.0
 40
0.0
 40
0.0985411742428465
 40
0.2016697471182134
 40
0.3077926897841357
 40
0.4108577206451059
 40
0.5169140489661489
 40
0.6199383219121809
 40
0.7259505134787468
 40
0.8289734255017116
 40
0.9349817349241265
 40
1.0
 40
1.0
 40
1.0
 40
1.0
 10
-76.8748410864077
 20
105.9681095218235
 30
0.0
 10
-76.87690783532308
 20
106.5627670766441
 30
0.0
 10
-76.8811375467541
 20
107.7797653479158
 30
0.0
 10
-76.48981073979671
 20
109.6047558958815
 30
0.0
 10
-75.81397580914016
 20
111.3669457293628
 30
0.0
 10
-74.8357185602445
 20
113.0043523599323
 30
0.0
 10
-73.60995930845387
 20
114.4408037611283
 30
0.0
 10
-72.14677949151069
 20
115.6615438357037
 30
0.0
 10
-70.51466643269084
 20
116.61174552295
 30
0.0
 10
-68.730339000266
 20
117.2758153904995
 30
0.0
 10
-67.10145315669344
 20
117.6005103393715
 30
0.0
 10
-66.07146515392118
 20
117.6319304072688
 30
0.0
 10
-65.67990008173479
 20
117.6438752077143
 30
0.0
  0
SPLINE
  5
47
330
1F
100
AcDbEntity
  8
0
  6
Continuous
 62
     7
370
    15
100
AcDbSpline
210
0.0
220
0.0
230
1.0
 70
     8
 71
     3
 72
    51
 73
    47
 74
     0
 42
0.00000001
 43
0.00000001
 12
1.0
 22
0.0
 32
0.0
 13
1.0
 23
0.0
 33
0.0
 40
0.0
 40
0.0
 40
0.0
 40
0.0
 40
0.062500000000001
 40
0.062500000000001
 40
0.0937500000000015
 40
0.0937500000000015
 40
0.1250000000000021
 40
0.1250000000000021
 40
0.187500000000002
 40
0.187500000000002
 40
0.2187500000000014
 40
0.2187500000000014
 40
0.2500000000000009
 40
0.2500000000000009
 40
0.3125000000000007
 40
0.3125000000000007
 40
0.3437500000000006
 40
0.3437500000000006
 40
0.3750000000000005
 40
0.4062500000000004
 40
0.4062500000000004
 40
0.4375000000000003
 40
0.4375000000000003
 40
0.5000000000000001
 40
0.5000000000000001
 40
0.5312500000000001
 40
0.5312500000000001
 40
0.5625
 40
0.5625
 40
0.6249999999999998
 40
0.6249999999999998
 40
0.6562499999999996
 40
0.6562499999999996
 40
0.6874999999999993
 40
0.6874999999999993
 40
0.7499999999999994
 40
0.7499999999999994
 40
0.8124999999999996
 40
0.8124999999999996
 40
0.8437499999999997
 40
0.8437499999999997
 40
0.8749999999999997
 40
0.8749999999999997
 40
0.9374999999999999
 40
0.9374999999999999
 40
1.0
 40
1.0
 40
1.0
 40
1.0
 10
-65.67990008173479
 20
-9.309102376984589
 30
0.0
 10
-66.42076992541463
 20
-9.309675145442188
 30
0.0
 10
-67.14931972293448
 20
-9.237546092312744
 30
0.0
 10
-68.22441198663348
 20
-9.024711658757493
 30
0.0
 10
-68.57979871980638
 20
-8.93619718027268
 30
0.0
 10
-69.28448024429488
 20
-8.723219066597416
 30
0.0
 10
-69.63471918675931
 20
-8.59815703171184
 30
0.0
 10
-70.65352690595762
 20
-8.176648141594068
 30
0.0
 10
-71.2978381844214
 20
-7.832563842366521
 30
0.0
 10
-72.21241607990541
 20
-7.222636525650564
 30
0.0
 10
-72.50956716528097
 20
-7.002751206689886
 30
0.0
 10
-73.0812673899366
 20
-6.533958347261266
 30
0.0
 10
-73.35332753252962
 20
-6.287269548727355
 30
0.0
 10
-74.12942659350387
 20
-5.511474652408617
 30
0.0
 10
-74.59376398598519
 20
-4.946978643808302
 30
0.0
 10
-75.20875945778528
 20
-4.027576127286402
 30
0.0
 10
-75.39965785463923
 20
-3.709069069566601
 30
0.0
 10
-75.74562736722832
 20
-3.061674393674504
 30
0.0
 10
-76.05816377160443
 20
-2.400509855239766
 30
0.0
 10
-76.30484048769598
 20
-1.712220143488286
 30
0.0
 10
-76.5181356413736
 20
-1.010181799005095
 30
0.0
 10
-76.6084433791355
 20
-0.6503320332508175
 30
0.0
 10
-76.82427440408064
 20
0.4352370129664367
 30
0.0
 10
-76.89537499710772
 20
1.16284504094365
 30
0.0
 10
-76.89573535427729
 20
2.259945435707828
 30
0.0
 10
-76.87801291028175
 20
2.626600448141834
 30
0.0
 10
-76.80579339278255
 20
3.361878541679811
 30
0.0
 10
-76.75136251179062
 20
3.728036510846099
 30
0.0
 10
-76.5366789427249
 20
4.80660571004398
 30
0.0
 10
-76.32495845063218
 20
5.505651783592022
 30
0.0
 10
-75.9038732997932
 20
6.524043760685104
 30
0.0
 10
-75.74510306812194
 20
6.860189457183818
 30
0.0
 10
-75.39798970685997
 20
7.509862517810427
 30
0.0
 10
-75.20959995292993
 20
7.824090421799025
 30
0.0
 10
-74.60098892587385
 20
8.735704547219768
 30
0.0
 10
-74.1377499297921
 20
9.302324457518903
 30
0.0
 10
-73.09174017171833
 20
10.35007506000915
 30
0.0
 10
-72.52456832359721
 20
10.81525604097379
 30
0.0
 10
-71.61415087826572
 20
11.42511005139521
 30
0.0
 10
-71.30045025683441
 20
11.61384407100789
 30
0.0
 10
-70.65215710407207
 20
11.96159107687961
 30
0.0
 10
-70.31610975197718
 20
12.12104029679475
 30
0.0
 10
-69.29728359475827
 20
12.54428209288143
 30
0.0
 10
-68.59846742922261
 20
12.75706210839236
 30
0.0
 10
-67.16210006622673
 20
13.04549679236141
 30
0.0
 10
-66.42076650578791
 20
13.12032485720154
 30
0.0
 10
-65.67990008173479
 20
13.12089762301541
 30
0.0
  0
SPLINE
  5
48
330
1F
100
AcDbEntity
  8
0
  6
Continuous
 62
     7
370
    15
100
AcDbSpline
210
0.0
220
0.0
230
1.0
 70
     8
 71
     3
 72
     8
 73
     4
 74
     0
 42
0.00000001
 43
0.00000001
 12
1.0
 22
0.0
 32
0.0
 13
1.0
 23
0.0
 33
0.0
 40
0.0
 40
0.0
 40
0.0
 40
0.0
 40
1.0
 40
1.0
 40
1.0
 40
1.0
 10
-65.6799000817348
 20
13.12089762301531
 30
0.0
 10
-65.69168465965049
 20
13.05529470706716
 30
0.0
 10
-65.69168465965048
 20
12.98967812366238
 30
0.0
 10
-65.67990008173477
 20
12.92407520771424
 30
0.0
  0
SPLINE
  5
49
330
1F
100
AcDbEntity
  8
0
  6
Continuous
 62
     7
370
    15
100
AcDbSpline
210
0.0
220
0.0
230
1.0
 70
     8
 71
     3
 72
    17
 73
    13
 74
     0
 42
0.00000001
 43
0.00000001
 12
1.0
 22
0.0
 32
0.0
 13
1.0
 23
0.0
 33
0.0
 40
0.0
 40
0.0
 40
0.0
 40
0.0
 40
0.0985411742428412
 40
0.2016697471182086
 40
0.3077926897841328
 40
0.4108577206451033
 40
0.516914048966148
 40
0.6199383219121831
 40
0.7259505134787472
 40
0.8289734255017135
 40
0.934981734924131
 40
1.0
 40
1.0
 40
1.0
 40
1.0
 10
-76.87484108640768
 20
1.248309521823503
 30
0.0
 10
-76.87690783532305
 20
1.842967076644135
 30
0.0
 10
-76.881137546754
 20
3.059965347915712
 30
0.0
 10
-76.48981073979677
 20
4.884955895881476
 30
0.0
 10
-75.81397580914013
 20
6.647145729362785
 30
0.0
 10
-74.8357185602445
 20
8.284552359932237
 30
0.0
 10
-73.60995930845391
 20
9.721003761128287
 30
0.0
 10
-72.14677949151069
 20
10.94174383570376
 30
0.0
 10
-70.51466643269083
 20
11.89194552295004
 30
0.0
 10
-68.73033900026597
 20
12.55601539049947
 30
0.0
 10
-67.10145315669342
 20
12.88071033937155
 30
0.0
 10
-66.0714651539212
 20
12.91213040726882
 30
0.0
 10
-65.67990008173481
 20
12.92407520771424
 30
0.0
  0
SPLINE
  5
4A
330
1F
100
AcDbEntity
  8
0
  6
Continuous
 62
     7
370
    15
100
AcDbSpline
210
0.0
220
0.0
230
1.0
 70
     8
 71
     3
 72
    51
 73
    47
 74
     0
 42
0.00000001
 43
0.00000001
 12
1.0
 22
0.0
 32
0.0
 13
1.0
 23
0.0
 33
0.0
 40
0.0
 40
0.0
 40
0.0
 40
0.0
 40
0.0624999999999964
 40
0.0624999999999964
 40
0.0937499999999952
 40
0.0937499999999952
 40
0.124999999999994
 40
0.124999999999994
 40
0.1874999999999928
 40
0.1874999999999928
 40
0.2187499999999925
 40
0.2187499999999925
 40
0.2499999999999922
 40
0.2499999999999922
 40
0.3124999999999924
 40
0.3124999999999924
 40
0.3437499999999926
 40
0.3437499999999926
 40
0.3749999999999927
 40
0.4062499999999928
 40
0.4062499999999928
 40
0.4374999999999929
 40
0.4374999999999929
 40
0.4999999999999938
 40
0.4999999999999938
 40
0.5312499999999946
 40
0.5312499999999946
 40
0.5624999999999952
 40
0.5624999999999952
 40
0.624999999999996
 40
0.624999999999996
 40
0.6562499999999962
 40
0.6562499999999962
 40
0.6874999999999964
 40
0.6874999999999964
 40
0.7499999999999974
 40
0.7499999999999974
 40
0.8124999999999984
 40
0.8124999999999984
 40
0.8437499999999987
 40
0.8437499999999987
 40
0.8749999999999988
 40
0.8749999999999988
 40
0.9374999999999994
 40
0.9374999999999994
 40
1.0
 40
1.0
 40
1.0
 40
1.0
 10
-65.67990008173479
 20
-61.66900237698459
 30
0.0
 10
-66.42076992541465
 20
-61.66957514544219
 30
0.0
 10
-67.14931972293448
 20
-61.59744609231277
 30
0.0
 10
-68.22441198663351
 20
-61.38461165875749
 30
0.0
 10
-68.57979871980636
 20
-61.29609718027266
 30
0.0
 10
-69.28448024429484
 20
-61.0831190665974
 30
0.0
 10
-69.63471918675934
 20
-60.95805703171183
 30
0.0
 10
-70.65352690595763
 20
-60.53654814159406
 30
0.0
 10
-71.29783818442132
 20
-60.19246384236652
 30
0.0
 10
-72.2124160799054
 20
-59.58253652565055
 30
0.0
 10
-72.50956716528098
 20
-59.36265120668986
 30
0.0
 10
-73.08126738993663
 20
-58.89385834726124
 30
0.0
 10
-73.35332753252966
 20
-58.64716954872736
 30
0.0
 10
-74.12942659350385
 20
-57.87137465240861
 30
0.0
 10
-74.59376398598519
 20
-57.3068786438083
 30
0.0
 10
-75.20875945778529
 20
-56.38747612728641
 30
0.0
 10
-75.39965785463924
 20
-56.06896906956661
 30
0.0
 10
-75.74562736722828
 20
-55.42157439367449
 30
0.0
 10
-76.05816389550174
 20
-54.76040990626849
 30
0.0
 10
-76.304840487696
 20
-54.07212014348827
 30
0.0
 10
-76.51813564137358
 20
-53.37008179900507
 30
0.0
 10
-76.60844337913547
 20
-53.01023203325079
 30
0.0
 10
-76.8242744040806
 20
-51.92466298703356
 30
0.0
 10
-76.8953749971077
 20
-51.19705495905635
 30
0.0
 10
-76.89573535427733
 20
-50.09995456429215
 30
0.0
 10
-76.87801291028175
 20
-49.73329955185817
 30
0.0
 10
-76.80579339278255
 20
-48.9980214583202
 30
0.0
 10
-76.75136251179065
 20
-48.63186348915391
 30
0.0
 10
-76.53667894272493
 20
-47.55329428995604
 30
0.0
 10
-76.32495845063217
 20
-46.85424821640797
 30
0.0
 10
-75.90387329979319
 20
-45.83585623931489
 30
0.0
 10
-75.74510306812196
 20
-45.49971054281617
 30
0.0
 10
-75.39798970686
 20
-44.85003748218957
 30
0.0
 10
-75.20959995292999
 20
-44.535809578201
 30
0.0
 10
-74.60098892587385
 20
-43.62419545278024
 30
0.0
 10
-74.13774992979207
 20
-43.05757554248109
 30
0.0
 10
-73.09174017171829
 20
-42.00982493999083
 30
0.0
 10
-72.5245683235972
 20
-41.54464395902619
 30
0.0
 10
-71.61415087826572
 20
-40.93478994860479
 30
0.0
 10
-71.30045025683442
 20
-40.74605592899213
 30
0.0
 10
-70.65215710407206
 20
-40.3983089231204
 30
0.0
 10
-70.31610975197717
 20
-40.23885970320526
 30
0.0
 10
-69.29728359475826
 20
-39.81561790711857
 30
0.0
 10
-68.59846742922262
 20
-39.60283789160765
 30
0.0
 10
-67.16210006622677
 20
-39.31440320763859
 30
0.0
 10
-66.42076650578792
 20
-39.23957514279846
 30
0.0
 10
-65.6799000817348
 20
-39.23900237698459
 30
0.0
  0
SPLINE
  5
4B
330
1F
100
AcDbEntity
  8
0
  6
Continuous
 62
     7
370
    15
100
AcDbSpline
210
0.0
220
0.0
230
1.0
 70
     8
 71
     3
 72
     8
 73
     4
 74
     0
 42
0.00000001
 43
0.00000001
 12
1.0
 22
0.0
 32
0.0
 13
1.0
 23
0.0
 33
0.0
 40
0.0
 40
0.0
 40
0.0
 40
0.0
 40
1.0
 40
1.0
 40
1.0
 40
1.0
 10
-65.6799000817348
 20
-39.2390023769847
 30
0.0
 10
-65.69168465965049
 20
-39.30460529293284
 30
0.0
 10
-65.69168465965048
 20
-39.37022187633762
 30
0.0
 10
-65.67990008173477
 20
-39.43582479228576
 30
0.0
  0
SPLINE
  5
4C
330
1F
100
AcDbEntity
  8
0
  6
Continuous
 62
     7
370
    15
100
AcDbSpline
210
0.0
220
0.0
230
1.0
 70
     8
 71
     3
 72
    17
 73
    13
 74
     0
 42
0.00000001
 43
0.00000001
 12
1.0
 22
0.0
 32
0.0
 13
1.0
 23
0.0
 33
0.0
 40
0.0
 40
0.0
 40
0.0
 40
0.0
 40
0.098541174242837
 40
0.2016697471182046
 40
0.3077926897841281
 40
0.4108577206450998
 40
0.5169140489661455
 40
0.6199383219121816
 40
0.7259505134787461
 40
0.8289734255017126
 40
0.934981734924129
 40
0.9999999999999999
 40
0.9999999999999999
 40
0.9999999999999999
 40
0.9999999999999999
 10
-76.8748410864077
 20
-51.11159047817641
 30
0.0
 10
-76.87690783532305
 20
-50.5169329233558
 30
0.0
 10
-76.88113754675402
 20
-49.29993465208425
 30
0.0
 10
-76.4898107397968
 20
-47.47494410411854
 30
0.0
 10
-75.81397580914015
 20
-45.71275427063721
 30
0.0
 10
-74.83571856024456
 20
-44.07534764006778
 30
0.0
 10
-73.60995930845385
 20
-42.63889623887172
 30
0.0
 10
-72.1467794915107
 20
-41.41815616429623
 30
0.0
 10
-70.51466643269086
 20
-40.46795447704996
 30
0.0
 10
-68.73033900026597
 20
-39.80388460950054
 30
0.0
 10
-67.10145315669344
 20
-39.47918966062848
 30
0.0
 10
-66.0714651539212
 20
-39.44776959273119
 30
0.0
 10
-65.67990008173481
 20
-39.43582479228576
 30
0.0
  0
SPLINE
  5
4D
330
1F
100
AcDbEntity
  8
0
  6
Continuous
 62
     7
370
    15
100
AcDbSpline
210
0.0
220
0.0
230
1.0
 70
     8
 71
     3
 72
    51
 73
    47
 74
     0
 42
0.00000001
 43
0.00000001
 12
1.0
 22
0.0
 32
0.0
 13
1.0
 23
0.0
 33
0.0
 40
0.0
 40
0.0
 40
0.0
 40
0.0
 40
0.0624999999999991
 40
0.0624999999999991
 40
0.0937499999999992
 40
0.0937499999999992
 40
0.1249999999999993
 40
0.1249999999999993
 40
0.1874999999999994
 40
0.1874999999999994
 40
0.218749999999999
 40
0.218749999999999
 40
0.2499999999999986
 40
0.2499999999999986
 40
0.3124999999999987
 40
0.3124999999999987
 40
0.3437499999999987
 40
0.3437499999999987
 40
0.3749999999999986
 40
0.4062499999999986
 40
0.4062499999999986
 40
0.4374999999999986
 40
0.4374999999999986
 40
0.4999999999999992
 40
0.4999999999999992
 40
0.5312499999999998
 40
0.5312499999999998
 40
0.5625000000000003
 40
0.5625000000000003
 40
0.625000000000001
 40
0.625000000000001
 40
0.6562500000000011
 40
0.6562500000000011
 40
0.6875000000000012
 40
0.6875000000000012
 40
0.7500000000000007
 40
0.7500000000000007
 40
0.8125000000000002
 40
0.8125000000000002
 40
0.8437499999999997
 40
0.8437499999999997
 40
0.8749999999999991
 40
0.8749999999999991
 40
0.9374999999999996
 40
0.9374999999999996
 40
1.0
 40
1.0
 40
1.0
 40
1.0
 10
-65.67990008173479
 20
43.05079762301539
 30
0.0
 10
-66.42076992541463
 20
43.05022485455781
 30
0.0
 10
-67.14931972293446
 20
43.12235390768723
 30
0.0
 10
-68.22441198663351
 20
43.3351883412425
 30
0.0
 10
-68.57979871980639
 20
43.42370281972733
 30
0.0
 10
-69.2844802442949
 20
43.63668093340259
 30
0.0
 10
-69.63471918675933
 20
43.76174296828816
 30
0.0
 10
-70.65352690595762
 20
44.18325185840592
 30
0.0
 10
-71.29783818442137
 20
44.52733615763346
 30
0.0
 10
-72.21241607990542
 20
45.13726347434943
 30
0.0
 10
-72.50956716528096
 20
45.35714879331012
 30
0.0
 10
-73.0812673899366
 20
45.82594165273873
 30
0.0
 10
-73.35332753252965
 20
46.07263045127267
 30
0.0
 10
-74.12942659350387
 20
46.84842534759142
 30
0.0
 10
-74.59376398598516
 20
47.4129213561917
 30
0.0
 10
-75.20875945778529
 20
48.33232387271361
 30
0.0
 10
-75.39965785463924
 20
48.65083093043341
 30
0.0
 10
-75.7456273672283
 20
49.29822560632547
 30
0.0
 10
-76.05816389550176
 20
49.95939009373159
 30
0.0
 10
-76.30484048769598
 20
50.64767985651172
 30
0.0
 10
-76.51813564137359
 20
51.34971820099491
 30
0.0
 10
-76.60844337913545
 20
51.7095679667492
 30
0.0
 10
-76.82427440408061
 20
52.79513701296645
 30
0.0
 10
-76.89537499710772
 20
53.52274504094365
 30
0.0
 10
-76.89573535427732
 20
54.61984543570784
 30
0.0
 10
-76.87801291028178
 20
54.98650044814185
 30
0.0
 10
-76.80579339278256
 20
55.72177854167983
 30
0.0
 10
-76.75136251179062
 20
56.08793651084611
 30
0.0
 10
-76.5366789427249
 20
57.16650571004399
 30
0.0
 10
-76.32495845063214
 20
57.86555178359205
 30
0.0
 10
-75.90387329979318
 20
58.88394376068512
 30
0.0
 10
-75.74510306812194
 20
59.22008945718382
 30
0.0
 10
-75.39798970685997
 20
59.86976251781043
 30
0.0
 10
-75.20959995292996
 20
60.18399042179903
 30
0.0
 10
-74.60098892587386
 20
61.09560454721981
 30
0.0
 10
-74.13774992979207
 20
61.66222445751895
 30
0.0
 10
-73.09174017171829
 20
62.70997506000916
 30
0.0
 10
-72.5245683235972
 20
63.17515604097377
 30
0.0
 10
-71.61415087826572
 20
63.78501005139521
 30
0.0
 10
-71.30045025683435
 20
63.97374407100785
 30
0.0
 10
-70.65215710407205
 20
64.32149107687958
 30
0.0
 10
-70.31610975197712
 20
64.48094029679477
 30
0.0
 10
-69.2972835947582
 20
64.90418209288146
 30
0.0
 10
-68.59846742922262
 20
65.1169621083924
 30
0.0
 10
-67.16210006622674
 20
65.40539679236143
 30
0.0
 10
-66.42076650578794
 20
65.48022485720153
 30
0.0
 10
-65.67990008173479
 20
65.48079762301538
 30
0.0
  0
SPLINE
  5
4E
330
1F
100
AcDbEntity
  8
0
  6
Continuous
 62
     7
370
    15
100
AcDbSpline
210
0.0
220
0.0
230
1.0
 70
     8
 71
     3
 72
     8
 73
     4
 74
     0
 42
0.00000001
 43
0.00000001
 12
1.0
 22
0.0
 32
0.0
 13
1.0
 23
0.0
 33
0.0
 40
0.0
 40
0.0
 40
0.0
 40
0.0
 40
1.0
 40
1.0
 40
1.0
 40
1.0
 10
-65.67990008173483
 20
65.48079762301529
 30
0.0
 10
-65.6916846596505
 20
65.41519470706714
 30
0.0
 10
-65.69168465965046
 20
65.34957812366238
 30
0.0
 10
-65.67990008173477
 20
65.28397520771425
 30
0.0
  0
SPLINE
  5
4F
330
1F
100
AcDbEntity
  8
0
  6
Continuous
 62
     7
370
    15
100
AcDbSpline
210
0.0
220
0.0
230
1.0
 70
     8
 71
     3
 72
    17
 73
    13
 74
     0
 42
0.00000001
 43
0.00000001
 12
1.0
 22
0.0
 32
0.0
 13
1.0
 23
0.0
 33
0.0
 40
0.0
 40
0.0
 40
0.0
 40
0.0
 40
0.0985411742428444
 40
0.2016697471182106
 40
0.307792689784133
 40
0.4108577206451023
 40
0.5169140489661453
 40
0.6199383219121821
 40
0.7259505134787466
 40
0.82897342550171
 40
0.9349817349241267
 40
1.0
 40
1.0
 40
1.0
 40
1.0
 10
-76.8748410864077
 20
53.60820952182342
 30
0.0
 10
-76.87690783532304
 20
54.20286707664408
 30
0.0
 10
-76.881137546754
 20
55.41986534791567
 30
0.0
 10
-76.48981073979677
 20
57.24485589588144
 30
0.0
 10
-75.81397580914017
 20
59.00704572936274
 30
0.0
 10
-74.83571856024453
 20
60.64445235993218
 30
0.0
 10
-73.60995930845391
 20
62.08090376112823
 30
0.0
 10
-72.14677949151067
 20
63.30164383570368
 30
0.0
 10
-70.51466643269092
 20
64.25184552295012
 30
0.0
 10
-68.73033900026603
 20
64.91591539049946
 30
0.0
 10
-67.10145315669342
 20
65.24061033937153
 30
0.0
 10
-66.0714651539212
 20
65.27203040726883
 30
0.0
 10
-65.67990008173479
 20
65.28397520771426
 30
0.0
  0
SPLINE
  5
70
330
1F
100
AcDbEntity
  8
0
  6
Continuous
 62
     7
370
    15
100
AcDbSpline
210
0.0
220
0.0
230
1.0
 70
     8
 71
     3
 72
    51
 73
    47
 74
     0
 42
0.00000001
 43
0.00000001
 12
1.0
 22
0.0
 32
0.0
 13
1.0
 23
0.0
 33
0.0
 40
0.0
 40
0.0
 40
0.0
 40
0.0
 40
0.0625000000000009
 40
0.0625000000000009
 40
0.0937500000000015
 40
0.0937500000000015
 40
0.1250000000000021
 40
0.1250000000000021
 40
0.1875000000000032
 40
0.1875000000000032
 40
0.2187500000000034
 40
0.2187500000000034
 40
0.2500000000000037
 40
0.2500000000000037
 40
0.3125000000000048
 40
0.3125000000000048
 40
0.3437500000000049
 40
0.3437500000000049
 40
0.3750000000000051
 40
0.4062500000000052
 40
0.4062500000000052
 40
0.4375000000000054
 40
0.4375000000000054
 40
0.5000000000000057
 40
0.5000000000000057
 40
0.5312500000000052
 40
0.5312500000000052
 40
0.5625000000000036
 40
0.5625000000000036
 40
0.6250000000000027
 40
0.6250000000000027
 40
0.6562500000000032
 40
0.6562500000000032
 40
0.6875000000000038
 40
0.6875000000000038
 40
0.7500000000000029
 40
0.7500000000000029
 40
0.8125000000000021
 40
0.8125000000000021
 40
0.8437500000000018
 40
0.8437500000000018
 40
0.8750000000000014
 40
0.8750000000000014
 40
0.9375000000000008
 40
0.9375000000000008
 40
1.0
 40
1.0
 40
1.0
 40
1.0
 10
-9.941003821348215
 20
112.8639976230154
 30
0.0
 10
-10.68187366502806
 20
112.8634248545578
 30
0.0
 10
-11.4104234625479
 20
112.9355539076873
 30
0.0
 10
-12.48551572624693
 20
113.1483883412425
 30
0.0
 10
-12.84090245941982
 20
113.2369028197273
 30
0.0
 10
-13.54558398390832
 20
113.4498809334026
 30
0.0
 10
-13.89582292637276
 20
113.5749429682882
 30
0.0
 10
-14.91463064557106
 20
113.996451858406
 30
0.0
 10
-15.55894192403476
 20
114.3405361576335
 30
0.0
 10
-16.47351981951882
 20
114.9504634743494
 30
0.0
 10
-16.7706709048944
 20
115.1703487933101
 30
0.0
 10
-17.34237112955005
 20
115.6391416527388
 30
0.0
 10
-17.61443127214308
 20
115.8858304512727
 30
0.0
 10
-18.39053033311733
 20
116.6616253475914
 30
0.0
 10
-18.85486772559862
 20
117.2261213561917
 30
0.0
 10
-19.4698631973987
 20
118.1455238727136
 30
0.0
 10
-19.66076159425269
 20
118.4640309304335
 30
0.0
 10
-20.00673110684176
 20
119.1114256063256
 30
0.0
 10
-20.31926763511518
 20
119.7725900937315
 30
0.0
 10
-20.56594422730939
 20
120.4608798565118
 30
0.0
 10
-20.77923938098703
 20
121.162918200995
 30
0.0
 10
-20.8695471187489
 20
121.5227679667492
 30
0.0
 10
-21.08537814369405
 20
122.6083370129665
 30
0.0
 10
-21.15647873672114
 20
123.3359450409437
 30
0.0
 10
-21.15683909389074
 20
124.4330454357079
 30
0.0
 10
-21.13911664989517
 20
124.7997004481419
 30
0.0
 10
-21.06689713239599
 20
125.5349785416798
 30
0.0
 10
-21.01246625140404
 20
125.9011365108462
 30
0.0
 10
-20.79778268233833
 20
126.979705710044
 30
0.0
 10
-20.58606219024556
 20
127.6787517835921
 30
0.0
 10
-20.1649770394066
 20
128.6971437606852
 30
0.0
 10
-20.00620680773539
 20
129.0332894571839
 30
0.0
 10
-19.65909344647343
 20
129.6829625178105
 30
0.0
 10
-19.47070369254339
 20
129.997190421799
 30
0.0
 10
-18.86209266548728
 20
130.9088045472198
 30
0.0
 10
-18.39885366940548
 20
131.475424457519
 30
0.0
 10
-17.35284391133171
 20
132.5231750600092
 30
0.0
 10
-16.78567206321062
 20
132.9883560409738
 30
0.0
 10
-15.87525461787913
 20
133.5982100513952
 30
0.0
 10
-15.56155399644783
 20
133.7869440710079
 30
0.0
 10
-14.9132608436855
 20
134.1346910768796
 30
0.0
 10
-14.57721349159058
 20
134.2941402967947
 30
0.0
 10
-13.55838733437166
 20
134.7173820928815
 30
0.0
 10
-12.85957116883607
 20
134.9301621083924
 30
0.0
 10
-11.42320380584019
 20
135.2185967923614
 30
0.0
 10
-10.68187024540134
 20
135.2934248572016
 30
0.0
 10
-9.941003821348213
 20
135.2939976230154
 30
0.0
  0
SPLINE
  5
71
330
1F
100
AcDbEntity
  8
0
  6
Continuous
 62
     7
370
    15
100
AcDbSpline
210
0.0
220
0.0
230
1.0
 70
     8
 71
     3
 72
     8
 73
     4
 74
     0
 42
0.00000001
 43
0.00000001
 12
1.0
 22
0.0
 32
0.0
 13
1.0
 23
0.0
 33
0.0
 40
0.0
 40
0.0
 40
0.0
 40
0.0
 40
1.0
 40
1.0
 40
1.0
 40
1.0
 10
-9.941003821348238
 20
135.2939976230153
 30
0.0
 10
-9.952788399263916
 20
135.2283947070672
 30
0.0
 10
-9.952788399263907
 20
135.1627781236624
 30
0.0
 10
-9.941003821348215
 20
135.0971752077142
 30
0.0
  0
SPLINE
  5
72
330
1F
100
AcDbEntity
  8
0
  6
Continuous
 62
     7
370
    15
100
AcDbSpline
210
0.0
220
0.0
230
1.0
 70
     8
 71
     3
 72
    17
 73
    13
 74
     0
 42
0.00000001
 43
0.00000001
 12
1.0
 22
0.0
 32
0.0
 13
1.0
 23
0.0
 33
0.0
 40
0.0
 40
0.0
 40
0.0
 40
0.0
 40
0.0985411742428527
 40
0.2016697471182174
 40
0.3077926897841392
 40
0.4108577206451055
 40
0.516914048966151
 40
0.6199383219121865
 40
0.7259505134787517
 40
0.8289734255017162
 40
0.9349817349241314
 40
1.0
 40
1.0
 40
1.0
 40
1.0
 10
-21.13594482602111
 20
123.4214095218234
 30
0.0
 10
-21.1380115749365
 20
124.0160670766441
 30
0.0
 10
-21.14224128636753
 20
125.2330653479157
 30
0.0
 10
-20.75091447941016
 20
127.0580558958815
 30
0.0
 10
-20.07507954875357
 20
128.8202457293628
 30
0.0
 10
-19.09682229985797
 20
130.4576523599322
 30
0.0
 10
-17.87106304806725
 20
131.8941037611282
 30
0.0
 10
-16.40788323112415
 20
133.1148438357038
 30
0.0
 10
-14.77577017230423
 20
134.0650455229501
 30
0.0
 10
-12.99144273987935
 20
134.7291153904995
 30
0.0
 10
-11.3625568963068
 20
135.0538103393715
 30
0.0
 10
-10.33256889353459
 20
135.0852304072689
 30
0.0
 10
-9.941003821348215
 20
135.0971752077143
 30
0.0
  0
SPLINE
  5
73
330
1F
100
AcDbEntity
  8
0
  6
Continuous
 62
     7
370
    15
100
AcDbSpline
210
0.0
220
0.0
230
1.0
 70
     8
 71
     3
 72
    51
 73
    47
 74
     0
 42
0.00000001
 43
0.00000001
 12
1.0
 22
0.0
 32
0.0
 13
1.0
 23
0.0
 33
0.0
 40
0.0
 40
0.0
 40
0.0
 40
0.0
 40
0.0624999999999998
 40
0.0624999999999998
 40
0.0937499999999997
 40
0.0937499999999997
 40
0.1249999999999996
 40
0.1249999999999996
 40
0.1874999999999993
 40
0.1874999999999993
 40
0.2187499999999992
 40
0.2187499999999992
 40
0.249999999999999
 40
0.249999999999999
 40
0.3124999999999988
 40
0.3124999999999988
 40
0.3437499999999988
 40
0.3437499999999988
 40
0.3749999999999988
 40
0.4062499999999988
 40
0.4062499999999988
 40
0.4374999999999988
 40
0.4374999999999988
 40
0.4999999999999988
 40
0.4999999999999988
 40
0.5312499999999989
 40
0.5312499999999989
 40
0.562499999999999
 40
0.562499999999999
 40
0.6249999999999993
 40
0.6249999999999993
 40
0.6562499999999993
 40
0.6562499999999993
 40
0.6874999999999993
 40
0.6874999999999993
 40
0.7499999999999993
 40
0.7499999999999993
 40
0.8124999999999994
 40
0.8124999999999994
 40
0.8437499999999996
 40
0.8437499999999996
 40
0.8749999999999997
 40
0.8749999999999997
 40
0.9374999999999999
 40
0.9374999999999999
 40
1.0
 40
1.0
 40
1.0
 40
1.0
 10
-9.941003821348215
 20
8.144197623015408
 30
0.0
 10
-10.68187366502805
 20
8.143624854557812
 30
0.0
 10
-11.4104234625479
 20
8.215753907687233
 30
0.0
 10
-12.48551572624693
 20
8.428588341242492
 30
0.0
 10
-12.84090245941982
 20
8.51710281972733
 30
0.0
 10
-13.54558398390832
 20
8.730080933402599
 30
0.0
 10
-13.89582292637275
 20
8.855142968288165
 30
0.0
 10
-14.91463064557105
 20
9.276651858405934
 30
0.0
 10
-15.55894192403477
 20
9.620736157633482
 30
0.0
 10
-16.47351981951884
 20
10.23066347434944
 30
0.0
 10
-16.77067090489441
 20
10.45054879331012
 30
0.0
 10
-17.34237112955005
 20
10.91934165273874
 30
0.0
 10
-17.61443127214307
 20
11.16603045127266
 30
0.0
 10
-18.39053033311732
 20
11.94182534759141
 30
0.0
 10
-18.85486772559862
 20
12.50632135619171
 30
0.0
 10
-19.4698631973987
 20
13.42572387271361
 30
0.0
 10
-19.66076159425267
 20
13.7442309304334
 30
0.0
 10
-20.00673110684175
 20
14.3916256063255
 30
0.0
 10
-20.31926763511518
 20
15.05279009373155
 30
0.0
 10
-20.56594422730939
 20
15.74107985651174
 30
0.0
 10
-20.77923938098703
 20
16.44311820099492
 30
0.0
 10
-20.86954711874889
 20
16.8029679667492
 30
0.0
 10
-21.08537814369405
 20
17.88853701296645
 30
0.0
 10
-21.15647873672114
 20
18.61614504094366
 30
0.0
 10
-21.15683909389074
 20
19.71324543570783
 30
0.0
 10
-21.13911664989516
 20
20.07990044814185
 30
0.0
 10
-21.06689713239598
 20
20.81517854167982
 30
0.0
 10
-21.01246625140403
 20
21.18133651084611
 30
0.0
 10
-20.79778268233833
 20
22.25990571004398
 30
0.0
 10
-20.58606219024556
 20
22.95895178359203
 30
0.0
 10
-20.16497703940661
 20
23.97734376068511
 30
0.0
 10
-20.00620680773539
 20
24.31348945718383
 30
0.0
 10
-19.65909344647342
 20
24.96316251781044
 30
0.0
 10
-19.47070369254339
 20
25.27739042179903
 30
0.0
 10
-18.86209266548729
 20
26.18900454721977
 30
0.0
 10
-18.3988536694055
 20
26.75562445751892
 30
0.0
 10
-17.35284391133175
 20
27.80337506000917
 30
0.0
 10
-16.78567206321063
 20
28.26855604097381
 30
0.0
 10
-15.87525461787913
 20
28.87841005139521
 30
0.0
 10
-15.56155399644783
 20
29.0671440710079
 30
0.0
 10
-14.91326084368549
 20
29.41489107687963
 30
0.0
 10
-14.5772134915906
 20
29.57434029679474
 30
0.0
 10
-13.55838733437167
 20
29.99758209288143
 30
0.0
 10
-12.85957116883607
 20
30.21036210839237
 30
0.0
 10
-11.4232038058402
 20
30.49879679236142
 30
0.0
 10
-10.68187024540135
 20
30.57362485720155
 30
0.0
 10
-9.941003821348215
 20
30.57419762301542
 30
0.0
  0
SPLINE
  5
74
330
1F
100
AcDbEntity
  8
0
  6
Continuous
 62
     7
370
    15
100
AcDbSpline
210
0.0
220
0.0
230
1.0
 70
     8
 71
     3
 72
     8
 73
     4
 74
     0
 42
0.00000001
 43
0.00000001
 12
1.0
 22
0.0
 32
0.0
 13
1.0
 23
0.0
 33
0.0
 40
0.0
 40
0.0
 40
0.0
 40
0.0
 40
1.0
 40
1.0
 40
1.0
 40
1.0
 10
-9.941003821348234
 20
30.5741976230153
 30
0.0
 10
-9.952788399263916
 20
30.50859470706716
 30
0.0
 10
-9.952788399263909
 20
30.44297812366238
 30
0.0
 10
-9.941003821348215
 20
30.37737520771425
 30
0.0
  0
SPLINE
  5
75
330
1F
100
AcDbEntity
  8
0
  6
Continuous
 62
     7
370
    15
100
AcDbSpline
210
0.0
220
0.0
230
1.0
 70
     8
 71
     3
 72
    17
 73
    13
 74
     0
 42
0.00000001
 43
0.00000001
 12
1.0
 22
0.0
 32
0.0
 13
1.0
 23
0.0
 33
0.0
 40
0.0
 40
0.0
 40
0.0
 40
0.0
 40
0.0985411742428492
 40
0.2016697471182158
 40
0.3077926897841401
 40
0.4108577206451099
 40
0.5169140489661536
 40
0.6199383219121881
 40
0.725950513478753
 40
0.8289734255017163
 40
0.9349817349241298
 40
1.0
 40
1.0
 40
1.0
 40
1.0
 10
-21.13594482602111
 20
18.70160952182338
 30
0.0
 10
-21.13801157493647
 20
19.29626707664406
 30
0.0
 10
-21.14224128636745
 20
20.51326534791569
 30
0.0
 10
-20.75091447941014
 20
22.33825589588148
 30
0.0
 10
-20.07507954875363
 20
24.10044572936286
 30
0.0
 10
-19.09682229985792
 20
25.73785235993227
 30
0.0
 10
-17.87106304806722
 20
27.17430376112827
 30
0.0
 10
-16.40788323112411
 20
28.39504383570382
 30
0.0
 10
-14.77577017230423
 20
29.34524552295008
 30
0.0
 10
-12.99144273987938
 20
30.00931539049946
 30
0.0
 10
-11.36255689630685
 20
30.33401033937155
 30
0.0
 10
-10.33256889353462
 20
30.36543040726882
 30
0.0
 10
-9.941003821348243
 20
30.37737520771425
 30
0.0
  0
SPLINE
  5
76
330
1F
100
AcDbEntity
  8
0
  6
Continuous
 62
     7
370
    15
100
AcDbSpline
210
0.0
220
0.0
230
1.0
 70
     8
 71
     3
 72
    51
 73
    47
 74
     0
 42
0.00000001
 43
0.00000001
 12
1.0
 22
0.0
 32
0.0
 13
1.0
 23
0.0
 33
0.0
 40
0.0
 40
0.0
 40
0.0
 40
0.0
 40
0.0625000000000012
 40
0.0625000000000012
 40
0.0937500000000017
 40
0.0937500000000017
 40
0.1250000000000023
 40
0.1250000000000023
 40
0.1875000000000035
 40
0.1875000000000035
 40
0.2187500000000047
 40
0.2187500000000047
 40
0.2500000000000058
 40
0.2500000000000058
 40
0.3125000000000073
 40
0.3125000000000073
 40
0.3437500000000075
 40
0.3437500000000075
 40
0.3750000000000078
 40
0.406250000000008
 40
0.406250000000008
 40
0.4375000000000083
 40
0.4375000000000083
 40
0.5000000000000088
 40
0.5000000000000088
 40
0.531250000000009
 40
0.531250000000009
 40
0.5625000000000093
 40
0.5625000000000093
 40
0.6250000000000088
 40
0.6250000000000088
 40
0.6562500000000079
 40
0.6562500000000079
 40
0.6875000000000071
 40
0.6875000000000071
 40
0.7500000000000053
 40
0.7500000000000053
 40
0.8125000000000037
 40
0.8125000000000037
 40
0.8437500000000032
 40
0.8437500000000032
 40
0.8750000000000027
 40
0.8750000000000027
 40
0.9375000000000013
 40
0.9375000000000013
 40
1.0
 40
1.0
 40
1.0
 40
1.0
 10
-9.941003821348215
 20
60.5040976230154
 30
0.0
 10
-10.68187366502806
 20
60.5035248545578
 30
0.0
 10
-11.4104234625479
 20
60.57565390768727
 30
0.0
 10
-12.48551572624694
 20
60.78848834124251
 30
0.0
 10
-12.84090245941982
 20
60.87700281972733
 30
0.0
 10
-13.54558398390832
 20
61.08998093340259
 30
0.0
 10
-13.89582292637277
 20
61.21504296828817
 30
0.0
 10
-14.91463064557106
 20
61.63655185840596
 30
0.0
 10
-15.55894192403477
 20
61.98063615763348
 30
0.0
 10
-16.47351981951884
 20
62.59056347434945
 30
0.0
 10
-16.77067090489442
 20
62.81044879331014
 30
0.0
 10
-17.34237112955007
 20
63.27924165273877
 30
0.0
 10
-17.61443127214308
 20
63.52593045127269
 30
0.0
 10
-18.39053033311733
 20
64.30172534759146
 30
0.0
 10
-18.85486772559863
 20
64.86622135619177
 30
0.0
 10
-19.46986319739872
 20
65.78562387271367
 30
0.0
 10
-19.66076159425268
 20
66.10413093043343
 30
0.0
 10
-20.00673110684176
 20
66.75152560632553
 30
0.0
 10
-20.31926751121786
 20
67.41269014476026
 30
0.0
 10
-20.56594422730939
 20
68.10097985651171
 30
0.0
 10
-20.77923938098702
 20
68.8030182009949
 30
0.0
 10
-20.8695471187489
 20
69.16286796674923
 30
0.0
 10
-21.08537814369406
 20
70.2484370129665
 30
0.0
 10
-21.15647873672113
 20
70.97604504094369
 30
0.0
 10
-21.15683909389075
 20
72.07314543570784
 30
0.0
 10
-21.13911664989516
 20
72.43980044814182
 30
0.0
 10
-21.06689713239598
 20
73.17507854167982
 30
0.0
 10
-21.01246625140404
 20
73.5412365108461
 30
0.0
 10
-20.79778268233833
 20
74.61980571004403
 30
0.0
 10
-20.58606219024556
 20
75.31885178359204
 30
0.0
 10
-20.16497703940659
 20
76.33724376068511
 30
0.0
 10
-20.00620680773538
 20
76.67338945718382
 30
0.0
 10
-19.65909344647343
 20
77.32306251781047
 30
0.0
 10
-19.47070369254339
 20
77.63729042179911
 30
0.0
 10
-18.86209266548727
 20
78.54890454721979
 30
0.0
 10
-18.39885366940548
 20
79.11552445751894
 30
0.0
 10
-17.35284391133172
 20
80.16327506000918
 30
0.0
 10
-16.78567206321061
 20
80.62845604097384
 30
0.0
 10
-15.87525461787913
 20
81.23831005139527
 30
0.0
 10
-15.56155399644781
 20
81.42704407100791
 30
0.0
 10
-14.91326084368547
 20
81.77479107687961
 30
0.0
 10
-14.57721349159058
 20
81.93424029679475
 30
0.0
 10
-13.55838733437166
 20
82.35748209288147
 30
0.0
 10
-12.85957116883606
 20
82.57026210839241
 30
0.0
 10
-11.42320380584018
 20
82.85869679236146
 30
0.0
 10
-10.68187024540134
 20
82.93352485720152
 30
0.0
 10
-9.941003821348215
 20
82.93409762301539
 30
0.0
  0
SPLINE
  5
77
330
1F
100
AcDbEntity
  8
0
  6
Continuous
 62
     7
370
    15
100
AcDbSpline
210
0.0
220
0.0
230
1.0
 70
     8
 71
     3
 72
     8
 73
     4
 74
     0
 42
0.00000001
 43
0.00000001
 12
1.0
 22
0.0
 32
0.0
 13
1.0
 23
0.0
 33
0.0
 40
0.0
 40
0.0
 40
0.0
 40
0.0
 40
1.0
 40
1.0
 40
1.0
 40
1.0
 10
-9.94100382134824
 20
82.93409762301529
 30
0.0
 10
-9.952788399263916
 20
82.86849470706716
 30
0.0
 10
-9.952788399263909
 20
82.80287812366238
 30
0.0
 10
-9.941003821348216
 20
82.73727520771425
 30
0.0
  0
SPLINE
  5
78
330
1F
100
AcDbEntity
  8
0
  6
Continuous
 62
     7
370
    15
100
AcDbSpline
210
0.0
220
0.0
230
1.0
 70
     8
 71
     3
 72
    17
 73
    13
 74
     0
 42
0.00000001
 43
0.00000001
 12
1.0
 22
0.0
 32
0.0
 13
1.0
 23
0.0
 33
0.0
 40
0.0
 40
0.0
 40
0.0
 40
0.0
 40
0.0985411742428495
 40
0.2016697471182181
 40
0.3077926897841408
 40
0.4108577206451074
 40
0.5169140489661497
 40
0.6199383219121847
 40
0.7259505134787488
 40
0.8289734255017147
 40
0.9349817349241302
 40
1.0
 40
1.0
 40
1.0
 40
1.0
 10
-21.13594482602111
 20
71.06150952182333
 30
0.0
 10
-21.13801157493647
 20
71.65616707664401
 30
0.0
 10
-21.14224128636748
 20
72.87316534791567
 30
0.0
 10
-20.75091447941019
 20
74.6981558958815
 30
0.0
 10
-20.07507954875363
 20
76.46034572936284
 30
0.0
 10
-19.09682229985794
 20
78.0977523599322
 30
0.0
 10
-17.87106304806732
 20
79.53420376112828
 30
0.0
 10
-16.40788323112416
 20
80.75494383570378
 30
0.0
 10
-14.77577017230427
 20
81.70514552295005
 30
0.0
 10
-12.9914427398794
 20
82.36921539049946
 30
0.0
 10
-11.36255689630683
 20
82.69391033937158
 30
0.0
 10
-10.3325688935346
 20
82.72533040726881
 30
0.0
 10
-9.941003821348215
 20
82.73727520771425
 30
0.0
  0
SPLINE
  5
79
330
1F
100
AcDbEntity
  8
0
  6
Continuous
 62
     7
370
    15
100
AcDbSpline
210
0.0
220
0.0
230
1.0
 70
     8
 71
     3
 72
    51
 73
    47
 74
     0
 42
0.00000001
 43
0.00000001
 12
1.0
 22
0.0
 32
0.0
 13
1.0
 23
0.0
 33
0.0
 40
0.0
 40
0.0
 40
0.0
 40
0.0
 40
0.0624999999999998
 40
0.0624999999999998
 40
0.0937499999999996
 40
0.0937499999999996
 40
0.1249999999999994
 40
0.1249999999999994
 40
0.1874999999999989
 40
0.1874999999999989
 40
0.2187499999999988
 40
0.2187499999999988
 40
0.2499999999999988
 40
0.2499999999999988
 40
0.3124999999999988
 40
0.3124999999999988
 40
0.3437499999999989
 40
0.3437499999999989
 40
0.374999999999999
 40
0.4062499999999991
 40
0.4062499999999991
 40
0.4374999999999992
 40
0.4374999999999992
 40
0.4999999999999989
 40
0.4999999999999989
 40
0.531249999999999
 40
0.531249999999999
 40
0.5624999999999991
 40
0.5624999999999991
 40
0.6249999999999993
 40
0.6249999999999993
 40
0.6562499999999994
 40
0.6562499999999994
 40
0.6874999999999996
 40
0.6874999999999996
 40
0.7499999999999997
 40
0.7499999999999997
 40
0.8124999999999999
 40
0.8124999999999999
 40
0.8437499999999999
 40
0.8437499999999999
 40
0.8749999999999999
 40
0.8749999999999999
 40
0.9375
 40
0.9375
 40
1.0
 40
1.0
 40
1.0
 40
1.0
 10
-9.941003821348215
 20
-44.21570237698459
 30
0.0
 10
-10.68187366502805
 20
-44.2162751454422
 30
0.0
 10
-11.4104234625479
 20
-44.14414609231275
 30
0.0
 10
-12.48551572624694
 20
-43.93131165875752
 30
0.0
 10
-12.84090245941982
 20
-43.84279718027267
 30
0.0
 10
-13.54558398390832
 20
-43.62981906659741
 30
0.0
 10
-13.89582292637275
 20
-43.50475703171183
 30
0.0
 10
-14.91463064557105
 20
-43.08324814159406
 30
0.0
 10
-15.55894192403477
 20
-42.73916384236652
 30
0.0
 10
-16.47351981951883
 20
-42.12923652565055
 30
0.0
 10
-16.77067090489443
 20
-41.90935120668989
 30
0.0
 10
-17.34237112955006
 20
-41.44055834726125
 30
0.0
 10
-17.61443127214307
 20
-41.19386954872734
 30
0.0
 10
-18.39053033311732
 20
-40.41807465240861
 30
0.0
 10
-18.85486772559862
 20
-39.85357864380829
 30
0.0
 10
-19.4698631973987
 20
-38.93417612728638
 30
0.0
 10
-19.66076159425267
 20
-38.61566906956659
 30
0.0
 10
-20.00673110684176
 20
-37.9682743936745
 30
0.0
 10
-20.31926751121789
 20
-37.30710985523978
 30
0.0
 10
-20.56594422730939
 20
-36.61882014348829
 30
0.0
 10
-20.77923938098701
 20
-35.91678179900509
 30
0.0
 10
-20.86954711874889
 20
-35.55693203325081
 30
0.0
 10
-21.08537814369405
 20
-34.47136298703357
 30
0.0
 10
-21.15647873672114
 20
-33.74375495905635
 30
0.0
 10
-21.15683909389075
 20
-32.64665456429215
 30
0.0
 10
-21.13911664989516
 20
-32.27999955185813
 30
0.0
 10
-21.06689713239598
 20
-31.54472145832016
 30
0.0
 10
-21.01246625140403
 20
-31.17856348915389
 30
0.0
 10
-20.79778268233832
 20
-30.09999428995602
 30
0.0
 10
-20.58606219024556
 20
-29.40094821640796
 30
0.0
 10
-20.1649770394066
 20
-28.38255623931489
 30
0.0
 10
-20.00620680773539
 20
-28.04641054281616
 30
0.0
 10
-19.65909344647343
 20
-27.39673748218955
 30
0.0
 10
-19.47070369254338
 20
-27.08250957820098
 30
0.0
 10
-18.86209266548729
 20
-26.17089545278024
 30
0.0
 10
-18.39885366940551
 20
-25.60427554248109
 30
0.0
 10
-17.35284391133175
 20
-24.55652493999084
 30
0.0
 10
-16.78567206321062
 20
-24.09134395902619
 30
0.0
 10
-15.87525461787913
 20
-23.48148994860477
 30
0.0
 10
-15.56155399644782
 20
-23.29275592899211
 30
0.0
 10
-14.91326084368549
 20
-22.94500892312039
 30
0.0
 10
-14.57721349159061
 20
-22.78555970320526
 30
0.0
 10
-13.55838733437168
 20
-22.36231790711857
 30
0.0
 10
-12.85957116883607
 20
-22.14953789160762
 30
0.0
 10
-11.42320380584019
 20
-21.86110320763857
 30
0.0
 10
-10.68187024540134
 20
-21.78627514279847
 30
0.0
 10
-9.941003821348215
 20
-21.78570237698459
 30
0.0
  0
SPLINE
  5
7A
330
1F
100
AcDbEntity
  8
0
  6
Continuous
 62
     7
370
    15
100
AcDbSpline
210
0.0
220
0.0
230
1.0
 70
     8
 71
     3
 72
     8
 73
     4
 74
     0
 42
0.00000001
 43
0.00000001
 12
1.0
 22
0.0
 32
0.0
 13
1.0
 23
0.0
 33
0.0
 40
0.0
 40
0.0
 40
0.0
 40
0.0
 40
1.0
 40
1.0
 40
1.0
 40
1.0
 10
-9.941003821348234
 20
-21.78570237698469
 30
0.0
 10
-9.952788399263916
 20
-21.85130529293284
 30
0.0
 10
-9.952788399263909
 20
-21.91692187633761
 30
0.0
 10
-9.941003821348215
 20
-21.98252479228576
 30
0.0
  0
SPLINE
  5
7B
330
1F
100
AcDbEntity
  8
0
  6
Continuous
 62
     7
370
    15
100
AcDbSpline
210
0.0
220
0.0
230
1.0
 70
     8
 71
     3
 72
    17
 73
    13
 74
     0
 42
0.00000001
 43
0.00000001
 12
1.0
 22
0.0
 32
0.0
 13
1.0
 23
0.0
 33
0.0
 40
0.0
 40
0.0
 40
0.0
 40
0.0
 40
0.0985411742428475
 40
0.2016697471182136
 40
0.3077926897841378
 40
0.4108577206451081
 40
0.5169140489661516
 40
0.619938321912187
 40
0.7259505134787535
 40
0.8289734255017166
 40
0.9349817349241312
 40
1.0
 40
1.0
 40
1.0
 40
1.0
 10
-21.13594482602111
 20
-33.65829047817658
 30
0.0
 10
-21.13801157493647
 20
-33.0636329233559
 30
0.0
 10
-21.14224128636745
 20
-31.84663465208429
 30
0.0
 10
-20.75091447941015
 20
-30.02164410411852
 30
0.0
 10
-20.07507954875363
 20
-28.25945427063714
 30
0.0
 10
-19.09682229985791
 20
-26.62204764006773
 30
0.0
 10
-17.87106304806726
 20
-25.18559623887171
 30
0.0
 10
-16.4078832311241
 20
-23.96485616429619
 30
0.0
 10
-14.77577017230421
 20
-23.01465447704994
 30
0.0
 10
-12.99144273987935
 20
-22.35058460950052
 30
0.0
 10
-11.36255689630683
 20
-22.02588966062845
 30
0.0
 10
-10.33256889353462
 20
-21.99446959273118
 30
0.0
 10
-9.941003821348243
 20
-21.98252479228576
 30
0.0
  0
SPLINE
  5
9C
330
1F
100
AcDbEntity
  8
0
  6
Continuous
 62
     7
370
    15
100
AcDbSpline
210
0.0
220
0.0
230
1.0
 70
     8
 71
     3
 72
    51
 73
    47
 74
     0
 42
0.00000001
 43
0.00000001
 12
1.0
 22
0.0
 32
0.0
 13
1.0
 23
0.0
 33
0.0
 40
0.0
 40
0.0
 40
0.0
 40
0.0
 40
0.0624999999999996
 40
0.0624999999999996
 40
0.0937499999999991
 40
0.0937499999999991
 40
0.1249999999999986
 40
0.1249999999999986
 40
0.1874999999999982
 40
0.1874999999999982
 40
0.2187499999999978
 40
0.2187499999999978
 40
0.2499999999999973
 40
0.2499999999999973
 40
0.3124999999999963
 40
0.3124999999999963
 40
0.3437499999999961
 40
0.3437499999999961
 40
0.3749999999999957
 40
0.4062499999999954
 40
0.4062499999999954
 40
0.4374999999999951
 40
0.4374999999999951
 40
0.4999999999999947
 40
0.4999999999999947
 40
0.5312499999999932
 40
0.5312499999999932
 40
0.5624999999999919
 40
0.5624999999999919
 40
0.6249999999999913
 40
0.6249999999999913
 40
0.6562499999999911
 40
0.6562499999999911
 40
0.687499999999991
 40
0.687499999999991
 40
0.7499999999999927
 40
0.7499999999999927
 40
0.8124999999999944
 40
0.8124999999999944
 40
0.8437499999999956
 40
0.8437499999999956
 40
0.8749999999999967
 40
0.8749999999999967
 40
0.9374999999999982
 40
0.9374999999999982
 40
1.0
 40
1.0
 40
1.0
 40
1.0
 10
44.76441914127133
 20
130.3172976230154
 30
0.0
 10
44.0235492975915
 20
130.3167248545578
 30
0.0
 10
43.29499950007164
 20
130.3888539076872
 30
0.0
 10
42.21990723637262
 20
130.6016883412425
 30
0.0
 10
41.86452050319972
 20
130.6902028197273
 30
0.0
 10
41.15983897871123
 20
130.9031809334026
 30
0.0
 10
40.80960003624678
 20
131.0282429682882
 30
0.0
 10
39.79079231704851
 20
131.449751858406
 30
0.0
 10
39.14648103858477
 20
131.7938361576335
 30
0.0
 10
38.23190314310068
 20
132.4037634743494
 30
0.0
 10
37.93475205772513
 20
132.6236487933101
 30
0.0
 10
37.36305183306947
 20
133.0924416527388
 30
0.0
 10
37.09099169047649
 20
133.3391304512727
 30
0.0
 10
36.31489262950225
 20
134.1149253475915
 30
0.0
 10
35.85055523702091
 20
134.6794213561917
 30
0.0
 10
35.23555976522083
 20
135.5988238727137
 30
0.0
 10
35.04466136836689
 20
135.9173309304335
 30
0.0
 10
34.6986918557778
 20
136.5647256063256
 30
0.0
 10
34.38615532750436
 20
137.2258900937317
 30
0.0
 10
34.13947873531016
 20
137.9141798565118
 30
0.0
 10
33.92618358163251
 20
138.616218200995
 30
0.0
 10
33.83587584387064
 20
138.9760679667492
 30
0.0
 10
33.62004481892549
 20
140.0616370129664
 30
0.0
 10
33.54894422589841
 20
140.7892450409437
 30
0.0
 10
33.54858386872879
 20
141.8863454357078
 30
0.0
 10
33.56630631272436
 20
142.2530004481418
 30
0.0
 10
33.63852583022356
 20
142.9882785416798
 30
0.0
 10
33.69295671121549
 20
143.3544365108461
 30
0.0
 10
33.9076402802812
 20
144.4330057100439
 30
0.0
 10
34.11936077237397
 20
145.132051783592
 30
0.0
 10
34.54044592321293
 20
146.1504437606851
 30
0.0
 10
34.69921615488417
 20
146.4865894571838
 30
0.0
 10
35.04632951614614
 20
147.1362625178106
 30
0.0
 10
35.23471927007616
 20
147.4504904217991
 30
0.0
 10
35.84333029713226
 20
148.3621045472198
 30
0.0
 10
36.30656929321403
 20
148.928724457519
 30
0.0
 10
37.35257905128781
 20
149.9764750600092
 30
0.0
 10
37.91975089940892
 20
150.4416560409739
 30
0.0
 10
38.8301683447404
 20
151.0515100513953
 30
0.0
 10
39.14386896617172
 20
151.2402440710079
 30
0.0
 10
39.79216211893408
 20
151.5879910768796
 30
0.0
 10
40.12820947102891
 20
151.7474402967948
 30
0.0
 10
41.14703562824784
 20
152.1706820928814
 30
0.0
 10
41.84585179378346
 20
152.3834621083923
 30
0.0
 10
43.28221915677935
 20
152.6718967923614
 30
0.0
 10
44.02355271721821
 20
152.7467248572015
 30
0.0
 10
44.76441914127133
 20
152.7472976230154
 30
0.0
  0
SPLINE
  5
9D
330
1F
100
AcDbEntity
  8
0
  6
Continuous
 62
     7
370
    15
100
AcDbSpline
210
0.0
220
0.0
230
1.0
 70
     8
 71
     3
 72
     8
 73
     4
 74
     0
 42
0.00000001
 43
0.00000001
 12
1.0
 22
0.0
 32
0.0
 13
1.0
 23
0.0
 33
0.0
 40
0.0
 40
0.0
 40
0.0
 40
0.0
 40
1.0
 40
1.0
 40
1.0
 40
1.0
 10
44.7644191412713
 20
152.7472976230153
 30
0.0
 10
44.75263456335563
 20
152.6816947070672
 30
0.0
 10
44.75263456335563
 20
152.6160781236624
 30
0.0
 10
44.76441914127131
 20
152.5504752077142
 30
0.0
  0
SPLINE
  5
9E
330
1F
100
AcDbEntity
  8
0
  6
Continuous
 62
     7
370
    15
100
AcDbSpline
210
0.0
220
0.0
230
1.0
 70
     8
 71
     3
 72
    17
 73
    13
 74
     0
 42
0.00000001
 43
0.00000001
 12
1.0
 22
0.0
 32
0.0
 13
1.0
 23
0.0
 33
0.0
 40
0.0
 40
0.0
 40
0.0
 40
0.0
 40
0.0985411742428518
 40
0.2016697471182187
 40
0.3077926897841397
 40
0.4108577206451142
 40
0.5169140489661596
 40
0.6199383219121914
 40
0.725950513478755
 40
0.8289734255017202
 40
0.9349817349241348
 40
1.0
 40
1.0
 40
1.0
 40
1.0
 10
33.56947813659843
 20
140.8747095218233
 30
0.0
 10
33.56741138768307
 20
141.469367076644
 30
0.0
 10
33.56318167625209
 20
142.6863653479157
 30
0.0
 10
33.95450848320936
 20
144.5113558958815
 30
0.0
 10
34.63034341386594
 20
146.2735457293629
 30
0.0
 10
35.60860066276165
 20
147.9109523599323
 30
0.0
 10
36.83435991455234
 20
149.3474037611283
 30
0.0
 10
38.2975397314955
 20
150.5681438357038
 30
0.0
 10
39.92965279031535
 20
151.5183455229502
 30
0.0
 10
41.71398022274027
 20
152.1824153904995
 30
0.0
 10
43.34286606631277
 20
152.5071103393716
 30
0.0
 10
44.37285406908498
 20
152.5385304072688
 30
0.0
 10
44.76441914127133
 20
152.5504752077142
 30
0.0
  0
SPLINE
  5
9F
330
1F
100
AcDbEntity
  8
0
  6
Continuous
 62
     7
370
    15
100
AcDbSpline
210
0.0
220
0.0
230
1.0
 70
     8
 71
     3
 72
    51
 73
    47
 74
     0
 42
0.00000001
 43
0.00000001
 12
1.0
 22
0.0
 32
0.0
 13
1.0
 23
0.0
 33
0.0
 40
0.0
 40
0.0
 40
0.0
 40
0.0
 40
0.0624999999999993
 40
0.0624999999999993
 40
0.0937499999999993
 40
0.0937499999999993
 40
0.1249999999999992
 40
0.1249999999999992
 40
0.1874999999999991
 40
0.1874999999999991
 40
0.2187499999999989
 40
0.2187499999999989
 40
0.2499999999999987
 40
0.2499999999999987
 40
0.3124999999999982
 40
0.3124999999999982
 40
0.3437499999999982
 40
0.3437499999999982
 40
0.3749999999999981
 40
0.4062499999999981
 40
0.4062499999999981
 40
0.437499999999998
 40
0.437499999999998
 40
0.499999999999998
 40
0.499999999999998
 40
0.531249999999998
 40
0.531249999999998
 40
0.562499999999998
 40
0.562499999999998
 40
0.624999999999998
 40
0.624999999999998
 40
0.6562499999999981
 40
0.6562499999999981
 40
0.6874999999999982
 40
0.6874999999999982
 40
0.7499999999999986
 40
0.7499999999999986
 40
0.8124999999999989
 40
0.8124999999999989
 40
0.8437499999999992
 40
0.8437499999999992
 40
0.8749999999999996
 40
0.8749999999999996
 40
0.9374999999999998
 40
0.9374999999999998
 40
1.0
 40
1.0
 40
1.0
 40
1.0
 10
44.76441914127133
 20
-26.76240237698458
 30
0.0
 10
44.02354929759147
 20
-26.76297514544217
 30
0.0
 10
43.29499950007163
 20
-26.69084609231273
 30
0.0
 10
42.21990723637259
 20
-26.47801165875748
 30
0.0
 10
41.86452050319972
 20
-26.38949718027267
 30
0.0
 10
41.15983897871121
 20
-26.1765190665974
 30
0.0
 10
40.80960003624678
 20
-26.05145703171183
 30
0.0
 10
39.79079231704851
 20
-25.62994814159406
 30
0.0
 10
39.14648103858477
 20
-25.28586384236651
 30
0.0
 10
38.23190314310071
 20
-24.67593652565055
 30
0.0
 10
37.93475205772513
 20
-24.45605120668987
 30
0.0
 10
37.36305183306946
 20
-23.98725834726126
 30
0.0
 10
37.09099169047647
 20
-23.74056954872733
 30
0.0
 10
36.31489262950222
 20
-22.96477465240858
 30
0.0
 10
35.85055523702093
 20
-22.4002786438083
 30
0.0
 10
35.23555976522082
 20
-21.4808761272864
 30
0.0
 10
35.04466136836687
 20
-21.16236906956659
 30
0.0
 10
34.69869185577779
 20
-20.5149743936745
 30
0.0
 10
34.38615532750436
 20
-19.85380990626845
 30
0.0
 10
34.13947873531015
 20
-19.16552014348827
 30
0.0
 10
33.92618358163251
 20
-18.46348179900508
 30
0.0
 10
33.83587584387063
 20
-18.1036320332508
 30
0.0
 10
33.62004481892549
 20
-17.01806298703355
 30
0.0
 10
33.5489442258984
 20
-16.29045495905634
 30
0.0
 10
33.54858386872879
 20
-15.19335456429217
 30
0.0
 10
33.56630631272436
 20
-14.82669955185816
 30
0.0
 10
33.63852583022355
 20
-14.09142145832018
 30
0.0
 10
33.6929567112155
 20
-13.72526348915389
 30
0.0
 10
33.90764028028121
 20
-12.64669428995601
 30
0.0
 10
34.11936077237398
 20
-11.94764821640797
 30
0.0
 10
34.54044592321293
 20
-10.92925623931488
 30
0.0
 10
34.69921615488414
 20
-10.59311054281617
 30
0.0
 10
35.0463295161461
 20
-9.943437482189559
 30
0.0
 10
35.23471927007615
 20
-9.629209578200971
 30
0.0
 10
35.84333029713227
 20
-8.717595452780223
 30
0.0
 10
36.30656929321403
 20
-8.15097554248109
 30
0.0
 10
37.3525790512878
 20
-7.103224939990838
 30
0.0
 10
37.91975089940893
 20
-6.638043959026196
 30
0.0
 10
38.83016834474041
 20
-6.028189948604774
 30
0.0
 10
39.14386896617171
 20
-5.839455928992104
 30
0.0
 10
39.79216211893407
 20
-5.491708923120385
 30
0.0
 10
40.12820947102894
 20
-5.332259703205242
 30
0.0
 10
41.14703562824788
 20
-4.909017907118558
 30
0.0
 10
41.84585179378347
 20
-4.696237891607621
 30
0.0
 10
43.28221915677933
 20
-4.407803207638579
 30
0.0
 10
44.02355271721819
 20
-4.332975142798448
 30
0.0
 10
44.76441914127133
 20
-4.332402376984574
 30
0.0
  0
SPLINE
  5
A0
330
1F
100
AcDbEntity
  8
0
  6
Continuous
 62
     7
370
    15
100
AcDbSpline
210
0.0
220
0.0
230
1.0
 70
     8
 71
     3
 72
     8
 73
     4
 74
     0
 42
0.00000001
 43
0.00000001
 12
1.0
 22
0.0
 32
0.0
 13
1.0
 23
0.0
 33
0.0
 40
0.0
 40
0.0
 40
0.0
 40
0.0
 40
1.0
 40
1.0
 40
1.0
 40
1.0
 10
44.7644191412713
 20
-4.332402376984689
 30
0.0
 10
44.75263456335563
 20
-4.398005292932832
 30
0.0
 10
44.75263456335563
 20
-4.463621876337614
 30
0.0
 10
44.76441914127133
 20
-4.529224792285757
 30
0.0
  0
SPLINE
  5
A1
330
1F
100
AcDbEntity
  8
0
  6
Continuous
 62
     7
370
    15
100
AcDbSpline
210
0.0
220
0.0
230
1.0
 70
     8
 71
     3
 72
    17
 73
    13
 74
     0
 42
0.00000001
 43
0.00000001
 12
1.0
 22
0.0
 32
0.0
 13
1.0
 23
0.0
 33
0.0
 40
0.0
 40
0.0
 40
0.0
 40
0.0
 40
0.0985411742428491
 40
0.2016697471182164
 40
0.3077926897841392
 40
0.4108577206451094
 40
0.5169140489661532
 40
0.6199383219121859
 40
0.7259505134787512
 40
0.828973425501715
 40
0.9349817349241298
 40
1.0
 40
1.0
 40
1.0
 40
1.0
 10
33.56947813659843
 20
-16.20499047817664
 30
0.0
 10
33.56741138768307
 20
-15.61033292335595
 30
0.0
 10
33.56318167625206
 20
-14.39333465208431
 30
0.0
 10
33.95450848320937
 20
-12.56834410411852
 30
0.0
 10
34.63034341386592
 20
-10.80615427063716
 30
0.0
 10
35.60860066276162
 20
-9.168747640067755
 30
0.0
 10
36.83435991455227
 20
-7.732296238871713
 30
0.0
 10
38.29753973149544
 20
-6.511556164296228
 30
0.0
 10
39.92965279031527
 20
-5.561354477049931
 30
0.0
 10
41.71398022274015
 20
-4.897284609500534
 30
0.0
 10
43.3428660663127
 20
-4.572589660628439
 30
0.0
 10
44.37285406908492
 20
-4.541169592731178
 30
0.0
 10
44.7644191412713
 20
-4.529224792285756
 30
0.0
  0
SPLINE
  5
A2
330
1F
100
AcDbEntity
  8
0
  6
Continuous
 62
     7
370
    15
100
AcDbSpline
210
0.0
220
0.0
230
1.0
 70
     8
 71
     3
 72
    51
 73
    47
 74
     0
 42
0.00000001
 43
0.00000001
 12
1.0
 22
0.0
 32
0.0
 13
1.0
 23
0.0
 33
0.0
 40
0.0
 40
0.0
 40
0.0
 40
0.0
 40
0.0625000000000007
 40
0.0625000000000007
 40
0.0937500000000008
 40
0.0937500000000008
 40
0.1250000000000009
 40
0.1250000000000009
 40
0.1875000000000011
 40
0.1875000000000011
 40
0.2187500000000009
 40
0.2187500000000009
 40
0.2500000000000007
 40
0.2500000000000007
 40
0.3125000000000002
 40
0.3125000000000002
 40
0.3437500000000002
 40
0.3437500000000002
 40
0.3750000000000004
 40
0.4062500000000006
 40
0.4062500000000006
 40
0.4375000000000008
 40
0.4375000000000008
 40
0.5000000000000006
 40
0.5000000000000006
 40
0.5312500000000007
 40
0.5312500000000007
 40
0.5625000000000009
 40
0.5625000000000009
 40
0.6250000000000006
 40
0.6250000000000006
 40
0.6562500000000006
 40
0.6562500000000006
 40
0.6875000000000004
 40
0.6875000000000004
 40
0.7500000000000001
 40
0.7500000000000001
 40
0.8124999999999999
 40
0.8124999999999999
 40
0.84375
 40
0.84375
 40
0.8750000000000002
 40
0.8750000000000002
 40
0.9375000000000001
 40
0.9375000000000001
 40
1.0
 40
1.0
 40
1.0
 40
1.0
 10
44.76441914127133
 20
25.59749762301541
 30
0.0
 10
44.0235492975915
 20
25.59692485455782
 30
0.0
 10
43.29499950007165
 20
25.66905390768725
 30
0.0
 10
42.21990723637261
 20
25.8818883412425
 30
0.0
 10
41.86452050319973
 20
25.97040281972734
 30
0.0
 10
41.15983897871123
 20
26.1833809334026
 30
0.0
 10
40.80960003624678
 20
26.30844296828816
 30
0.0
 10
39.79079231704848
 20
26.72995185840593
 30
0.0
 10
39.14648103858476
 20
27.07403615763349
 30
0.0
 10
38.23190314310071
 20
27.68396347434945
 30
0.0
 10
37.93475205772513
 20
27.90384879331014
 30
0.0
 10
37.36305183306946
 20
28.37264165273873
 30
0.0
 10
37.09099169047648
 20
28.61933045127267
 30
0.0
 10
36.31489262950223
 20
29.39512534759141
 30
0.0
 10
35.85055523702092
 20
29.95962135619171
 30
0.0
 10
35.23555976522083
 20
30.8790238727136
 30
0.0
 10
35.04466136836688
 20
31.19753093043342
 30
0.0
 10
34.69869185577779
 20
31.84492560632551
 30
0.0
 10
34.38615532750436
 20
32.50609009373158
 30
0.0
 10
34.13947873531015
 20
33.19437985651173
 30
0.0
 10
33.92618358163251
 20
33.89641820099493
 30
0.0
 10
33.83587584387065
 20
34.25626796674921
 30
0.0
 10
33.62004481892549
 20
35.34183701296645
 30
0.0
 10
33.5489442258984
 20
36.06944504094368
 30
0.0
 10
33.54858386872878
 20
37.16654543570785
 30
0.0
 10
33.56630631272436
 20
37.53320044814186
 30
0.0
 10
33.63852583022356
 20
38.26847854167985
 30
0.0
 10
33.69295671121552
 20
38.63463651084612
 30
0.0
 10
33.90764028028122
 20
39.71320571004399
 30
0.0
 10
34.11936077237398
 20
40.41225178359203
 30
0.0
 10
34.54044592321294
 20
41.43064376068511
 30
0.0
 10
34.69921615488416
 20
41.76678945718384
 30
0.0
 10
35.04632951614612
 20
42.41646251781044
 30
0.0
 10
35.23471927007616
 20
42.73069042179903
 30
0.0
 10
35.84333029713227
 20
43.64230454721977
 30
0.0
 10
36.30656929321403
 20
44.20892445751893
 30
0.0
 10
37.35257905128782
 20
45.25667506000917
 30
0.0
 10
37.91975089940894
 20
45.7218560409738
 30
0.0
 10
38.8301683447404
 20
46.33171005139523
 30
0.0
 10
39.14386896617171
 20
46.52044407100789
 30
0.0
 10
39.79216211893405
 20
46.86819107687962
 30
0.0
 10
40.12820947102894
 20
47.02764029679476
 30
0.0
 10
41.14703562824787
 20
47.45088209288145
 30
0.0
 10
41.84585179378346
 20
47.66366210839235
 30
0.0
 10
43.28221915677933
 20
47.95209679236142
 30
0.0
 10
44.02355271721819
 20
48.02692485720152
 30
0.0
 10
44.76441914127133
 20
48.02749762301541
 30
0.0
  0
SPLINE
  5
A3
330
1F
100
AcDbEntity
  8
0
  6
Continuous
 62
     7
370
    15
100
AcDbSpline
210
0.0
220
0.0
230
1.0
 70
     8
 71
     3
 72
     8
 73
     4
 74
     0
 42
0.00000001
 43
0.00000001
 12
1.0
 22
0.0
 32
0.0
 13
1.0
 23
0.0
 33
0.0
 40
0.0
 40
0.0
 40
0.0
 40
0.0
 40
1.0
 40
1.0
 40
1.0
 40
1.0
 10
44.7644191412713
 20
48.02749762301531
 30
0.0
 10
44.75263456335563
 20
47.96189470706717
 30
0.0
 10
44.75263456335563
 20
47.89627812366238
 30
0.0
 10
44.76441914127133
 20
47.83067520771424
 30
0.0
  0
SPLINE
  5
A4
330
1F
100
AcDbEntity
  8
0
  6
Continuous
 62
     7
370
    15
100
AcDbSpline
210
0.0
220
0.0
230
1.0
 70
     8
 71
     3
 72
    17
 73
    13
 74
     0
 42
0.00000001
 43
0.00000001
 12
1.0
 22
0.0
 32
0.0
 13
1.0
 23
0.0
 33
0.0
 40
0.0
 40
0.0
 40
0.0
 40
0.0
 40
0.0985411742428492
 40
0.2016697471182161
 40
0.3077926897841393
 40
0.4108577206451082
 40
0.5169140489661509
 40
0.6199383219121853
 40
0.7259505134787495
 40
0.8289734255017138
 40
0.9349817349241287
 40
1.0
 40
1.0
 40
1.0
 40
1.0
 10
33.56947813659843
 20
36.15490952182326
 30
0.0
 10
33.56741138768304
 20
36.74956707664396
 30
0.0
 10
33.56318167625198
 20
37.96656534791558
 30
0.0
 10
33.95450848320935
 20
39.7915558958814
 30
0.0
 10
34.63034341386594
 20
41.55374572936274
 30
0.0
 10
35.60860066276157
 20
43.1911523599322
 30
0.0
 10
36.83435991455219
 20
44.62760376112825
 30
0.0
 10
38.29753973149536
 20
45.84834383570377
 30
0.0
 10
39.92965279031524
 20
46.79854552295003
 30
0.0
 10
41.71398022274009
 20
47.46261539049947
 30
0.0
 10
43.34286606631269
 20
47.78731033937152
 30
0.0
 10
44.37285406908492
 20
47.81873040726882
 30
0.0
 10
44.7644191412713
 20
47.83067520771425
 30
0.0
  0
SPLINE
  5
A5
330
1F
100
AcDbEntity
  8
0
  6
Continuous
 62
     7
370
    15
100
AcDbSpline
210
0.0
220
0.0
230
1.0
 70
     8
 71
     3
 72
    51
 73
    47
 74
     0
 42
0.00000001
 43
0.00000001
 12
1.0
 22
0.0
 32
0.0
 13
1.0
 23
0.0
 33
0.0
 40
0.0
 40
0.0
 40
0.0
 40
0.0
 40
0.0625000000000033
 40
0.0625000000000033
 40
0.0937500000000048
 40
0.0937500000000048
 40
0.1250000000000063
 40
0.1250000000000063
 40
0.1875000000000092
 40
0.1875000000000092
 40
0.2187500000000101
 40
0.2187500000000101
 40
0.250000000000011
 40
0.250000000000011
 40
0.312500000000012
 40
0.312500000000012
 40
0.3437500000000122
 40
0.3437500000000122
 40
0.3750000000000123
 40
0.4062500000000125
 40
0.4062500000000125
 40
0.4375000000000126
 40
0.4375000000000126
 40
0.5000000000000129
 40
0.5000000000000129
 40
0.5312500000000131
 40
0.5312500000000131
 40
0.5625000000000133
 40
0.5625000000000133
 40
0.6250000000000124
 40
0.6250000000000124
 40
0.6562500000000114
 40
0.6562500000000114
 40
0.6875000000000104
 40
0.6875000000000104
 40
0.7500000000000085
 40
0.7500000000000085
 40
0.8125000000000067
 40
0.8125000000000067
 40
0.8437500000000056
 40
0.8437500000000056
 40
0.8750000000000044
 40
0.8750000000000044
 40
0.9375000000000022
 40
0.9375000000000022
 40
1.0
 40
1.0
 40
1.0
 40
1.0
 10
44.76441914127133
 20
77.95739762301541
 30
0.0
 10
44.02354929759149
 20
77.95682485455782
 30
0.0
 10
43.29499950007163
 20
78.02895390768722
 30
0.0
 10
42.21990723637261
 20
78.2417883412425
 30
0.0
 10
41.86452050319972
 20
78.33030281972734
 30
0.0
 10
41.15983897871121
 20
78.54328093340257
 30
0.0
 10
40.80960003624678
 20
78.66834296828813
 30
0.0
 10
39.79079231704849
 20
79.08985185840591
 30
0.0
 10
39.14648103858476
 20
79.43393615763347
 30
0.0
 10
38.23190314310071
 20
80.04386347434941
 30
0.0
 10
37.93475205772513
 20
80.26374879331016
 30
0.0
 10
37.36305183306947
 20
80.73254165273873
 30
0.0
 10
37.09099169047649
 20
80.9792304512727
 30
0.0
 10
36.31489262950224
 20
81.75502534759143
 30
0.0
 10
35.85055523702093
 20
82.31952135619173
 30
0.0
 10
35.23555976522084
 20
83.2389238727136
 30
0.0
 10
35.04466136836685
 20
83.5574309304334
 30
0.0
 10
34.69869185577778
 20
84.20482560632549
 30
0.0
 10
34.38615545140167
 20
84.86599014476027
 30
0.0
 10
34.13947873531017
 20
85.55427985651173
 30
0.0
 10
33.92618358163251
 20
86.2563182009949
 30
0.0
 10
33.83587584387063
 20
86.61616796674926
 30
0.0
 10
33.6200448189255
 20
87.70173701296653
 30
0.0
 10
33.54894422589839
 20
88.42934504094369
 30
0.0
 10
33.54858386872883
 20
89.52644543570787
 30
0.0
 10
33.56630631272437
 20
89.8931004481419
 30
0.0
 10
33.63852583022356
 20
90.62837854167988
 30
0.0
 10
33.69295671121553
 20
90.99453651084616
 30
0.0
 10
33.90764028028122
 20
92.07310571004402
 30
0.0
 10
34.11936077237399
 20
92.77215178359207
 30
0.0
 10
34.54044592321294
 20
93.79054376068507
 30
0.0
 10
34.69921615488415
 20
94.12668945718382
 30
0.0
 10
35.0463295161461
 20
94.77636251781044
 30
0.0
 10
35.23471927007616
 20
95.09059042179904
 30
0.0
 10
35.84333029713227
 20
96.00220454721982
 30
0.0
 10
36.30656929321403
 20
96.56882445751894
 30
0.0
 10
37.35257905128779
 20
97.6165750600092
 30
0.0
 10
37.91975089940894
 20
98.08175604097384
 30
0.0
 10
38.83016834474043
 20
98.69161005139524
 30
0.0
 10
39.14386896617175
 20
98.88034407100794
 30
0.0
 10
39.79216211893408
 20
99.22809107687966
 30
0.0
 10
40.12820947102897
 20
99.38754029679478
 30
0.0
 10
41.1470356282479
 20
99.81078209288144
 30
0.0
 10
41.84585179378353
 20
100.0235621083924
 30
0.0
 10
43.28221915677941
 20
100.3119967923615
 30
0.0
 10
44.02355271721822
 20
100.3868248572015
 30
0.0
 10
44.76441914127133
 20
100.3873976230154
 30
0.0
  0
SPLINE
  5
A6
330
1F
100
AcDbEntity
  8
0
  6
Continuous
 62
     7
370
    15
100
AcDbSpline
210
0.0
220
0.0
230
1.0
 70
     8
 71
     3
 72
     8
 73
     4
 74
     0
 42
0.00000001
 43
0.00000001
 12
1.0
 22
0.0
 32
0.0
 13
1.0
 23
0.0
 33
0.0
 40
0.0
 40
0.0
 40
0.0
 40
0.0
 40
1.0
 40
1.0
 40
1.0
 40
1.0
 10
44.7644191412713
 20
100.3873976230153
 30
0.0
 10
44.75263456335563
 20
100.3217947070671
 30
0.0
 10
44.75263456335563
 20
100.2561781236624
 30
0.0
 10
44.76441914127133
 20
100.1905752077142
 30
0.0
  0
SPLINE
  5
A7
330
1F
100
AcDbEntity
  8
0
  6
Continuous
 62
     7
370
    15
100
AcDbSpline
210
0.0
220
0.0
230
1.0
 70
     8
 71
     3
 72
    17
 73
    13
 74
     0
 42
0.00000001
 43
0.00000001
 12
1.0
 22
0.0
 32
0.0
 13
1.0
 23
0.0
 33
0.0
 40
0.0
 40
0.0
 40
0.0
 40
0.0
 40
0.0985411742428478
 40
0.2016697471182127
 40
0.3077926897841358
 40
0.4108577206451067
 40
0.5169140489661506
 40
0.6199383219121847
 40
0.7259505134787482
 40
0.8289734255017116
 40
0.9349817349241286
 40
1.0
 40
1.0
 40
1.0
 40
1.0
 10
33.56947813659843
 20
88.51480952182331
 30
0.0
 10
33.56741138768305
 20
89.109467076644
 30
0.0
 10
33.56318167625202
 20
90.3264653479156
 30
0.0
 10
33.95450848320936
 20
92.15145589588137
 30
0.0
 10
34.63034341386592
 20
93.91364572936277
 30
0.0
 10
35.60860066276157
 20
95.55105235993219
 30
0.0
 10
36.8343599145522
 20
96.98750376112827
 30
0.0
 10
38.29753973149538
 20
98.20824383570377
 30
0.0
 10
39.92965279031524
 20
99.15844552295007
 30
0.0
 10
41.71398022274012
 20
99.82251539049943
 30
0.0
 10
43.34286606631269
 20
100.1472103393715
 30
0.0
 10
44.37285406908494
 20
100.1786304072688
 30
0.0
 10
44.76441914127133
 20
100.1905752077142
 30
0.0
  0
LINE
  5
C8
330
1F
100
AcDbEntity
  8
0
  6
Continuous
 62
     7
370
    15
100
AcDbLine
 10
-65.6799000817
 20
65.480797623
 30
0.0
 11
-55.9037388221
 21
65.4889842876
 31
0.0
  0
LINE
  5
C9
330
1F
100
AcDbEntity
  8
0
  6
Continuous
 62
     7
370
    15
100
AcDbLine
 10
-55.9037388221
 20
95.4188842876
 30
0.0
 11
-55.9037388221
 21
65.2757885431
 31
0.0
  0
LINE
  5
CA
330
1F
100
AcDbEntity
  8
0
  6
Continuous
 62
     7
370
    15
100
AcDbLine
 10
-65.6799000817
 20
65.2839752077
 30
0.0
 11
-55.9037388221
 21
65.2757885431
 31
0.0
  0
LINE
  5
CB
330
1F
100
AcDbEntity
  8
0
  6
Continuous
 62
     7
370
    15
100
AcDbLine
 10
-65.6799000817
 20
-39.239002377
 30
0.0
 11
-55.9037388221
 21
-39.2308157124
 31
0.0
  0
LINE
  5
CC
330
1F
100
AcDbEntity
  8
0
  6
Continuous
 62
     7
370
    15
100
AcDbLine
 10
-55.9037388221
 20
-9.3009157124
 30
0.0
 11
-55.9037388221
 21
-39.4440114569
 31
0.0
  0
LINE
  5
CD
330
1F
100
AcDbEntity
  8
0
  6
Continuous
 62
     7
370
    15
100
AcDbLine
 10
-65.6799000817
 20
-39.4358247923
 30
0.0
 11
-55.9037388221
 21
-39.4440114569
 31
0.0
  0
LINE
  5
CE
330
1F
100
AcDbEntity
  8
0
  6
Continuous
 62
     7
370
    15
100
AcDbLine
 10
-65.6799000817
 20
13.120897623
 30
0.0
 11
-55.9037388221
 21
13.1290842876
 31
0.0
  0
LINE
  5
CF
330
1F
100
AcDbEntity
  8
0
  6
Continuous
 62
     7
370
    15
100
AcDbLine
 10
-55.9037388221
 20
43.0589842876
 30
0.0
 11
-55.9037388221
 21
12.9158885431
 31
0.0
  0
LINE
  5
D0
330
1F
100
AcDbEntity
  8
0
  6
Continuous
 62
     7
370
    15
100
AcDbLine
 10
-65.6799000817
 20
12.9240752077
 30
0.0
 11
-55.9037388221
 21
12.9158885431
 31
0.0
  0
LINE
  5
D1
330
1F
100
AcDbEntity
  8
0
  6
Continuous
 62
     7
370
    15
100
AcDbLine
 10
-65.6799000817
 20
117.840697623
 30
0.0
 11
-55.9037388221
 21
117.8488842876
 31
0.0
  0
LINE
  5
D2
330
1F
100
AcDbEntity
  8
0
  6
Continuous
 62
     7
370
    15
100
AcDbLine
 10
-55.9037388221
 20
176.6329739154
 30
0.0
 11
-55.9037388221
 21
117.6356885431
 31
0.0
  0
LINE
  5
D3
330
1F
100
AcDbEntity
  8
0
  6
Continuous
 62
     7
370
    15
100
AcDbLine
 10
-65.6799000817
 20
117.6438752077
 30
0.0
 11
-55.9037388221
 21
117.6356885431
 31
0.0
  0
LINE
  5
D4
330
1F
100
AcDbEntity
  8
0
  6
Continuous
 62
     7
370
    15
100
AcDbLine
 10
-55.9037388221
 20
-159.8216260846
 30
0.0
 11
-79.5887388221
 21
-159.8216260846
 31
0.0
  0
LINE
  5
D5
330
1F
100
AcDbEntity
  8
0
  6
Continuous
 62
     7
370
    15
100
AcDbLine
 10
-79.5887388221
 20
-159.8216260846
 30
0.0
 11
-79.5887388221
 21
-165.2761260846
 31
0.0
  0
LINE
  5
D6
330
1F
100
AcDbEntity
  8
0
  6
Continuous
 62
     7
370
    15
100
AcDbLine
 10
-79.5887388221
 20
-165.2761260846
 30
0.0
 11
-55.9037388221
 21
-165.2761260846
 31
0.0
  0
LINE
  5
D7
330
1F
100
AcDbEntity
  8
0
  6
Continuous
 62
     7
370
    15
100
AcDbLine
 10
-55.9037388221
 20
-165.2761260846
 30
0.0
 11
-55.9037388221
 21
-185.2761260846
 31
0.0
  0
LINE
  5
D8
330
1F
100
AcDbEntity
  8
0
  6
Continuous
 62
     7
370
    15
100
AcDbLine
 10
-55.9037388221
 20
-185.2761260846
 30
0.0
 11
-103.2737388221
 21
-185.2761260846
 31
0.0
  0
LINE
  5
D9
330
1F
100
AcDbEntity
  8
0
  6
Continuous
 62
     7
370
    15
100
AcDbLine
 10
-103.2737388221
 20
-185.2761260846
 30
0.0
 11
-103.2737388221
 21
163.4476226113
 31
0.0
  0
LINE
  5
DA
330
1F
100
AcDbEntity
  8
0
  6
Continuous
 62
     7
370
    15
100
AcDbLine
 10
-96.1606475134
 20
167.9791615465
 30
0.0
 11
-93.2737388221
 21
166.6329739154
 31
0.0
  0
LINE
  5
DB
330
1F
100
AcDbEntity
  8
0
  6
Continuous
 62
     7
370
    15
100
AcDbLine
 10
-93.2737388221
 20
166.6329739154
 30
0.0
 11
-86.2026710102
 21
173.7040417272
 31
0.0
  0
LINE
  5
DC
330
1F
100
AcDbEntity
  8
0
  6
Continuous
 62
     7
370
    15
100
AcDbLine
 10
-79.1316031983
 20
176.6329739154
 30
0.0
 11
-55.9037388221
 21
176.6329739154
 31
0.0
  0
LINE
  5
DD
330
1F
100
AcDbEntity
  8
0
  6
Continuous
 62
     7
370
    15
100
AcDbLine
 10
-55.9037388221
 20
-61.6608157124
 30
0.0
 11
-55.9037388221
 21
-159.8216260846
 31
0.0
  0
LINE
  5
DE
330
1F
100
AcDbEntity
  8
0
  6
Continuous
 62
     7
370
    15
100
AcDbLine
 10
-55.9037388221
 20
43.0589842876
 30
0.0
 11
-65.6799000817
 21
43.050797623
 31
0.0
  0
LINE
  5
DF
330
1F
100
AcDbEntity
  8
0
  6
Continuous
 62
     7
370
    15
100
AcDbLine
 10
-55.9037388221
 20
95.4188842876
 30
0.0
 11
-65.6799000817
 21
95.410697623
 31
0.0
  0
LINE
  5
E0
330
1F
100
AcDbEntity
  8
0
  6
Continuous
 62
     7
370
    15
100
AcDbLine
 10
-55.9037388221
 20
-61.6608157124
 30
0.0
 11
-65.6799000817
 21
-61.669002377
 31
0.0
  0
LINE
  5
E1
330
1F
100
AcDbEntity
  8
0
  6
Continuous
 62
     7
370
    15
100
AcDbLine
 10
-55.9037388221
 20
-9.3009157124
 30
0.0
 11
-65.6799000817
 21
-9.309102377
 31
0.0
  0
LINE
  5
E2
330
1F
100
AcDbEntity
  8
0
  6
Continuous
 62
     7
370
    15
100
AcDbLine
 10
-9.9410038213
 20
82.934097623
 30
0.0
 11
-0.1648425617
 21
82.9422842876
 31
0.0
  0
LINE
  5
E3
330
1F
100
AcDbEntity
  8
0
  6
Continuous
 62
     7
370
    15
100
AcDbLine
 10
-0.1648425617
 20
112.8721842876
 30
0.0
 11
-0.1648425617
 21
82.7290885431
 31
0.0
  0
LINE
  5
E4
330
1F
100
AcDbEntity
  8
0
  6
Continuous
 62
     7
370
    15
100
AcDbLine
 10
-9.9410038213
 20
82.7372752077
 30
0.0
 11
-0.1648425617
 21
82.7290885431
 31
0.0
  0
LINE
  5
E5
330
1F
100
AcDbEntity
  8
0
  6
Continuous
 62
     7
370
    15
100
AcDbLine
 10
-9.9410038213
 20
-21.785702377
 30
0.0
 11
-0.1648425617
 21
-21.7775157124
 31
0.0
  0
LINE
  5
E6
330
1F
100
AcDbEntity
  8
0
  6
Continuous
 62
     7
370
    15
100
AcDbLine
 10
-0.1648425617
 20
8.1523842876
 30
0.0
 11
-0.1648425617
 21
-21.9907114569
 31
0.0
  0
LINE
  5
E7
330
1F
100
AcDbEntity
  8
0
  6
Continuous
 62
     7
370
    15
100
AcDbLine
 10
-9.9410038213
 20
-21.9825247923
 30
0.0
 11
-0.1648425617
 21
-21.9907114569
 31
0.0
  0
LINE
  5
E8
330
1F
100
AcDbEntity
  8
0
  6
Continuous
 62
     7
370
    15
100
AcDbLine
 10
-9.9410038213
 20
30.574197623
 30
0.0
 11
-0.1648425617
 21
30.5823842876
 31
0.0
  0
LINE
  5
E9
330
1F
100
AcDbEntity
  8
0
  6
Continuous
 62
     7
370
    15
100
AcDbLine
 10
-0.1648425617
 20
60.5122842876
 30
0.0
 11
-0.1648425617
 21
30.3691885431
 31
0.0
  0
LINE
  5
EA
330
1F
100
AcDbEntity
  8
0
  6
Continuous
 62
     7
370
    15
100
AcDbLine
 10
-9.9410038213
 20
30.3773752077
 30
0.0
 11
-0.1648425617
 21
30.3691885431
 31
0.0
  0
LINE
  5
EB
330
1F
100
AcDbEntity
  8
0
  6
Continuous
 62
     7
370
    15
100
AcDbLine
 10
-9.9410038213
 20
135.293997623
 30
0.0
 11
-0.1648425617
 21
135.3021842876
 31
0.0
  0
LINE
  5
EC
330
1F
100
AcDbEntity
  8
0
  6
Continuous
 62
     7
370
    15
100
AcDbLine
 10
-0.1648425617
 20
176.6329739154
 30
0.0
 11
-0.1648425617
 21
135.0889885431
 31
0.0
  0
LINE
  5
ED
330
1F
100
AcDbEntity
  8
0
  6
Continuous
 62
     7
370
    15
100
AcDbLine
 10
-9.9410038213
 20
135.0971752077
 30
0.0
 11
-0.1648425617
 21
135.0889885431
 31
0.0
  0
LINE
  5
EE
330
1F
100
AcDbEntity
  8
0
  6
Continuous
 62
     7
370
    15
100
AcDbLine
 10
-0.1648425617
 20
-44.2075157124
 30
0.0
 11
-0.1648425617
 21
-159.8216260846
 31
0.0
  0
LINE
  5
EF
330
1F
100
AcDbEntity
  8
0
  6
Continuous
 62
     7
370
    15
100
AcDbLine
 10
-0.1648425617
 20
-159.8216260846
 30
0.0
 11
-23.8498425617
 21
-159.8216260846
 31
0.0
  0
LINE
  5
F0
330
1F
100
AcDbEntity
  8
0
  6
Continuous
 62
     7
370
    15
100
AcDbLine
 10
-23.8498425617
 20
-159.8216260846
 30
0.0
 11
-23.8498425617
 21
-165.2761260846
 31
0.0
  0
LINE
  5
F1
330
1F
100
AcDbEntity
  8
0
  6
Continuous
 62
     7
370
    15
100
AcDbLine
 10
-23.8498425617
 20
-165.2761260846
 30
0.0
 11
-0.1648425617
 21
-165.2761260846
 31
0.0
  0
LINE
  5
F2
330
1F
100
AcDbEntity
  8
0
  6
Continuous
 62
     7
370
    15
100
AcDbLine
 10
-0.1648425617
 20
-165.2761260846
 30
0.0
 11
-0.1648425617
 21
-185.2761260846
 31
0.0
  0
LINE
  5
F3
330
1F
100
AcDbEntity
  8
0
  6
Continuous
 62
     7
370
    15
100
AcDbLine
 10
-0.1648425617
 20
-185.2761260846
 30
0.0
 11
-47.5348425617
 21
-185.2761260846
 31
0.0
  0
LINE
  5
F4
330
1F
100
AcDbEntity
  8
0
  6
Continuous
 62
     7
370
    15
100
AcDbLine
 10
-47.5348425617
 20
-185.2761260846
 30
0.0
 11
-47.5348425617
 21
163.4476226113
 31
0.0
  0
LINE
  5
F5
330
1F
100
AcDbEntity
  8
0
  6
Continuous
 62
     7
370
    15
100
AcDbLine
 10
-40.421751253
 20
167.9791615465
 30
0.0
 11
-37.5348425617
 21
166.6329739154
 31
0.0
  0
LINE
  5
F6
330
1F
100
AcDbEntity
  8
0
  6
Continuous
 62
     7
370
    15
100
AcDbLine
 10
-37.5348425617
 20
166.6329739154
 30
0.0
 11
-30.4637747498
 21
173.7040417272
 31
0.0
  0
LINE
  5
F7
330
1F
100
AcDbEntity
  8
0
  6
Continuous
 62
     7
370
    15
100
AcDbLine
 10
-23.3927069379
 20
176.6329739154
 30
0.0
 11
-0.1648425617
 21
176.6329739154
 31
0.0
  0
LINE
  5
F8
330
1F
100
AcDbEntity
  8
0
  6
Continuous
 62
     7
370
    15
100
AcDbLine
 10
-0.1648425617
 20
60.5122842876
 30
0.0
 11
-9.9410038213
 21
60.504097623
 31
0.0
  0
LINE
  5
F9
330
1F
100
AcDbEntity
  8
0
  6
Continuous
 62
     7
370
    15
100
AcDbLine
 10
-0.1648425617
 20
112.8721842876
 30
0.0
 11
-9.9410038213
 21
112.863997623
 31
0.0
  0
LINE
  5
FA
330
1F
100
AcDbEntity
  8
0
  6
Continuous
 62
     7
370
    15
100
AcDbLine
 10
-0.1648425617
 20
8.1523842876
 30
0.0
 11
-9.9410038213
 21
8.144197623
 31
0.0
  0
LINE
  5
FB
330
1F
100
AcDbEntity
  8
0
  6
Continuous
 62
     7
370
    15
100
AcDbLine
 10
-0.1648425617
 20
-44.2075157124
 30
0.0
 11
-9.9410038213
 21
-44.215702377
 31
0.0
  0
LINE
  5
FC
330
1F
100
AcDbEntity
  8
0
  6
Continuous
 62
     7
370
    15
100
AcDbLine
 10
44.7644191413
 20
100.387397623
 30
0.0
 11
54.540580401
 21
100.3955842876
 31
0.0
  0
LINE
  5
FD
330
1F
100
AcDbEntity
  8
0
  6
Continuous
 62
     7
370
    15
100
AcDbLine
 10
54.540580401
 20
130.3254842876
 30
0.0
 11
54.540580401
 21
100.1823885431
 31
0.0
  0
LINE
  5
FE
330
1F
100
AcDbEntity
  8
0
  6
Continuous
 62
     7
370
    15
100
AcDbLine
 10
44.7644191413
 20
100.1905752077
 30
0.0
 11
54.540580401
 21
100.1823885431
 31
0.0
  0
LINE
  5
FF
330
1F
100
AcDbEntity
  8
0
  6
Continuous
 62
     7
370
    15
100
AcDbLine
 10
44.7644191413
 20
48.027497623
 30
0.0
 11
54.540580401
 21
48.0356842876
 31
0.0
  0
LINE
  5
100
330
1F
100
AcDbEntity
  8
0
  6
Continuous
 62
     7
370
    15
100
AcDbLine
 10
54.540580401
 20
77.9655842876
 30
0.0
 11
54.540580401
 21
47.8224885431
 31
0.0
  0
LINE
  5
101
330
1F
100
AcDbEntity
  8
0
  6
Continuous
 62
     7
370
    15
100
AcDbLine
 10
44.7644191413
 20
47.8306752077
 30
0.0
 11
54.540580401
 21
47.8224885431
 31
0.0
  0
LINE
  5
102
330
1F
100
AcDbEntity
  8
0
  6
Continuous
 62
     7
370
    15
100
AcDbLine
 10
44.7644191413
 20
-4.332402377
 30
0.0
 11
54.540580401
 21
-4.3242157124
 31
0.0
  0
LINE
  5
103
330
1F
100
AcDbEntity
  8
0
  6
Continuous
 62
     7
370
    15
100
AcDbLine
 10
54.540580401
 20
25.6056842876
 30
0.0
 11
54.540580401
 21
-4.5374114569
 31
0.0
  0
LINE
  5
104
330
1F
100
AcDbEntity
  8
0
  6
Continuous
 62
     7
370
    15
100
AcDbLine
 10
44.7644191413
 20
-4.5292247923
 30
0.0
 11
54.540580401
 21
-4.5374114569
 31
0.0
  0
LINE
  5
105
330
1F
100
AcDbEntity
  8
0
  6
Continuous
 62
     7
370
    15
100
AcDbLine
 10
44.7644191413
 20
152.747297623
 30
0.0
 11
54.540580401
 21
152.7554842876
 31
0.0
  0
LINE
  5
106
330
1F
100
AcDbEntity
  8
0
  6
Continuous
 62
     7
370
    15
100
AcDbLine
 10
54.540580401
 20
176.6329739154
 30
0.0
 11
54.540580401
 21
152.5422885431
 31
0.0
  0
LINE
  5
107
330
1F
100
AcDbEntity
  8
0
  6
Continuous
 62
     7
370
    15
100
AcDbLine
 10
44.7644191413
 20
152.5504752077
 30
0.0
 11
54.540580401
 21
152.5422885431
 31
0.0
  0
LINE
  5
108
330
1F
100
AcDbEntity
  8
0
  6
Continuous
 62
     7
370
    15
100
AcDbLine
 10
54.540580401
 20
-26.7542157124
 30
0.0
 11
54.540580401
 21
-159.8216260846
 31
0.0
  0
LINE
  5
109
330
1F
100
AcDbEntity
  8
0
  6
Continuous
 62
     7
370
    15
100
AcDbLine
 10
54.540580401
 20
-159.8216260846
 30
0.0
 11
30.855580401
 21
-159.8216260846
 31
0.0
  0
LINE
  5
10A
330
1F
100
AcDbEntity
  8
0
  6
Continuous
 62
     7
370
    15
100
AcDbLine
 10
30.855580401
 20
-159.8216260846
 30
0.0
 11
30.855580401
 21
-165.2761260846
 31
0.0
  0
LINE
  5
10B
330
1F
100
AcDbEntity
  8
0
  6
Continuous
 62
     7
370
    15
100
AcDbLine
 10
30.855580401
 20
-165.2761260846
 30
0.0
 11
54.540580401
 21
-165.2761260846
 31
0.0
  0
LINE
  5
10C
330
1F
100
AcDbEntity
  8
0
  6
Continuous
 62
     7
370
    15
100
AcDbLine
 10
54.540580401
 20
-165.2761260846
 30
0.0
 11
54.540580401
 21
-185.2761260846
 31
0.0
  0
LINE
  5
10D
330
1F
100
AcDbEntity
  8
0
  6
Continuous
 62
     7
370
    15
100
AcDbLine
 10
54.540580401
 20
-185.2761260846
 30
0.0
 11
7.170580401
 21
-185.2761260846
 31
0.0
  0
LINE
  5
10E
330
1F
100
AcDbEntity
  8
0
  6
Continuous
 62
     7
370
    15
100
AcDbLine
 10
7.170580401
 20
-185.2761260846
 30
0.0
 11
7.170580401
 21
163.4476226113
 31
0.0
  0
LINE
  5
10F
330
1F
100
AcDbEntity
  8
0
  6
Continuous
 62
     7
370
    15
100
AcDbLine
 10
14.2836717097
 20
167.9791615465
 30
0.0
 11
17.170580401
 21
166.6329739154
 31
0.0
  0
LINE
  5
110
330
1F
100
AcDbEntity
  8
0
  6
Continuous
 62
     7
370
    15
100
AcDbLine
 10
17.170580401
 20
166.6329739154
 30
0.0
 11
24.2416482128
 21
173.7040417272
 31
0.0
  0
LINE
  5
111
330
1F
100
AcDbEntity
  8
0
  6
Continuous
 62
     7
370
    15
100
AcDbLine
 10
31.3127160247
 20
176.6329739154
 30
0.0
 11
54.540580401
 21
176.6329739154
 31
0.0
  0
LINE
  5
112
330
1F
100
AcDbEntity
  8
0
  6
Continuous
 62
     7
370
    15
100
AcDbLine
 10
54.540580401
 20
130.3254842876
 30
0.0
 11
44.7644191413
 21
130.317297623
 31
0.0
  0
LINE
  5
113
330
1F
100
AcDbEntity
  8
0
  6
Continuous
 62
     7
370
    15
100
AcDbLine
 10
54.540580401
 20
25.6056842876
 30
0.0
 11
44.7644191413
 21
25.597497623
 31
0.0
  0
LINE
  5
114
330
1F
100
AcDbEntity
  8
0
  6
Continuous
 62
     7
370
    15
100
AcDbLine
 10
54.540580401
 20
77.9655842876
 30
0.0
 11
44.7644191413
 21
77.957397623
 31
0.0
  0
LINE
  5
115
330
1F
100
AcDbEntity
  8
0
  6
Continuous
 62
     7
370
    15
100
AcDbLine
 10
54.540580401
 20
-26.7542157124
 30
0.0
 11
44.7644191413
 21
-26.762402377
 31
0.0
  0
ARC
  5
116
330
1F
100
AcDbEntity
  8
0
  6
Continuous
 62
     7
370
    15
100
AcDbCircle
 10
-98.2737388221
 20
163.4476226113
 30
0.0
 40
5.000000000000014
100
AcDbArc
 50
65.0
 51
180.0
  0
ARC
  5
117
330
1F
100
AcDbEntity
  8
0
  6
Continuous
 62
     7
370
    15
100
AcDbCircle
 10
-79.1316031983
 20
166.6329739154
 30
0.0
 40
10.00000000000009
100
AcDbArc
 50
90.0
 51
135.0
  0
ARC
  5
118
330
1F
100
AcDbEntity
  8
0
  6
Continuous
 62
     7
370
    15
100
AcDbCircle
 10
-42.5348425617
 20
163.4476226113
 30
0.0
 40
5.000000000000007
100
AcDbArc
 50
65.0
 51
180.0
  0
ARC
  5
119
330
1F
100
AcDbEntity
  8
0
  6
Continuous
 62
     7
370
    15
100
AcDbCircle
 10
-23.3927069379
 20
166.6329739154
 30
0.0
 40
10.00000000000003
100
AcDbArc
 50
90.0
 51
135.0
  0
ARC
  5
11A
330
1F
100
AcDbEntity
  8
0
  6
Continuous
 62
     7
370
    15
100
AcDbCircle
 10
12.170580401
 20
163.4476226113
 30
0.0
 40
5.000000000000013
100
AcDbArc
 50
65.0
 51
180.0
  0
ARC
  5
11B
330
1F
100
AcDbEntity
  8
0
  6
Continuous
 62
     7
370
    15
100
AcDbCircle
 10
31.3127160247
 20
166.6329739154
 30
0.0
 40
9.999999999999716
100
AcDbArc
 50
90.0
 51
135.0
  0
ENDSEC
  0
SECTION
  2
OBJECTS
  0
DICTIONARY
  5
C
330
0
100
AcDbDictionary
281
     1
  3
ACAD_GROUP
350
D
  3
ACAD_LAYOUT
350
1A
  3
ACAD_MLINESTYLE
350
17
  3
ACAD_PLOTSETTINGS
350
19
  3
ACAD_PLOTSTYLENAME
350
E
  0
DICTIONARY
  5
D
102
{ACAD_REACTORS
330
C
102
}
330
C
100
AcDbDictionary
281
     1
  0
DICTIONARY
  5
1A
102
{ACAD_REACTORS
330
C
102
}
330
C
100
AcDbDictionary
281
     1
  3
Layout1
350
1E
  3
Layout2
350
26
  3
Model
350
22
  0
DICTIONARY
  5
17
102
{ACAD_REACTORS
330
C
102
}
330
C
100
AcDbDictionary
281
     1
  3
Standard
350
18
  0
DICTIONARY
  5
19
102
{ACAD_REACTORS
330
C
102
}
330
C
100
AcDbDictionary
281
     1
  0
ACDBDICTIONARYWDFLT
  5
E
102
{ACAD_REACTORS
330
C
102
}
330
C
100
AcDbDictionary
281
     1
  3
Normal
350
F
100
AcDbDictionaryWithDefault
340
F
  0
LAYOUT
  5
1E
102
{ACAD_REACTORS
330
1A
102
}
330
1A
100
AcDbPlotSettings
  1

  2
none_device
  4

  6

 40
0.0
 41
0.0
 42
0.0
 43
0.0
 44
0.0
 45
0.0
 46
0.0
 47
0.0
 48
0.0
 49
0.0
140
0.0
141
0.0
142
1.0
143
1.0
 70
   688
 72
     0
 73
     0
 74
     5
  7

 75
    16
147
1.0
148
0.0
149
0.0
100
AcDbLayout
  1
Layout1
 70
     1
 71
     1
 10
0.0
 20
0.0
 11
420.0
 21
297.0
 12
0.0
 22
0.0
 32
0.0
 14
1.0000000000E+20
 24
1.0000000000E+20
 34
1.0000000000E+20
 15
-1.0000000000E+20
 25
-1.0000000000E+20
 35
-1.0000000000E+20
146
0.0
 13
0.0
 23
0.0
 33
0.0
 16
1.0
 26
0.0
 36
0.0
 17
0.0
 27
1.0
 37
0.0
 76
     0
330
1B
  0
LAYOUT
  5
26
102
{ACAD_REACTORS
330
1A
102
}
330
1A
100
AcDbPlotSettings
  1

  2
none_device
  4

  6

 40
0.0
 41
0.0
 42
0.0
 43
0.0
 44
0.0
 45
0.0
 46
0.0
 47
0.0
 48
0.0
 49
0.0
140
0.0
141
0.0
142
1.0
143
1.0
 70
   688
 72
     0
 73
     0
 74
     5
  7

 75
    16
147
1.0
148
0.0
149
0.0
100
AcDbLayout
  1
Layout2
 70
     1
 71
     2
 10
0.0
 20
0.0
 11
0.0
 21
0.0
 12
0.0
 22
0.0
 32
0.0
 14
0.0
 24
0.0
 34
0.0
 15
0.0
 25
0.0
 35
0.0
146
0.0
 13
0.0
 23
0.0
 33
0.0
 16
1.0
 26
0.0
 36
0.0
 17
0.0
 27
1.0
 37
0.0
 76
     0
330
23
  0
LAYOUT
  5
22
102
{ACAD_REACTORS
330
1A
102
}
330
1A
100
AcDbPlotSettings
  1

  2
none_device
  4
ANSI_A_(11.00_x_8.50_Inches)
  6

 40
6.35
 41
19.05
 42
6.35000508
 43
19.05000254
 44
279.4
 45
215.9
 46
147.7407298484
 47
91.4522915403
 48
0.0
 49
0.0
140
0.0
141
0.0
142
0.023251695
143
1.0
 70
  1696
 72
     0
 73
     0
 74
     0
  7

 75
     0
147
0.0179189148
148
0.0
149
0.0
100
AcDbLayout
  1
Model
 70
     1
 71
     0
 10
0.0
 20
0.0
 11
420.0
 21
297.0
 12
0.0
 22
0.0
 32
0.0
 14
-103.2737388221
 24
-185.2761260846
 34
0.0
 15
54.540580401
 25
176.6329739154
 35
0.0
146
0.0
 13
0.0
 23
0.0
 33
0.0
 16
1.0
 26
0.0
 36
0.0
 17
0.0
 27
1.0
 37
0.0
 76
     0
330
1F
331
29
  0
MLINESTYLE
  5
18
102
{ACAD_REACTORS
330
17
102
}
330
17
100
AcDbMlineStyle
  2
Standard
 70
     0
  3

 62
   256
 51
90.0
 52
90.0
 71
     2
 49
0.5
 62
   256
  6
BYLAYER
 49
-0.5
 62
   256
  6
BYLAYER
  0
ACDBPLACEHOLDER
  5
F
102
{ACAD_REACTORS
330
E
102
}
330
E
  0
ENDSEC
  0
EOF
