ISO-10303-21;
HEADER;
/* Generated by software containing ST-Developer
 * from STEP Tools, Inc. (www.steptools.com) 
 */

FILE_DESCRIPTION(
/* description */ (''),
/* implementation_level */ '2;1');

FILE_NAME(
/* name */ 
'C:\\Users\\Eddie the Computer\\Documents\\Course\\Third Year\\FYP\\3D
 Printing\\STEP Files\\Azimuth Potentiometer Holder Outer.stp',
/* time_stamp */ '2018-04-22T20:06:45+01:00',
/* author */ ('Eddie the Computer'),
/* organization */ (''),
/* preprocessor_version */ 'ST-DEVELOPER v15.2',
/* originating_system */ 'Autodesk Inventor 2014',
/* authorisation */ '');

FILE_SCHEMA (('AUTOMOTIVE_DESIGN { 1 0 10303 214 3 1 1 }'));
ENDSEC;

DATA;
#10=SHAPE_REPRESENTATION_RELATIONSHIP('SRR','None',#553,#11);
#11=ADVANCED_BREP_SHAPE_REPRESENTATION($,(#300),#544);
#12=STYLED_ITEM($,(#561),#300);
#13=LINE($,#501,#25);
#14=LINE($,#504,#26);
#15=LINE($,#507,#27);
#16=LINE($,#509,#28);
#17=LINE($,#510,#29);
#18=LINE($,#513,#30);
#19=LINE($,#517,#31);
#20=LINE($,#521,#32);
#21=LINE($,#525,#33);
#22=LINE($,#526,#34);
#23=LINE($,#529,#35);
#24=LINE($,#532,#36);
#25=VECTOR($,#385,2.);
#26=VECTOR($,#388,2.);
#27=VECTOR($,#391,39.2153903091735);
#28=VECTOR($,#392,2.);
#29=VECTOR($,#393,39.2153903091735);
#30=VECTOR($,#396,39.2153903091735);
#31=VECTOR($,#399,39.2153903091735);
#32=VECTOR($,#404,2.);
#33=VECTOR($,#409,2.);
#34=VECTOR($,#410,39.2153903091735);
#35=VECTOR($,#413,2.);
#36=VECTOR($,#418,39.2153903091735);
#37=PLANE($,#310);
#38=PLANE($,#324);
#39=PLANE($,#325);
#40=PLANE($,#330);
#41=PLANE($,#333);
#42=PLANE($,#340);
#43=CYLINDRICAL_SURFACE($,#308,16.);
#44=CYLINDRICAL_SURFACE($,#312,2.);
#45=CYLINDRICAL_SURFACE($,#315,2.);
#46=CYLINDRICAL_SURFACE($,#318,2.);
#47=CYLINDRICAL_SURFACE($,#321,6.);
#48=CYLINDRICAL_SURFACE($,#328,6.);
#49=CYLINDRICAL_SURFACE($,#331,6.);
#50=CYLINDRICAL_SURFACE($,#337,14.);
#51=CYLINDRICAL_SURFACE($,#339,11.5);
#52=FACE_BOUND($,#91,.T.);
#53=FACE_BOUND($,#93,.T.);
#54=FACE_BOUND($,#94,.T.);
#55=FACE_BOUND($,#95,.T.);
#56=FACE_BOUND($,#97,.T.);
#57=FACE_BOUND($,#99,.T.);
#58=FACE_BOUND($,#101,.T.);
#59=FACE_BOUND($,#104,.T.);
#60=FACE_BOUND($,#105,.T.);
#61=FACE_BOUND($,#106,.T.);
#62=FACE_BOUND($,#107,.T.);
#63=FACE_BOUND($,#108,.T.);
#64=FACE_BOUND($,#114,.T.);
#65=FACE_BOUND($,#116,.T.);
#66=FACE_BOUND($,#118,.T.);
#67=FACE_BOUND($,#119,.T.);
#68=FACE_BOUND($,#120,.T.);
#69=FACE_BOUND($,#121,.T.);
#70=FACE_BOUND($,#122,.T.);
#71=FACE_BOUND($,#123,.T.);
#72=CONICAL_SURFACE($,#306,15.,5.71059313749964);
#73=CONICAL_SURFACE($,#334,12.75,22.6198649480404);
#74=FACE_OUTER_BOUND($,#89,.T.);
#75=FACE_OUTER_BOUND($,#90,.T.);
#76=FACE_OUTER_BOUND($,#92,.T.);
#77=FACE_OUTER_BOUND($,#96,.T.);
#78=FACE_OUTER_BOUND($,#98,.T.);
#79=FACE_OUTER_BOUND($,#100,.T.);
#80=FACE_OUTER_BOUND($,#102,.T.);
#81=FACE_OUTER_BOUND($,#103,.T.);
#82=FACE_OUTER_BOUND($,#109,.T.);
#83=FACE_OUTER_BOUND($,#110,.T.);
#84=FACE_OUTER_BOUND($,#111,.T.);
#85=FACE_OUTER_BOUND($,#112,.T.);
#86=FACE_OUTER_BOUND($,#113,.T.);
#87=FACE_OUTER_BOUND($,#115,.T.);
#88=FACE_OUTER_BOUND($,#117,.T.);
#89=EDGE_LOOP($,(#210,#211,#212,#213,#214,#215));
#90=EDGE_LOOP($,(#216));
#91=EDGE_LOOP($,(#217,#218));
#92=EDGE_LOOP($,(#219));
#93=EDGE_LOOP($,(#220,#221));
#94=EDGE_LOOP($,(#222));
#95=EDGE_LOOP($,(#223));
#96=EDGE_LOOP($,(#224));
#97=EDGE_LOOP($,(#225));
#98=EDGE_LOOP($,(#226));
#99=EDGE_LOOP($,(#227));
#100=EDGE_LOOP($,(#228));
#101=EDGE_LOOP($,(#229));
#102=EDGE_LOOP($,(#230,#231,#232,#233));
#103=EDGE_LOOP($,(#234,#235,#236,#237));
#104=EDGE_LOOP($,(#238));
#105=EDGE_LOOP($,(#239));
#106=EDGE_LOOP($,(#240));
#107=EDGE_LOOP($,(#241,#242,#243,#244,#245,#246));
#108=EDGE_LOOP($,(#247));
#109=EDGE_LOOP($,(#248,#249,#250,#251));
#110=EDGE_LOOP($,(#252,#253,#254,#255));
#111=EDGE_LOOP($,(#256,#257,#258,#259));
#112=EDGE_LOOP($,(#260,#261,#262,#263));
#113=EDGE_LOOP($,(#264));
#114=EDGE_LOOP($,(#265));
#115=EDGE_LOOP($,(#266));
#116=EDGE_LOOP($,(#267));
#117=EDGE_LOOP($,(#268));
#118=EDGE_LOOP($,(#269));
#119=EDGE_LOOP($,(#270));
#120=EDGE_LOOP($,(#271));
#121=EDGE_LOOP($,(#272));
#122=EDGE_LOOP($,(#273,#274,#275,#276,#277,#278));
#123=EDGE_LOOP($,(#279));
#124=(
BOUNDED_CURVE()
B_SPLINE_CURVE(2,(#465,#466,#467),.UNSPECIFIED.,.F.,.F.)
B_SPLINE_CURVE_WITH_KNOTS((3,3),(-0.099668652491162,0.),.UNSPECIFIED.)
CURVE()
GEOMETRIC_REPRESENTATION_ITEM()
RATIONAL_B_SPLINE_CURVE((1.,0.99875852692469,1.))
REPRESENTATION_ITEM($)
);
#125=CIRCLE($,#302,15.0074380419979);
#126=CIRCLE($,#303,16.);
#127=CIRCLE($,#304,16.);
#128=CIRCLE($,#305,15.0074380419979);
#129=CIRCLE($,#307,14.);
#130=CIRCLE($,#309,16.);
#131=CIRCLE($,#311,11.5);
#132=CIRCLE($,#313,2.);
#133=CIRCLE($,#314,2.);
#134=CIRCLE($,#316,2.);
#135=CIRCLE($,#317,2.);
#136=CIRCLE($,#319,2.);
#137=CIRCLE($,#320,2.);
#138=CIRCLE($,#322,6.);
#139=CIRCLE($,#323,6.);
#140=CIRCLE($,#326,6.);
#141=CIRCLE($,#327,6.);
#142=CIRCLE($,#329,6.);
#143=CIRCLE($,#332,6.);
#144=CIRCLE($,#335,14.);
#145=CIRCLE($,#336,11.5);
#146=CIRCLE($,#338,14.);
#147=VERTEX_POINT($,#461);
#148=VERTEX_POINT($,#462);
#149=VERTEX_POINT($,#464);
#150=VERTEX_POINT($,#468);
#151=VERTEX_POINT($,#473);
#152=VERTEX_POINT($,#476);
#153=VERTEX_POINT($,#479);
#154=VERTEX_POINT($,#482);
#155=VERTEX_POINT($,#484);
#156=VERTEX_POINT($,#487);
#157=VERTEX_POINT($,#489);
#158=VERTEX_POINT($,#492);
#159=VERTEX_POINT($,#494);
#160=VERTEX_POINT($,#497);
#161=VERTEX_POINT($,#498);
#162=VERTEX_POINT($,#500);
#163=VERTEX_POINT($,#502);
#164=VERTEX_POINT($,#506);
#165=VERTEX_POINT($,#508);
#166=VERTEX_POINT($,#512);
#167=VERTEX_POINT($,#514);
#168=VERTEX_POINT($,#516);
#169=VERTEX_POINT($,#520);
#170=VERTEX_POINT($,#524);
#171=VERTEX_POINT($,#528);
#172=VERTEX_POINT($,#534);
#173=VERTEX_POINT($,#536);
#174=VERTEX_POINT($,#539);
#175=EDGE_CURVE($,#147,#148,#125,.T.);
#176=EDGE_CURVE($,#148,#149,#124,.T.);
#177=EDGE_CURVE($,#149,#150,#126,.T.);
#178=EDGE_CURVE($,#150,#149,#127,.T.);
#179=EDGE_CURVE($,#148,#147,#128,.T.);
#180=EDGE_CURVE($,#151,#151,#129,.T.);
#181=EDGE_CURVE($,#152,#152,#130,.T.);
#182=EDGE_CURVE($,#153,#153,#131,.T.);
#183=EDGE_CURVE($,#154,#154,#132,.T.);
#184=EDGE_CURVE($,#155,#155,#133,.T.);
#185=EDGE_CURVE($,#156,#156,#134,.T.);
#186=EDGE_CURVE($,#157,#157,#135,.T.);
#187=EDGE_CURVE($,#158,#158,#136,.T.);
#188=EDGE_CURVE($,#159,#159,#137,.T.);
#189=EDGE_CURVE($,#160,#161,#138,.T.);
#190=EDGE_CURVE($,#161,#162,#13,.T.);
#191=EDGE_CURVE($,#162,#163,#139,.T.);
#192=EDGE_CURVE($,#163,#160,#14,.T.);
#193=EDGE_CURVE($,#164,#161,#15,.T.);
#194=EDGE_CURVE($,#165,#164,#16,.T.);
#195=EDGE_CURVE($,#165,#162,#17,.T.);
#196=EDGE_CURVE($,#160,#166,#18,.T.);
#197=EDGE_CURVE($,#167,#166,#140,.T.);
#198=EDGE_CURVE($,#167,#168,#19,.T.);
#199=EDGE_CURVE($,#164,#168,#141,.T.);
#200=EDGE_CURVE($,#168,#169,#20,.T.);
#201=EDGE_CURVE($,#169,#165,#142,.T.);
#202=EDGE_CURVE($,#170,#167,#21,.T.);
#203=EDGE_CURVE($,#170,#169,#22,.T.);
#204=EDGE_CURVE($,#166,#171,#23,.T.);
#205=EDGE_CURVE($,#171,#170,#143,.T.);
#206=EDGE_CURVE($,#163,#171,#24,.T.);
#207=EDGE_CURVE($,#172,#172,#144,.T.);
#208=EDGE_CURVE($,#173,#173,#145,.T.);
#209=EDGE_CURVE($,#174,#174,#146,.T.);
#210=ORIENTED_EDGE($,*,*,#175,.T.);
#211=ORIENTED_EDGE($,*,*,#176,.T.);
#212=ORIENTED_EDGE($,*,*,#177,.T.);
#213=ORIENTED_EDGE($,*,*,#178,.T.);
#214=ORIENTED_EDGE($,*,*,#176,.F.);
#215=ORIENTED_EDGE($,*,*,#179,.T.);
#216=ORIENTED_EDGE($,*,*,#180,.T.);
#217=ORIENTED_EDGE($,*,*,#175,.F.);
#218=ORIENTED_EDGE($,*,*,#179,.F.);
#219=ORIENTED_EDGE($,*,*,#181,.T.);
#220=ORIENTED_EDGE($,*,*,#178,.F.);
#221=ORIENTED_EDGE($,*,*,#177,.F.);
#222=ORIENTED_EDGE($,*,*,#182,.T.);
#223=ORIENTED_EDGE($,*,*,#180,.F.);
#224=ORIENTED_EDGE($,*,*,#183,.F.);
#225=ORIENTED_EDGE($,*,*,#184,.F.);
#226=ORIENTED_EDGE($,*,*,#185,.F.);
#227=ORIENTED_EDGE($,*,*,#186,.F.);
#228=ORIENTED_EDGE($,*,*,#187,.F.);
#229=ORIENTED_EDGE($,*,*,#188,.F.);
#230=ORIENTED_EDGE($,*,*,#189,.T.);
#231=ORIENTED_EDGE($,*,*,#190,.T.);
#232=ORIENTED_EDGE($,*,*,#191,.T.);
#233=ORIENTED_EDGE($,*,*,#192,.T.);
#234=ORIENTED_EDGE($,*,*,#190,.F.);
#235=ORIENTED_EDGE($,*,*,#193,.F.);
#236=ORIENTED_EDGE($,*,*,#194,.F.);
#237=ORIENTED_EDGE($,*,*,#195,.T.);
#238=ORIENTED_EDGE($,*,*,#184,.T.);
#239=ORIENTED_EDGE($,*,*,#186,.T.);
#240=ORIENTED_EDGE($,*,*,#188,.T.);
#241=ORIENTED_EDGE($,*,*,#189,.F.);
#242=ORIENTED_EDGE($,*,*,#196,.T.);
#243=ORIENTED_EDGE($,*,*,#197,.F.);
#244=ORIENTED_EDGE($,*,*,#198,.T.);
#245=ORIENTED_EDGE($,*,*,#199,.F.);
#246=ORIENTED_EDGE($,*,*,#193,.T.);
#247=ORIENTED_EDGE($,*,*,#181,.F.);
#248=ORIENTED_EDGE($,*,*,#199,.T.);
#249=ORIENTED_EDGE($,*,*,#200,.T.);
#250=ORIENTED_EDGE($,*,*,#201,.T.);
#251=ORIENTED_EDGE($,*,*,#194,.T.);
#252=ORIENTED_EDGE($,*,*,#200,.F.);
#253=ORIENTED_EDGE($,*,*,#198,.F.);
#254=ORIENTED_EDGE($,*,*,#202,.F.);
#255=ORIENTED_EDGE($,*,*,#203,.T.);
#256=ORIENTED_EDGE($,*,*,#197,.T.);
#257=ORIENTED_EDGE($,*,*,#204,.T.);
#258=ORIENTED_EDGE($,*,*,#205,.T.);
#259=ORIENTED_EDGE($,*,*,#202,.T.);
#260=ORIENTED_EDGE($,*,*,#192,.F.);
#261=ORIENTED_EDGE($,*,*,#206,.T.);
#262=ORIENTED_EDGE($,*,*,#204,.F.);
#263=ORIENTED_EDGE($,*,*,#196,.F.);
#264=ORIENTED_EDGE($,*,*,#207,.T.);
#265=ORIENTED_EDGE($,*,*,#208,.T.);
#266=ORIENTED_EDGE($,*,*,#209,.F.);
#267=ORIENTED_EDGE($,*,*,#207,.F.);
#268=ORIENTED_EDGE($,*,*,#182,.F.);
#269=ORIENTED_EDGE($,*,*,#208,.F.);
#270=ORIENTED_EDGE($,*,*,#183,.T.);
#271=ORIENTED_EDGE($,*,*,#185,.T.);
#272=ORIENTED_EDGE($,*,*,#187,.T.);
#273=ORIENTED_EDGE($,*,*,#191,.F.);
#274=ORIENTED_EDGE($,*,*,#195,.F.);
#275=ORIENTED_EDGE($,*,*,#201,.F.);
#276=ORIENTED_EDGE($,*,*,#203,.F.);
#277=ORIENTED_EDGE($,*,*,#205,.F.);
#278=ORIENTED_EDGE($,*,*,#206,.F.);
#279=ORIENTED_EDGE($,*,*,#209,.T.);
#280=(
BOUNDED_SURFACE()
B_SPLINE_SURFACE(2,2,((#434,#435,#436,#437,#438,#439,#440,#441,#442),(#443,
#444,#445,#446,#447,#448,#449,#450,#451),(#452,#453,#454,#455,#456,#457,
#458,#459,#460)),.UNSPECIFIED.,.F.,.T.,.F.)
B_SPLINE_SURFACE_WITH_KNOTS((3,3),(3,2,2,2,3),(0.,0.099668652491162),(-3.14159265358979,
-1.5707963267949,0.,1.5707963267949,3.14159265358979),.UNSPECIFIED.)
GEOMETRIC_REPRESENTATION_ITEM()
RATIONAL_B_SPLINE_SURFACE(((1.,0.707106781186548,1.,0.707106781186548,1.,
0.707106781186548,1.,0.707106781186548,1.),(0.99875852692469,0.706228927156336,
0.99875852692469,0.706228927156336,0.99875852692469,0.706228927156336,0.99875852692469,
0.706228927156336,0.99875852692469),(1.,0.707106781186548,1.,0.707106781186548,
1.,0.707106781186548,1.,0.707106781186548,1.)))
REPRESENTATION_ITEM($)
SURFACE()
);
#281=ADVANCED_FACE($,(#74),#280,.F.);
#282=ADVANCED_FACE($,(#75,#52),#72,.T.);
#283=ADVANCED_FACE($,(#76,#53),#43,.T.);
#284=ADVANCED_FACE($,(#54,#55),#37,.T.);
#285=ADVANCED_FACE($,(#77,#56),#44,.F.);
#286=ADVANCED_FACE($,(#78,#57),#45,.F.);
#287=ADVANCED_FACE($,(#79,#58),#46,.F.);
#288=ADVANCED_FACE($,(#80),#47,.T.);
#289=ADVANCED_FACE($,(#81),#38,.T.);
#290=ADVANCED_FACE($,(#59,#60,#61,#62,#63),#39,.T.);
#291=ADVANCED_FACE($,(#82),#48,.T.);
#292=ADVANCED_FACE($,(#83),#40,.T.);
#293=ADVANCED_FACE($,(#84),#49,.T.);
#294=ADVANCED_FACE($,(#85),#41,.T.);
#295=ADVANCED_FACE($,(#86,#64),#73,.F.);
#296=ADVANCED_FACE($,(#87,#65),#50,.F.);
#297=ADVANCED_FACE($,(#88,#66),#51,.F.);
#298=ADVANCED_FACE($,(#67,#68,#69,#70,#71),#42,.F.);
#299=CLOSED_SHELL($,(#281,#282,#283,#284,#285,#286,#287,#288,#289,#290,
#291,#292,#293,#294,#295,#296,#297,#298));
#300=MANIFOLD_SOLID_BREP('Solid1',#299);
#301=AXIS2_PLACEMENT_3D('placement',#433,#341,#342);
#302=AXIS2_PLACEMENT_3D($,#463,#343,#344);
#303=AXIS2_PLACEMENT_3D($,#469,#345,#346);
#304=AXIS2_PLACEMENT_3D($,#470,#347,#348);
#305=AXIS2_PLACEMENT_3D($,#471,#349,#350);
#306=AXIS2_PLACEMENT_3D($,#472,#351,#352);
#307=AXIS2_PLACEMENT_3D($,#474,#353,#354);
#308=AXIS2_PLACEMENT_3D($,#475,#355,#356);
#309=AXIS2_PLACEMENT_3D($,#477,#357,#358);
#310=AXIS2_PLACEMENT_3D($,#478,#359,#360);
#311=AXIS2_PLACEMENT_3D($,#480,#361,#362);
#312=AXIS2_PLACEMENT_3D($,#481,#363,#364);
#313=AXIS2_PLACEMENT_3D($,#483,#365,#366);
#314=AXIS2_PLACEMENT_3D($,#485,#367,#368);
#315=AXIS2_PLACEMENT_3D($,#486,#369,#370);
#316=AXIS2_PLACEMENT_3D($,#488,#371,#372);
#317=AXIS2_PLACEMENT_3D($,#490,#373,#374);
#318=AXIS2_PLACEMENT_3D($,#491,#375,#376);
#319=AXIS2_PLACEMENT_3D($,#493,#377,#378);
#320=AXIS2_PLACEMENT_3D($,#495,#379,#380);
#321=AXIS2_PLACEMENT_3D($,#496,#381,#382);
#322=AXIS2_PLACEMENT_3D($,#499,#383,#384);
#323=AXIS2_PLACEMENT_3D($,#503,#386,#387);
#324=AXIS2_PLACEMENT_3D($,#505,#389,#390);
#325=AXIS2_PLACEMENT_3D($,#511,#394,#395);
#326=AXIS2_PLACEMENT_3D($,#515,#397,#398);
#327=AXIS2_PLACEMENT_3D($,#518,#400,#401);
#328=AXIS2_PLACEMENT_3D($,#519,#402,#403);
#329=AXIS2_PLACEMENT_3D($,#522,#405,#406);
#330=AXIS2_PLACEMENT_3D($,#523,#407,#408);
#331=AXIS2_PLACEMENT_3D($,#527,#411,#412);
#332=AXIS2_PLACEMENT_3D($,#530,#414,#415);
#333=AXIS2_PLACEMENT_3D($,#531,#416,#417);
#334=AXIS2_PLACEMENT_3D($,#533,#419,#420);
#335=AXIS2_PLACEMENT_3D($,#535,#421,#422);
#336=AXIS2_PLACEMENT_3D($,#537,#423,#424);
#337=AXIS2_PLACEMENT_3D($,#538,#425,#426);
#338=AXIS2_PLACEMENT_3D($,#540,#427,#428);
#339=AXIS2_PLACEMENT_3D($,#541,#429,#430);
#340=AXIS2_PLACEMENT_3D($,#542,#431,#432);
#341=DIRECTION('axis',(0.,0.,1.));
#342=DIRECTION('refdir',(1.,0.,0.));
#343=DIRECTION('center_axis',(0.,-1.,0.));
#344=DIRECTION('ref_axis',(-1.,0.,0.));
#345=DIRECTION('center_axis',(0.,1.,0.));
#346=DIRECTION('ref_axis',(-1.,0.,0.));
#347=DIRECTION('center_axis',(0.,1.,0.));
#348=DIRECTION('ref_axis',(-1.,0.,0.));
#349=DIRECTION('center_axis',(0.,-1.,0.));
#350=DIRECTION('ref_axis',(-1.,0.,0.));
#351=DIRECTION('center_axis',(0.,-1.,0.));
#352=DIRECTION('ref_axis',(-1.,0.,0.));
#353=DIRECTION('center_axis',(0.,-1.,0.));
#354=DIRECTION('ref_axis',(-1.,0.,0.));
#355=DIRECTION('center_axis',(0.,1.,0.));
#356=DIRECTION('ref_axis',(1.,0.,0.));
#357=DIRECTION('center_axis',(0.,1.,0.));
#358=DIRECTION('ref_axis',(1.,0.,0.));
#359=DIRECTION('center_axis',(0.,1.,0.));
#360=DIRECTION('ref_axis',(0.,0.,1.));
#361=DIRECTION('center_axis',(0.,-1.,0.));
#362=DIRECTION('ref_axis',(-1.,0.,0.));
#363=DIRECTION('center_axis',(0.,-1.,0.));
#364=DIRECTION('ref_axis',(-1.,0.,0.));
#365=DIRECTION('center_axis',(0.,1.,0.));
#366=DIRECTION('ref_axis',(-1.,0.,0.));
#367=DIRECTION('center_axis',(0.,-1.,0.));
#368=DIRECTION('ref_axis',(-1.,0.,0.));
#369=DIRECTION('center_axis',(0.,-1.,0.));
#370=DIRECTION('ref_axis',(-1.,0.,0.));
#371=DIRECTION('center_axis',(0.,1.,0.));
#372=DIRECTION('ref_axis',(-1.,0.,0.));
#373=DIRECTION('center_axis',(0.,-1.,0.));
#374=DIRECTION('ref_axis',(-1.,0.,0.));
#375=DIRECTION('center_axis',(0.,-1.,0.));
#376=DIRECTION('ref_axis',(-1.,0.,0.));
#377=DIRECTION('center_axis',(0.,1.,0.));
#378=DIRECTION('ref_axis',(-1.,0.,0.));
#379=DIRECTION('center_axis',(0.,-1.,0.));
#380=DIRECTION('ref_axis',(-1.,0.,0.));
#381=DIRECTION('center_axis',(0.,1.,0.));
#382=DIRECTION('ref_axis',(-0.5,0.,0.866025403784438));
#383=DIRECTION('center_axis',(0.,-1.,0.));
#384=DIRECTION('ref_axis',(-0.5,0.,0.866025403784438));
#385=DIRECTION($,(0.,-1.,0.));
#386=DIRECTION('center_axis',(0.,1.,0.));
#387=DIRECTION('ref_axis',(-0.5,0.,0.866025403784438));
#388=DIRECTION($,(0.,1.,0.));
#389=DIRECTION('center_axis',(-1.,0.,-3.70074341541719E-016));
#390=DIRECTION('ref_axis',(-3.5527136788005E-016,0.,1.));
#391=DIRECTION($,(-3.70074341541719E-016,0.,1.));
#392=DIRECTION($,(0.,1.,0.));
#393=DIRECTION($,(-3.70074341541719E-016,0.,1.));
#394=DIRECTION('center_axis',(0.,1.,0.));
#395=DIRECTION('ref_axis',(0.,0.,1.));
#396=DIRECTION($,(0.866025403784439,0.,-0.5));
#397=DIRECTION('center_axis',(0.,-1.,0.));
#398=DIRECTION('ref_axis',(1.,0.,1.8503717077086E-016));
#399=DIRECTION($,(-0.866025403784438,0.,-0.5));
#400=DIRECTION('center_axis',(0.,-1.,0.));
#401=DIRECTION('ref_axis',(-0.5,0.,-0.866025403784439));
#402=DIRECTION('center_axis',(0.,1.,0.));
#403=DIRECTION('ref_axis',(-0.5,0.,-0.866025403784439));
#404=DIRECTION($,(0.,-1.,0.));
#405=DIRECTION('center_axis',(0.,1.,0.));
#406=DIRECTION('ref_axis',(-0.5,0.,-0.866025403784439));
#407=DIRECTION('center_axis',(0.5,0.,-0.866025403784439));
#408=DIRECTION('ref_axis',(-0.866025403784439,0.,-0.5));
#409=DIRECTION($,(0.,1.,0.));
#410=DIRECTION($,(-0.866025403784438,0.,-0.5));
#411=DIRECTION('center_axis',(0.,1.,0.));
#412=DIRECTION('ref_axis',(1.,0.,1.8503717077086E-016));
#413=DIRECTION($,(0.,-1.,0.));
#414=DIRECTION('center_axis',(0.,1.,0.));
#415=DIRECTION('ref_axis',(1.,0.,1.8503717077086E-016));
#416=DIRECTION('center_axis',(0.5,0.,0.866025403784439));
#417=DIRECTION('ref_axis',(0.866025403784439,0.,-0.5));
#418=DIRECTION($,(0.866025403784439,0.,-0.5));
#419=DIRECTION('center_axis',(0.,-1.,0.));
#420=DIRECTION('ref_axis',(1.,0.,0.));
#421=DIRECTION('center_axis',(0.,-1.,0.));
#422=DIRECTION('ref_axis',(1.,0.,0.));
#423=DIRECTION('center_axis',(0.,1.,0.));
#424=DIRECTION('ref_axis',(-1.,0.,0.));
#425=DIRECTION('center_axis',(0.,1.,0.));
#426=DIRECTION('ref_axis',(1.,0.,0.));
#427=DIRECTION('center_axis',(0.,1.,0.));
#428=DIRECTION('ref_axis',(1.,0.,0.));
#429=DIRECTION('center_axis',(0.,1.,0.));
#430=DIRECTION('ref_axis',(-1.,0.,0.));
#431=DIRECTION('center_axis',(0.,1.,0.));
#432=DIRECTION('ref_axis',(0.,0.,1.));
#433=CARTESIAN_POINT('',(0.,0.,0.));
#434=CARTESIAN_POINT('Ctrl Pts',(0.,25.0248757758224,-16.));
#435=CARTESIAN_POINT('Ctrl Pts',(-16.,25.0248757758224,-16.));
#436=CARTESIAN_POINT('Ctrl Pts',(-16.,25.0248757758224,0.));
#437=CARTESIAN_POINT('Ctrl Pts',(-16.,25.0248757758224,16.));
#438=CARTESIAN_POINT('Ctrl Pts',(0.,25.0248757758224,16.));
#439=CARTESIAN_POINT('Ctrl Pts',(16.,25.0248757758224,16.));
#440=CARTESIAN_POINT('Ctrl Pts',(16.,25.0248757758224,0.));
#441=CARTESIAN_POINT('Ctrl Pts',(16.,25.0248757758224,-16.));
#442=CARTESIAN_POINT('Ctrl Pts',(0.,25.0248757758224,-16.));
#443=CARTESIAN_POINT('Ctrl Pts',(0.,35.0000000000004,-16.));
#444=CARTESIAN_POINT('Ctrl Pts',(-16.,35.0000000000004,-16.));
#445=CARTESIAN_POINT('Ctrl Pts',(-16.,35.0000000000004,0.));
#446=CARTESIAN_POINT('Ctrl Pts',(-16.,35.0000000000004,16.));
#447=CARTESIAN_POINT('Ctrl Pts',(0.,35.0000000000004,16.));
#448=CARTESIAN_POINT('Ctrl Pts',(16.,35.0000000000004,16.));
#449=CARTESIAN_POINT('Ctrl Pts',(16.,35.0000000000004,0.));
#450=CARTESIAN_POINT('Ctrl Pts',(16.,35.0000000000004,-16.));
#451=CARTESIAN_POINT('Ctrl Pts',(0.,35.0000000000004,-16.));
#452=CARTESIAN_POINT('Ctrl Pts',(0.,44.9256195800221,-15.0074380419979));
#453=CARTESIAN_POINT('Ctrl Pts',(-15.0074380419979,44.9256195800221,-15.0074380419979));
#454=CARTESIAN_POINT('Ctrl Pts',(-15.0074380419979,44.9256195800221,0.));
#455=CARTESIAN_POINT('Ctrl Pts',(-15.0074380419979,44.9256195800221,15.0074380419979));
#456=CARTESIAN_POINT('Ctrl Pts',(0.,44.9256195800221,15.0074380419979));
#457=CARTESIAN_POINT('Ctrl Pts',(15.0074380419979,44.9256195800221,15.0074380419979));
#458=CARTESIAN_POINT('Ctrl Pts',(15.0074380419979,44.9256195800221,0.));
#459=CARTESIAN_POINT('Ctrl Pts',(15.0074380419979,44.9256195800221,-15.0074380419979));
#460=CARTESIAN_POINT('Ctrl Pts',(0.,44.9256195800221,-15.0074380419979));
#461=CARTESIAN_POINT('',(15.0074380419979,44.9256195800221,1.83788109615349E-015));
#462=CARTESIAN_POINT('',(0.,44.9256195800221,-15.0074380419979));
#463=CARTESIAN_POINT('Origin',(0.,44.9256195800221,0.));
#464=CARTESIAN_POINT('',(0.,25.0248757758224,-16.));
#465=CARTESIAN_POINT('Ctrl Pts',(0.,44.9256195800221,-15.0074380419979));
#466=CARTESIAN_POINT('Ctrl Pts',(0.,35.0000000000004,-16.));
#467=CARTESIAN_POINT('Ctrl Pts',(0.,25.0248757758224,-16.));
#468=CARTESIAN_POINT('',(16.,25.0248757758224,-1.95943487863577E-015));
#469=CARTESIAN_POINT('Origin',(0.,25.0248757758224,0.));
#470=CARTESIAN_POINT('Origin',(0.,25.0248757758224,0.));
#471=CARTESIAN_POINT('Origin',(0.,44.9256195800221,0.));
#472=CARTESIAN_POINT('Origin',(0.,45.,0.));
#473=CARTESIAN_POINT('',(14.,55.,1.71450551880629E-015));
#474=CARTESIAN_POINT('Origin',(0.,55.,0.));
#475=CARTESIAN_POINT('Origin',(0.,0.,0.));
#476=CARTESIAN_POINT('',(16.,2.,1.95943487863577E-015));
#477=CARTESIAN_POINT('Origin',(0.,2.,0.));
#478=CARTESIAN_POINT('Origin',(-1.08847209374061E-015,55.,0.));
#479=CARTESIAN_POINT('',(11.5,55.,-1.40834381901946E-015));
#480=CARTESIAN_POINT('Origin',(0.,55.,0.));
#481=CARTESIAN_POINT('Origin',(22.6410161513775,2.,0.));
#482=CARTESIAN_POINT('',(24.6410161513775,0.,-2.44929359829471E-016));
#483=CARTESIAN_POINT('Origin',(22.6410161513775,0.,0.));
#484=CARTESIAN_POINT('',(24.6410161513775,2.,-2.44929359829471E-016));
#485=CARTESIAN_POINT('Origin',(22.6410161513775,2.,0.));
#486=CARTESIAN_POINT('Origin',(-11.3205080756888,2.,19.6076951545867));
#487=CARTESIAN_POINT('',(-9.32050807568879,0.,19.6076951545867));
#488=CARTESIAN_POINT('Origin',(-11.3205080756888,0.,19.6076951545867));
#489=CARTESIAN_POINT('',(-9.32050807568879,2.,19.6076951545867));
#490=CARTESIAN_POINT('Origin',(-11.3205080756888,2.,19.6076951545867));
#491=CARTESIAN_POINT('Origin',(-11.3205080756888,2.,-19.6076951545867));
#492=CARTESIAN_POINT('',(-9.32050807568877,0.,-19.6076951545867));
#493=CARTESIAN_POINT('Origin',(-11.3205080756888,0.,-19.6076951545867));
#494=CARTESIAN_POINT('',(-9.32050807568877,2.,-19.6076951545867));
#495=CARTESIAN_POINT('Origin',(-11.3205080756888,2.,-19.6076951545867));
#496=CARTESIAN_POINT('Origin',(-11.3205080756888,0.,19.6076951545867));
#497=CARTESIAN_POINT('',(-8.32050807568879,2.,24.8038475772934));
#498=CARTESIAN_POINT('',(-17.3205080756888,2.,19.6076951545867));
#499=CARTESIAN_POINT('Origin',(-11.3205080756888,2.,19.6076951545867));
#500=CARTESIAN_POINT('',(-17.3205080756888,0.,19.6076951545867));
#501=CARTESIAN_POINT($,(-17.3205080756888,0.,19.6076951545867));
#502=CARTESIAN_POINT('',(-8.32050807568879,0.,24.8038475772934));
#503=CARTESIAN_POINT('Origin',(-11.3205080756888,0.,19.6076951545867));
#504=CARTESIAN_POINT($,(-8.32050807568879,0.,24.8038475772934));
#505=CARTESIAN_POINT('Origin',(-17.3205080756888,0.,-30.));
#506=CARTESIAN_POINT('',(-17.3205080756888,2.,-19.6076951545867));
#507=CARTESIAN_POINT($,(-17.3205080756888,2.,-30.));
#508=CARTESIAN_POINT('',(-17.3205080756888,0.,-19.6076951545867));
#509=CARTESIAN_POINT($,(-17.3205080756888,0.,-19.6076951545867));
#510=CARTESIAN_POINT($,(-17.3205080756888,0.,-30.));
#511=CARTESIAN_POINT('Origin',(0.,2.,-4.44089209850063E-015));
#512=CARTESIAN_POINT('',(25.6410161513775,2.,5.19615242270663));
#513=CARTESIAN_POINT($,(-17.3205080756888,2.,30.));
#514=CARTESIAN_POINT('',(25.6410161513775,2.,-5.19615242270663));
#515=CARTESIAN_POINT('Origin',(22.6410161513775,2.,0.));
#516=CARTESIAN_POINT('',(-8.32050807568877,2.,-24.8038475772934));
#517=CARTESIAN_POINT($,(34.6410161513775,2.,9.71445146547012E-016));
#518=CARTESIAN_POINT('Origin',(-11.3205080756888,2.,-19.6076951545867));
#519=CARTESIAN_POINT('Origin',(-11.3205080756888,0.,-19.6076951545867));
#520=CARTESIAN_POINT('',(-8.32050807568877,0.,-24.8038475772934));
#521=CARTESIAN_POINT($,(-8.32050807568877,0.,-24.8038475772934));
#522=CARTESIAN_POINT('Origin',(-11.3205080756888,0.,-19.6076951545867));
#523=CARTESIAN_POINT('Origin',(34.6410161513775,0.,9.71445146547012E-016));
#524=CARTESIAN_POINT('',(25.6410161513775,0.,-5.19615242270663));
#525=CARTESIAN_POINT($,(25.6410161513775,0.,-5.19615242270663));
#526=CARTESIAN_POINT($,(34.6410161513775,0.,9.71445146547012E-016));
#527=CARTESIAN_POINT('Origin',(22.6410161513775,0.,0.));
#528=CARTESIAN_POINT('',(25.6410161513775,0.,5.19615242270663));
#529=CARTESIAN_POINT($,(25.6410161513775,0.,5.19615242270664));
#530=CARTESIAN_POINT('Origin',(22.6410161513775,0.,0.));
#531=CARTESIAN_POINT('Origin',(-17.3205080756888,0.,30.));
#532=CARTESIAN_POINT($,(-17.3205080756888,0.,30.));
#533=CARTESIAN_POINT('Origin',(0.,38.,0.));
#534=CARTESIAN_POINT('',(-14.,35.,-1.71450551880629E-015));
#535=CARTESIAN_POINT('Origin',(0.,35.,0.));
#536=CARTESIAN_POINT('',(11.5,41.,-1.40834381901946E-015));
#537=CARTESIAN_POINT('Origin',(0.,41.,0.));
#538=CARTESIAN_POINT('Origin',(0.,0.,0.));
#539=CARTESIAN_POINT('',(-14.,0.,1.71450551880629E-015));
#540=CARTESIAN_POINT('Origin',(0.,0.,0.));
#541=CARTESIAN_POINT('Origin',(0.,41.,0.));
#542=CARTESIAN_POINT('Origin',(1.08847209374061E-015,0.,0.));
#543=UNCERTAINTY_MEASURE_WITH_UNIT(LENGTH_MEASURE(0.01),#545,
'DISTANCE_ACCURACY_VALUE',
'Maximum model space distance between geometric entities at asserted c
onnectivities');
#544=(
GEOMETRIC_REPRESENTATION_CONTEXT(3)
GLOBAL_UNCERTAINTY_ASSIGNED_CONTEXT((#543))
GLOBAL_UNIT_ASSIGNED_CONTEXT((#545,#548,#546))
REPRESENTATION_CONTEXT('','3D')
);
#545=(
LENGTH_UNIT()
NAMED_UNIT(*)
SI_UNIT(.MILLI.,.METRE.)
);
#546=(
NAMED_UNIT(*)
SI_UNIT($,.STERADIAN.)
SOLID_ANGLE_UNIT()
);
#547=DIMENSIONAL_EXPONENTS(0.,0.,0.,0.,0.,0.,0.);
#548=(
CONVERSION_BASED_UNIT('degree',#550)
NAMED_UNIT(#547)
PLANE_ANGLE_UNIT()
);
#549=(
NAMED_UNIT(*)
PLANE_ANGLE_UNIT()
SI_UNIT($,.RADIAN.)
);
#550=PLANE_ANGLE_MEASURE_WITH_UNIT(PLANE_ANGLE_MEASURE(0.01745329252),#549);
#551=SHAPE_DEFINITION_REPRESENTATION(#552,#553);
#552=PRODUCT_DEFINITION_SHAPE('',$,#555);
#553=SHAPE_REPRESENTATION('',(#301),#544);
#554=PRODUCT_DEFINITION_CONTEXT('3D Mechanical Parts',#558,'design');
#555=PRODUCT_DEFINITION('Top2','Top2',#556,#554);
#556=PRODUCT_DEFINITION_FORMATION('',$,#560);
#557=APPLICATION_PROTOCOL_DEFINITION('international standard',
'automotive_design',2009,#558);
#558=APPLICATION_CONTEXT(
'Core Data for Automotive Mechanical Design Process');
#559=PRODUCT_CONTEXT('3D Mechanical Parts',#558,'mechanical');
#560=PRODUCT('Top2','Top2',$,(#559));
#561=PRESENTATION_STYLE_ASSIGNMENT((#562));
#562=SURFACE_STYLE_USAGE(.BOTH.,#563);
#563=SURFACE_SIDE_STYLE($,(#564));
#564=SURFACE_STYLE_FILL_AREA(#565);
#565=FILL_AREA_STYLE($,(#566));
#566=FILL_AREA_STYLE_COLOUR($,#567);
#567=COLOUR_RGB('',0.749019607843137,0.749019607843137,0.749019607843137);
ENDSEC;
END-ISO-10303-21;
