  0
SECTION
  2
HEADER
  9
$ACADVER
  1
AC1018
  9
$ACADMAINTVER
 70
     0
  9
$DWGCODEPAGE
  3
ANSI_1252
  9
$INSBASE
 10
0.0
 20
0.0
 30
0.0
  9
$EXTMIN
 10
1.000000000000000E+20
 20
1.000000000000000E+20
 30
1.000000000000000E+20
  9
$EXTMAX
 10
-1.000000000000000E+20
 20
-1.000000000000000E+20
 30
-1.000000000000000E+20
  9
$LIMMIN
 10
0.0
 20
0.0
  9
$LIMMAX
 10
12.0
 20
9.0
  9
$ORTHOMODE
 70
     0
  9
$REGENMODE
 70
     1
  9
$FILLMODE
 70
     1
  9
$QTEXTMODE
 70
     0
  9
$MIRRTEXT
 70
     1
  9
$LTSCALE
 40
1.0
  9
$ATTMODE
 70
     1
  9
$TEXTSIZE
 40
0.2
  9
$TRACEWID
 40
0.05
  9
$TEXTSTYLE
  7
Standard
  9
$CLAYER
  8
0
  9
$CELTYPE
  6
ByLayer
  9
$CECOLOR
 62
   256
  9
$CELTSCALE
 40
1.0
  9
$DISPSILH
 70
     0
  9
$DIMSCALE
 40
1.0
  9
$DIMASZ
 40
0.18
  9
$DIMEXO
 40
0.0625
  9
$DIMDLI
 40
0.38
  9
$DIMRND
 40
0.0
  9
$DIMDLE
 40
0.0
  9
$DIMEXE
 40
0.18
  9
$DIMTP
 40
0.0
  9
$DIMTM
 40
0.0
  9
$DIMTXT
 40
0.18
  9
$DIMCEN
 40
0.09
  9
$DIMTSZ
 40
0.0
  9
$DIMTOL
 70
     0
  9
$DIMLIM
 70
     0
  9
$DIMTIH
 70
     1
  9
$DIMTOH
 70
     1
  9
$DIMSE1
 70
     0
  9
$DIMSE2
 70
     0
  9
$DIMTAD
 70
     0
  9
$DIMZIN
 70
     0
  9
$DIMBLK
  1

  9
$DIMASO
 70
     1
  9
$DIMSHO
 70
     1
  9
$DIMPOST
  1

  9
$DIMAPOST
  1

  9
$DIMALT
 70
     0
  9
$DIMALTD
 70
     2
  9
$DIMALTF
 40
25.4
  9
$DIMLFAC
 40
1.0
  9
$DIMTOFL
 70
     0
  9
$DIMTVP
 40
0.0
  9
$DIMTIX
 70
     0
  9
$DIMSOXD
 70
     0
  9
$DIMSAH
 70
     0
  9
$DIMBLK1
  1

  9
$DIMBLK2
  1

  9
$DIMSTYLE
  2
Standard
  9
$DIMCLRD
 70
     0
  9
$DIMCLRE
 70
     0
  9
$DIMCLRT
 70
     0
  9
$DIMTFAC
 40
1.0
  9
$DIMGAP
 40
0.09
  9
$DIMJUST
 70
     0
  9
$DIMSD1
 70
     0
  9
$DIMSD2
 70
     0
  9
$DIMTOLJ
 70
     1
  9
$DIMTZIN
 70
     0
  9
$DIMALTZ
 70
     0
  9
$DIMALTTZ
 70
     0
  9
$DIMUPT
 70
     0
  9
$DIMDEC
 70
     4
  9
$DIMTDEC
 70
     4
  9
$DIMALTU
 70
     2
  9
$DIMALTTD
 70
     2
  9
$DIMTXSTY
  7
Standard
  9
$DIMAUNIT
 70
     0
  9
$DIMADEC
 70
     0
  9
$DIMALTRND
 40
0.0
  9
$DIMAZIN
 70
     0
  9
$DIMDSEP
 70
    46
  9
$DIMATFIT
 70
     3
  9
$DIMFRAC
 70
     0
  9
$DIMLDRBLK
  1

  9
$DIMLUNIT
 70
     2
  9
$DIMLWD
 70
    -2
  9
$DIMLWE
 70
    -2
  9
$DIMTMOVE
 70
     0
  9
$LUNITS
 70
     2
  9
$LUPREC
 70
     4
  9
$SKETCHINC
 40
0.1
  9
$FILLETRAD
 40
0.5
  9
$AUNITS
 70
     0
  9
$AUPREC
 70
     0
  9
$MENU
  1
.
  9
$ELEVATION
 40
0.0
  9
$PELEVATION
 40
0.0
  9
$THICKNESS
 40
0.0
  9
$LIMCHECK
 70
     0
  9
$CHAMFERA
 40
0.5
  9
$CHAMFERB
 40
0.5
  9
$CHAMFERC
 40
1.0
  9
$CHAMFERD
 40
0.0
  9
$SKPOLY
 70
     0
  9
$TDCREATE
 40
2456030.648583889
  9
$TDUCREATE
 40
2456030.565250556
  9
$TDUPDATE
 40
2456030.648583901
  9
$TDUUPDATE
 40
2456030.565250567
  9
$TDINDWG
 40
0.0000000116
  9
$TDUSRTIMER
 40
0.0000000116
  9
$USRTIMER
 70
     1
  9
$ANGBASE
 50
0.0
  9
$ANGDIR
 70
     0
  9
$PDMODE
 70
     0
  9
$PDSIZE
 40
0.0
  9
$PLINEWID
 40
0.0
  9
$SPLFRAME
 70
     0
  9
$SPLINETYPE
 70
     6
  9
$SPLINESEGS
 70
     8
  9
$HANDSEED
  5
54
  9
$SURFTAB1
 70
     6
  9
$SURFTAB2
 70
     6
  9
$SURFTYPE
 70
     6
  9
$SURFU
 70
     6
  9
$SURFV
 70
     6
  9
$UCSBASE
  2

  9
$UCSNAME
  2

  9
$UCSORG
 10
0.0
 20
0.0
 30
0.0
  9
$UCSXDIR
 10
1.0
 20
0.0
 30
0.0
  9
$UCSYDIR
 10
0.0
 20
1.0
 30
0.0
  9
$UCSORTHOREF
  2

  9
$UCSORTHOVIEW
 70
     0
  9
$UCSORGTOP
 10
0.0
 20
0.0
 30
0.0
  9
$UCSORGBOTTOM
 10
0.0
 20
0.0
 30
0.0
  9
$UCSORGLEFT
 10
0.0
 20
0.0
 30
0.0
  9
$UCSORGRIGHT
 10
0.0
 20
0.0
 30
0.0
  9
$UCSORGFRONT
 10
0.0
 20
0.0
 30
0.0
  9
$UCSORGBACK
 10
0.0
 20
0.0
 30
0.0
  9
$PUCSBASE
  2

  9
$PUCSNAME
  2

  9
$PUCSORG
 10
0.0
 20
0.0
 30
0.0
  9
$PUCSXDIR
 10
1.0
 20
0.0
 30
0.0
  9
$PUCSYDIR
 10
0.0
 20
1.0
 30
0.0
  9
$PUCSORTHOREF
  2

  9
$PUCSORTHOVIEW
 70
     0
  9
$PUCSORGTOP
 10
0.0
 20
0.0
 30
0.0
  9
$PUCSORGBOTTOM
 10
0.0
 20
0.0
 30
0.0
  9
$PUCSORGLEFT
 10
0.0
 20
0.0
 30
0.0
  9
$PUCSORGRIGHT
 10
0.0
 20
0.0
 30
0.0
  9
$PUCSORGFRONT
 10
0.0
 20
0.0
 30
0.0
  9
$PUCSORGBACK
 10
0.0
 20
0.0
 30
0.0
  9
$USERI1
 70
     0
  9
$USERI2
 70
     0
  9
$USERI3
 70
     0
  9
$USERI4
 70
     0
  9
$USERI5
 70
     0
  9
$USERR1
 40
0.0
  9
$USERR2
 40
0.0
  9
$USERR3
 40
0.0
  9
$USERR4
 40
0.0
  9
$USERR5
 40
0.0
  9
$WORLDVIEW
 70
     1
  9
$SHADEDGE
 70
     3
  9
$SHADEDIF
 70
    70
  9
$TILEMODE
 70
     1
  9
$MAXACTVP
 70
    64
  9
$PINSBASE
 10
0.0
 20
0.0
 30
0.0
  9
$PLIMCHECK
 70
     0
  9
$PEXTMIN
 10
1.000000000000000E+20
 20
1.000000000000000E+20
 30
1.000000000000000E+20
  9
$PEXTMAX
 10
-1.000000000000000E+20
 20
-1.000000000000000E+20
 30
-1.000000000000000E+20
  9
$PLIMMIN
 10
0.0
 20
0.0
  9
$PLIMMAX
 10
12.0
 20
9.0
  9
$UNITMODE
 70
     0
  9
$VISRETAIN
 70
     1
  9
$PLINEGEN
 70
     0
  9
$PSLTSCALE
 70
     1
  9
$TREEDEPTH
 70
  3020
  9
$CMLSTYLE
  2
Standard
  9
$CMLJUST
 70
     0
  9
$CMLSCALE
 40
1.0
  9
$PROXYGRAPHICS
 70
     1
  9
$MEASUREMENT
 70
     0
  9
$CELWEIGHT
370
    -1
  9
$ENDCAPS
280
     0
  9
$JOINSTYLE
280
     0
  9
$LWDISPLAY
290
     1
  9
$INSUNITS
 70
     1
  9
$HYPERLINKBASE
  1

  9
$STYLESHEET
  1

  9
$XEDIT
290
     1
  9
$CEPSNTYPE
380
     0
  9
$PSTYLEMODE
290
     1
  9
$FINGERPRINTGUID
  2
{92494D01-A509-4DA4-BDC7-841137532520}
  9
$VERSIONGUID
  2
{FAEB1C32-E019-11D5-929B-00C0DF256EC4}
  9
$EXTNAMES
290
     1
  9
$PSVPSCALE
 40
0.0
  9
$OLESTARTUP
290
     0
  9
$SORTENTS
280
   127
  9
$INDEXCTL
280
     0
  9
$HIDETEXT
280
     1
  9
$XCLIPFRAME
290
     0
  9
$HALOGAP
280
     0
  9
$OBSCOLOR
 70
   257
  9
$OBSLTYPE
280
     0
  9
$INTERSECTIONDISPLAY
280
     0
  9
$INTERSECTIONCOLOR
 70
   257
  9
$DIMASSOC
280
     2
  9
$PROJECTNAME
  1

  0
ENDSEC
  0
SECTION
  2
CLASSES
  0
CLASS
  1
ACDBDICTIONARYWDFLT
  2
AcDbDictionaryWithDefault
  3
ObjectDBX Classes
 90
        0
 91
        3
280
     0
281
     0
  0
CLASS
  1
VISUALSTYLE
  2
AcDbVisualStyle
  3
ObjectDBX Classes
 90
     4095
 91
        3
280
     0
281
     0
  0
ENDSEC
  0
SECTION
  2
TABLES
  0
TABLE
  2
VPORT
  5
8
330
0
100
AcDbSymbolTable
 70
     1
  0
VPORT
  5
29
330
8
100
AcDbSymbolTableRecord
100
AcDbViewportTableRecord
  2
*Active
 70
     0
 10
0.0
 20
0.0
 11
1.0
 21
1.0
 12
0.0
 22
0.0
 13
0.0
 23
0.0
 14
0.5
 24
0.5
 15
0.5
 25
0.5
 16
0.0
 26
0.0
 36
1.0
 17
148.4999796178229
 27
-105.0008259828644
 37
0.0
 40
210.0016519657288
 41
1.414274394775308
 42
50.0
 43
0.0
 44
0.0
 50
0.0
 51
0.0
 71
     0
 72
   100
 73
     1
 74
     3
 75
     0
 76
     0
 77
     0
 78
     0
281
     0
 65
     1
110
0.0
120
0.0
130
0.0
111
1.0
121
0.0
131
0.0
112
0.0
122
1.0
132
0.0
 79
     0
146
0.0
  0
ENDTAB
  0
TABLE
  2
LTYPE
  5
5
330
0
100
AcDbSymbolTable
 70
     1
  0
LTYPE
  5
14
330
5
100
AcDbSymbolTableRecord
100
AcDbLinetypeTableRecord
  2
ByBlock
 70
     0
  3

 72
    65
 73
     0
 40
0.0
  0
LTYPE
  5
15
330
5
100
AcDbSymbolTableRecord
100
AcDbLinetypeTableRecord
  2
ByLayer
 70
     0
  3

 72
    65
 73
     0
 40
0.0
  0
LTYPE
  5
16
330
5
100
AcDbSymbolTableRecord
100
AcDbLinetypeTableRecord
  2
Continuous
 70
     0
  3
Solid line
 72
    65
 73
     0
 40
0.0
  0
ENDTAB
  0
TABLE
  2
LAYER
  5
2
330
0
100
AcDbSymbolTable
 70
    13
  0
LAYER
  5
10
330
2
100
AcDbSymbolTableRecord
100
AcDbLayerTableRecord
  2
0
 70
     0
 62
     7
  6
Continuous
370
    -3
390
F
  0
LAYER
  5
3B
330
2
100
AcDbSymbolTableRecord
100
AcDbLayerTableRecord
  2
Layer 1
 70
     0
 62
     7
  6
Continuous
370
    -3
390
F
  0
LAYER
  5
3F
330
2
100
AcDbSymbolTableRecord
100
AcDbLayerTableRecord
  2
Layer 12
 70
     0
 62
     7
  6
Continuous
370
    -3
390
F
  0
LAYER
  5
40
330
2
100
AcDbSymbolTableRecord
100
AcDbLayerTableRecord
  2
Layer 10
 70
     0
 62
     7
  6
Continuous
370
    -3
390
F
  0
LAYER
  5
42
330
2
100
AcDbSymbolTableRecord
100
AcDbLayerTableRecord
  2
Layer 11
 70
     0
 62
     7
  6
Continuous
370
    -3
390
F
  0
LAYER
  5
44
330
2
100
AcDbSymbolTableRecord
100
AcDbLayerTableRecord
  2
Layer 3
 70
     0
 62
     7
  6
Continuous
370
    -3
390
F
  0
LAYER
  5
45
330
2
100
AcDbSymbolTableRecord
100
AcDbLayerTableRecord
  2
Layer 4
 70
     0
 62
     7
  6
Continuous
370
    -3
390
F
  0
LAYER
  5
48
330
2
100
AcDbSymbolTableRecord
100
AcDbLayerTableRecord
  2
Layer 5
 70
     0
 62
     7
  6
Continuous
370
    -3
390
F
  0
LAYER
  5
4A
330
2
100
AcDbSymbolTableRecord
100
AcDbLayerTableRecord
  2
Layer 6
 70
     0
 62
     7
  6
Continuous
370
    -3
390
F
  0
LAYER
  5
4C
330
2
100
AcDbSymbolTableRecord
100
AcDbLayerTableRecord
  2
Layer 2
 70
     0
 62
     7
  6
Continuous
370
    -3
390
F
  0
LAYER
  5
4E
330
2
100
AcDbSymbolTableRecord
100
AcDbLayerTableRecord
  2
Layer 7
 70
     0
 62
     7
  6
Continuous
370
    -3
390
F
  0
LAYER
  5
50
330
2
100
AcDbSymbolTableRecord
100
AcDbLayerTableRecord
  2
Layer 8
 70
     0
 62
     7
  6
Continuous
370
    -3
390
F
  0
LAYER
  5
52
330
2
100
AcDbSymbolTableRecord
100
AcDbLayerTableRecord
  2
Layer 9
 70
     0
 62
     7
  6
Continuous
370
    -3
390
F
  0
ENDTAB
  0
TABLE
  2
STYLE
  5
3
330
0
100
AcDbSymbolTable
 70
     1
  0
STYLE
  5
11
330
3
100
AcDbSymbolTableRecord
100
AcDbTextStyleTableRecord
  2
Standard
 70
     0
 40
0.0
 41
1.0
 50
0.0
 71
     0
 42
0.2
  3
txt
  4

  0
ENDTAB
  0
TABLE
  2
VIEW
  5
6
330
0
100
AcDbSymbolTable
 70
     0
  0
ENDTAB
  0
TABLE
  2
UCS
  5
7
330
0
100
AcDbSymbolTable
 70
     0
  0
ENDTAB
  0
TABLE
  2
APPID
  5
9
330
0
100
AcDbSymbolTable
 70
     1
  0
APPID
  5
12
330
9
100
AcDbSymbolTableRecord
100
AcDbRegAppTableRecord
  2
ACAD
 70
     0
  0
ENDTAB
  0
TABLE
  2
DIMSTYLE
  5
A
330
0
100
AcDbSymbolTable
 70
     1
100
AcDbDimStyleTable
  0
DIMSTYLE
105
27
330
A
100
AcDbSymbolTableRecord
100
AcDbDimStyleTableRecord
  2
Standard
 70
     0
340
11
  0
ENDTAB
  0
TABLE
  2
BLOCK_RECORD
  5
1
330
0
100
AcDbSymbolTable
 70
     1
  0
BLOCK_RECORD
  5
1F
330
1
100
AcDbSymbolTableRecord
100
AcDbBlockTableRecord
  2
*Model_Space
340
22
  0
BLOCK_RECORD
  5
1B
330
1
100
AcDbSymbolTableRecord
100
AcDbBlockTableRecord
  2
*Paper_Space
340
1E
  0
BLOCK_RECORD
  5
23
330
1
100
AcDbSymbolTableRecord
100
AcDbBlockTableRecord
  2
*Paper_Space0
340
26
  0
ENDTAB
  0
ENDSEC
  0
SECTION
  2
BLOCKS
  0
BLOCK
  5
20
330
1F
100
AcDbEntity
  8
0
100
AcDbBlockBegin
  2
*Model_Space
 70
     0
 71
     0
 10
0.0
 20
0.0
 30
0.0
  3
*Model_Space
  1

  0
ENDBLK
  5
21
330
1F
100
AcDbEntity
  8
0
100
AcDbBlockEnd
  0
BLOCK
  5
1C
330
1B
100
AcDbEntity
 67
     1
  8
0
100
AcDbBlockBegin
  2
*Paper_Space
 70
     0
 71
     0
 10
0.0
 20
0.0
 30
0.0
  3
*Paper_Space
  1

  0
ENDBLK
  5
1D
330
1B
100
AcDbEntity
 67
     1
  8
0
100
AcDbBlockEnd
  0
BLOCK
  5
24
330
23
100
AcDbEntity
  8
0
100
AcDbBlockBegin
  2
*Paper_Space0
 70
     0
 71
     0
 10
0.0
 20
0.0
 30
0.0
  3
*Paper_Space0
  1

  0
ENDBLK
  5
25
330
23
100
AcDbEntity
  8
0
100
AcDbBlockEnd
  0
ENDSEC
  0
SECTION
  2
ENTITIES
  0
SPLINE
  5
3C
330
1F
100
AcDbEntity
  8
Layer 1
 62
   250
370
     9
100
AcDbSpline
210
0.0
220
0.0
230
1.0
 70
    11
 71
     3
 72
    17
 73
    13
 74
     0
 42
0.0000000001
 43
0.0000000001
 40
0.0
 40
0.0
 40
0.0
 40
0.0
 40
1.0
 40
1.0
 40
1.0
 40
2.0
 40
2.0
 40
2.0
 40
3.0
 40
3.0
 40
3.0
 40
4.0
 40
4.0
 40
4.0
 40
4.0
 10
72.20265568941461
 20
-58.35492213167863
 30
0.0
 10
72.20265568941461
 20
-60.59647350915644
 30
0.0
 10
70.2279269572694
 20
-62.41341686807721
 30
0.0
 10
67.79155543010073
 20
-62.41341686807721
 30
0.0
 10
65.35587292202909
 20
-62.41341686807721
 30
0.0
 10
63.38114418988388
 20
-60.59647350915644
 30
0.0
 10
63.38114418988388
 20
-58.35492213167863
 30
0.0
 10
63.38114418988388
 20
-56.11388751852361
 30
0.0
 10
65.35587292202909
 20
-54.29694415960285
 30
0.0
 10
67.79155543010073
 20
-54.29694415960285
 30
0.0
 10
70.2279269572694
 20
-54.29694415960285
 30
0.0
 10
72.20265568941461
 20
-56.11388751852361
 30
0.0
 10
72.20265568941461
 20
-58.35492213167863
 30
0.0
  0
SPLINE
  5
3D
330
1F
100
AcDbEntity
  8
Layer 1
 62
   250
370
     9
100
AcDbSpline
210
0.0
220
0.0
230
1.0
 70
    11
 71
     3
 72
    17
 73
    13
 74
     0
 42
0.0000000001
 43
0.0000000001
 40
0.0
 40
0.0
 40
0.0
 40
0.0
 40
1.0
 40
1.0
 40
1.0
 40
2.0
 40
2.0
 40
2.0
 40
3.0
 40
3.0
 40
3.0
 40
4.0
 40
4.0
 40
4.0
 40
4.0
 10
139.9964504315808
 20
-58.3550943864529
 30
0.0
 10
139.9964504315808
 20
-60.59647350915644
 30
0.0
 10
138.0217216994355
 20
-62.41341686807721
 30
0.0
 10
135.5853501722669
 20
-62.41341686807721
 30
0.0
 10
133.1496676641952
 20
-62.41341686807721
 30
0.0
 10
131.17493893205
 20
-60.59647350915644
 30
0.0
 10
131.17493893205
 20
-58.3550943864529
 30
0.0
 10
131.17493893205
 20
-56.11371526374935
 30
0.0
 10
133.1496676641952
 20
-54.29677190482859
 30
0.0
 10
135.5853501722669
 20
-54.29677190482859
 30
0.0
 10
138.0217216994355
 20
-54.29677190482859
 30
0.0
 10
139.9964504315808
 20
-56.11371526374935
 30
0.0
 10
139.9964504315808
 20
-58.3550943864529
 30
0.0
  0
SPLINE
  5
3E
330
1F
100
AcDbEntity
  8
Layer 1
 62
   250
370
     9
100
AcDbSpline
210
0.0
220
0.0
230
1.0
 70
    11
 71
     3
 72
    17
 73
    13
 74
     0
 42
0.0000000001
 43
0.0000000001
 40
0.0
 40
0.0
 40
0.0
 40
0.0
 40
1.0
 40
1.0
 40
1.0
 40
2.0
 40
2.0
 40
2.0
 40
3.0
 40
3.0
 40
3.0
 40
4.0
 40
4.0
 40
4.0
 40
4.0
 10
142.230422598991
 20
-103.7356146659064
 30
0.0
 10
142.230422598991
 20
-105.9769937886099
 30
0.0
 10
140.2556938668458
 20
-107.7939371475307
 30
0.0
 10
137.8193223396771
 20
-107.7939371475307
 30
0.0
 10
135.3836398316055
 20
-107.7939371475307
 30
0.0
 10
133.4089110994603
 20
-105.9769937886099
 30
0.0
 10
133.4089110994603
 20
-103.7356146659064
 30
0.0
 10
133.4089110994603
 20
-101.4942355432028
 30
0.0
 10
135.3836398316055
 20
-99.67729218428207
 30
0.0
 10
137.8193223396771
 20
-99.67729218428207
 30
0.0
 10
140.2556938668458
 20
-99.67729218428207
 30
0.0
 10
142.230422598991
 20
-101.4942355432028
 30
0.0
 10
142.230422598991
 20
-103.7356146659064
 30
0.0
  0
SPLINE
  5
41
330
1F
100
AcDbEntity
  8
Layer 10
 62
   250
370
     9
100
AcDbSpline
210
0.0
220
0.0
230
1.0
 70
    11
 71
     3
 72
   119
 73
   115
 74
     0
 42
0.0000000001
 43
0.0000000001
 40
0.0
 40
0.0
 40
0.0
 40
0.0
 40
1.0
 40
1.0
 40
1.0
 40
2.0
 40
2.0
 40
2.0
 40
3.0
 40
3.0
 40
3.0
 40
4.0
 40
4.0
 40
4.0
 40
5.0
 40
5.0
 40
5.0
 40
6.0
 40
6.0
 40
6.0
 40
7.0
 40
7.0
 40
7.0
 40
8.0
 40
8.0
 40
8.0
 40
9.0
 40
9.0
 40
9.0
 40
10.0
 40
10.0
 40
10.0
 40
11.0
 40
11.0
 40
11.0
 40
12.0
 40
12.0
 40
12.0
 40
13.0
 40
13.0
 40
13.0
 40
14.0
 40
14.0
 40
14.0
 40
15.0
 40
15.0
 40
15.0
 40
16.0
 40
16.0
 40
16.0
 40
17.0
 40
17.0
 40
17.0
 40
18.0
 40
18.0
 40
18.0
 40
19.0
 40
19.0
 40
19.0
 40
20.0
 40
20.0
 40
20.0
 40
21.0
 40
21.0
 40
21.0
 40
22.0
 40
22.0
 40
22.0
 40
23.0
 40
23.0
 40
23.0
 40
24.0
 40
24.0
 40
24.0
 40
25.0
 40
25.0
 40
25.0
 40
26.0
 40
26.0
 40
26.0
 40
27.0
 40
27.0
 40
27.0
 40
28.0
 40
28.0
 40
28.0
 40
29.0
 40
29.0
 40
29.0
 40
30.0
 40
30.0
 40
30.0
 40
31.0
 40
31.0
 40
31.0
 40
32.0
 40
32.0
 40
32.0
 40
33.0
 40
33.0
 40
33.0
 40
34.0
 40
34.0
 40
34.0
 40
35.0
 40
35.0
 40
35.0
 40
36.0
 40
36.0
 40
36.0
 40
37.0
 40
37.0
 40
37.0
 40
38.0
 40
38.0
 40
38.0
 40
38.0
 10
110.0163682450654
 20
-76.98151989177893
 30
0.0
 10
110.8592108555317
 20
-76.46062145440915
 30
0.0
 10
111.6033514803457
 20
-75.82810192331728
 30
0.0
 10
112.2487901195072
 20
-75.08396129850333
 30
0.0
 10
113.141758869284
 20
-73.99221053922764
 30
0.0
 10
113.6747151408522
 20
-72.66550426785793
 30
0.0
 10
113.8486924628573
 20
-71.1028089557486
 30
0.0
 10
113.6998643378945
 20
-68.79597301882532
 30
0.0
 10
112.6952744943956
 20
-66.8984144255497
 30
0.0
 10
110.8349229323607
 20
-65.41013317592177
 30
0.0
 10
109.941954182584
 20
-64.44275036366362
 30
0.0
 10
109.2098713919684
 20
-63.7489081329343
 30
0.0
 10
108.6397080891595
 20
-63.32653942644267
 30
0.0
 10
108.3169026421916
 20
-62.63269719571336
 30
0.0
 10
108.5773518608765
 20
-62.29783391454707
 30
0.0
 10
109.4210557452142
 20
-62.32194958294382
 30
0.0
 10
110.8592108555317
 20
-63.98420815457687
 30
0.0
 10
113.0421956097603
 20
-65.31160344504363
 30
0.0
 10
115.9694932435771
 20
-66.30310192569853
 30
0.0
 10
118.8957573487483
 20
-66.79988469467156
 30
0.0
 10
120.967293264029
 20
-66.32825112274085
 30
0.0
 10
122.1830674607737
 20
-64.889234738552
 30
0.0
 10
123.2992783979946
 20
-63.351688623485
 30
0.0
 10
123.9317979290865
 20
-61.7769354771773
 30
0.0
 10
124.0806260540493
 20
-60.16394177098332
 30
0.0
 10
123.9559135974832
 20
-58.47756753095353
 30
0.0
 10
123.0136799822674
 20
-56.90281438464583
 30
0.0
 10
121.2528916797562
 20
-55.43864880341464
 30
0.0
 10
119.8138752955674
 20
-54.52156438524114
 30
0.0
 10
118.1647080867783
 20
-54.12434487579183
 30
0.0
 10
116.3043565247434
 20
-54.2480238037123
 30
0.0
 10
114.1704643811796
 20
-54.719657375643
 30
0.0
 10
112.2236409224649
 20
-55.42659096921627
 30
0.0
 10
110.4628526199537
 20
-56.3688245844321
 30
0.0
 10
109.6191487356161
 20
-56.54280190643722
 30
0.0
 10
109.4954698076956
 20
-56.24514565651163
 30
0.0
 10
110.0907823075468
 20
-55.47585583465534
 30
0.0
 10
110.0907823075468
 20
-55.47585583465534
 30
0.0
 10
113.7742784003759
 20
-52.68532849160297
 30
0.0
 10
113.7742784003759
 20
-52.68532849160297
 30
0.0
 10
115.6838948278499
 20
-50.5524698766848
 30
0.0
 10
116.5648057434283
 20
-48.61770425216849
 30
0.0
 10
116.4159776184655
 20
-46.88103161805405
 30
0.0
 10
115.9936089119738
 20
-45.12024331554286
 30
0.0
 10
115.1881455875224
 20
-43.73152532543865
 30
0.0
 10
113.9975205878201
 20
-42.71384411909585
 30
0.0
 10
112.6580674631549
 20
-41.54836831643583
 30
0.0
 10
111.0581651198049
 20
-41.15114880698652
 30
0.0
 10
109.19781355777
 20
-41.5232191193935
 30
0.0
 10
107.16348467373
 20
-41.92043862884281
 30
0.0
 10
105.7990546067968
 20
-42.80134954442119
 30
0.0
 10
105.1050401212932
 20
-44.16491833748308
 30
0.0
 10
104.1619452322061
 20
-45.28112927470403
 30
0.0
 10
103.7404377995857
 20
-47.26619329330498
 30
0.0
 10
103.8400010591095
 20
-50.1180433359948
 30
0.0
 10
103.8400010591095
 20
-50.1180433359948
 30
0.0
 10
104.1004502777943
 20
-52.27605114795529
 30
0.0
 10
104.1004502777943
 20
-52.27605114795529
 30
0.0
 10
103.9759100760025
 20
-53.1449042293353
 30
0.0
 10
103.678253826077
 20
-53.28064099145415
 30
0.0
 10
103.2074815280176
 20
-52.68532849160297
 30
0.0
 10
102.6121690281664
 20
-50.37849255467968
 30
0.0
 10
101.5574530453572
 20
-48.29489880520058
 30
0.0
 10
100.0448838725582
 20
-46.43454724316567
 30
0.0
 10
98.77984481037448
 20
-45.34348550298705
 30
0.0
 10
97.35943194180598
 20
-44.79743786857495
 30
0.0
 10
95.78467879549828
 20
-44.79743786857495
 30
0.0
 10
94.20906437531927
 20
-44.79743786857495
 30
0.0
 10
92.87598467730184
 20
-45.21980657506658
 30
0.0
 10
91.78492293712321
 20
-46.06247693075869
 30
0.0
 10
90.59429793742088
 20
-47.32751599294243
 30
0.0
 10
89.91165226701862
 20
-48.76653237713128
 30
0.0
 10
89.73853621888482
 20
-50.37849255467968
 30
0.0
 10
89.73853621888482
 20
-52.2388441167146
 30
0.0
 10
90.42032061541576
 20
-53.80153942882392
 30
0.0
 10
91.78492293712321
 20
-55.06657849100766
 30
0.0
 10
93.74397648481053
 20
-56.60515813472024
 30
0.0
 10
96.05081242173382
 20
-57.59665661537515
 30
0.0
 10
98.70543074789309
 20
-58.04314099026352
 30
0.0
 10
99.59839949766985
 20
-58.4896253651519
 30
0.0
 10
99.62268742084086
 20
-58.86169567755888
 30
0.0
 10
98.77984481037448
 20
-59.15935192748447
 30
0.0
 10
97.66363387315354
 20
-58.88684487460121
 30
0.0
 10
96.55948077013096
 20
-58.80037297792143
 30
0.0
 10
95.46841902995234
 20
-58.89890270879958
 30
0.0
 10
93.35967608343091
 20
-58.84963784336051
 30
0.0
 10
91.499324521396
 20
-59.56862927113215
 30
0.0
 10
89.88736434384761
 20
-61.05691052076008
 30
0.0
 10
88.67159014710295
 20
-62.66990422695405
 30
0.0
 10
88.11348467849247
 20
-64.24465737326176
 30
0.0
 10
88.21304793801619
 20
-65.78220348832876
 30
0.0
 10
88.38616398615
 20
-67.54402531948553
 30
0.0
 10
89.14322371903364
 20
-68.99509953787276
 30
0.0
 10
90.48267684369878
 20
-70.13542614349045
 30
0.0
 10
91.69758976657214
 20
-70.92986516238906
 30
0.0
 10
93.02481280226463
 20
-71.2888441119521
 30
0.0
 10
94.4638291864535
 20
-71.2144300494707
 30
0.0
 10
96.3985948109698
 20
-70.76794567458232
 30
0.0
 10
97.92408309183843
 20
-69.99968938137161
 30
0.0
 10
99.04029402905938
 20
-68.90759411254741
 30
0.0
 10
100.2057698317194
 20
-67.56814098788227
 30
0.0
 10
101.1359456127368
 20
-66.13015813233899
 30
0.0
 10
101.8308213721117
 20
-64.59157848862641
 30
0.0
 10
102.6986409248462
 20
-63.77302380133105
 30
0.0
 10
103.0335042060125
 20
-64.03347302001595
 30
0.0
 10
102.8354112156106
 20
-65.37292614468107
 30
0.0
 10
101.9917073312729
 20
-67.233277706716
 30
0.0
 10
101.5202460141165
 20
-69.21834172531695
 30
0.0
 10
101.4215440284641
 20
-71.3260511431928
 30
0.0
 10
101.3963948314217
 20
-73.11198864274631
 30
0.0
 10
102.165684653278
 20
-74.76132810630968
 30
0.0
 10
103.7283799653873
 20
-76.27458629820566
 30
0.0
 10
106.2083319504444
 20
-77.71291366329747
 30
0.0
 10
108.3048448079932
 20
-77.94890270403708
 30
0.0
 10
110.0163682450654
 20
-76.98151989177893
 30
0.0
  0
SPLINE
  5
43
330
1F
100
AcDbEntity
  8
Layer 11
 62
   250
370
     9
100
AcDbSpline
210
0.0
220
0.0
230
1.0
 70
    11
 71
     3
 72
   119
 73
   115
 74
     0
 42
0.0000000001
 43
0.0000000001
 40
0.0
 40
0.0
 40
0.0
 40
0.0
 40
1.0
 40
1.0
 40
1.0
 40
2.0
 40
2.0
 40
2.0
 40
3.0
 40
3.0
 40
3.0
 40
4.0
 40
4.0
 40
4.0
 40
5.0
 40
5.0
 40
5.0
 40
6.0
 40
6.0
 40
6.0
 40
7.0
 40
7.0
 40
7.0
 40
8.0
 40
8.0
 40
8.0
 40
9.0
 40
9.0
 40
9.0
 40
10.0
 40
10.0
 40
10.0
 40
11.0
 40
11.0
 40
11.0
 40
12.0
 40
12.0
 40
12.0
 40
13.0
 40
13.0
 40
13.0
 40
14.0
 40
14.0
 40
14.0
 40
15.0
 40
15.0
 40
15.0
 40
16.0
 40
16.0
 40
16.0
 40
17.0
 40
17.0
 40
17.0
 40
18.0
 40
18.0
 40
18.0
 40
19.0
 40
19.0
 40
19.0
 40
20.0
 40
20.0
 40
20.0
 40
21.0
 40
21.0
 40
21.0
 40
22.0
 40
22.0
 40
22.0
 40
23.0
 40
23.0
 40
23.0
 40
24.0
 40
24.0
 40
24.0
 40
25.0
 40
25.0
 40
25.0
 40
26.0
 40
26.0
 40
26.0
 40
27.0
 40
27.0
 40
27.0
 40
28.0
 40
28.0
 40
28.0
 40
29.0
 40
29.0
 40
29.0
 40
30.0
 40
30.0
 40
30.0
 40
31.0
 40
31.0
 40
31.0
 40
32.0
 40
32.0
 40
32.0
 40
33.0
 40
33.0
 40
33.0
 40
34.0
 40
34.0
 40
34.0
 40
35.0
 40
35.0
 40
35.0
 40
36.0
 40
36.0
 40
36.0
 40
37.0
 40
37.0
 40
37.0
 40
38.0
 40
38.0
 40
38.0
 40
38.0
 10
111.7030869946437
 20
-122.5058729077416
 30
0.0
 10
112.5461018598843
 20
-121.9849744703718
 30
0.0
 10
113.2902424846983
 20
-121.35245493928
 30
0.0
 10
113.9355088690856
 20
-120.608314314466
 30
0.0
 10
114.8284776188623
 20
-119.5162190456418
 30
0.0
 10
115.3616061452047
 20
-118.1898572838206
 30
0.0
 10
115.5354112124356
 20
-116.6271619717113
 30
0.0
 10
115.3865830874728
 20
-114.320326034788
 30
0.0
 10
114.381993243974
 20
-112.4227674415124
 30
0.0
 10
112.521641681939
 20
-110.9344861918844
 30
0.0
 10
111.6286729321623
 20
-109.9671033796263
 30
0.0
 10
110.896762396321
 20
-109.2729166393484
 30
0.0
 10
110.3264268387378
 20
-108.8508924424053
 30
0.0
 10
110.0037936465442
 20
-108.1567057021275
 30
0.0
 10
110.2642428652291
 20
-107.8218424209612
 30
0.0
 10
111.1077744947925
 20
-107.8463025989065
 30
0.0
 10
112.5461018598843
 20
-109.5085611705395
 30
0.0
 10
114.7290866141129
 20
-110.8356119514578
 30
0.0
 10
117.6562119931554
 20
-111.8274549416612
 30
0.0
 10
120.5828206078751
 20
-112.3238932010857
 30
0.0
 10
122.6541842683816
 20
-111.8526041387035
 30
0.0
 10
123.869786210352
 20
-110.4135877545147
 30
0.0
 10
124.9859971475729
 20
-108.8760416394477
 30
0.0
 10
125.6185166786648
 20
-107.3009439835914
 30
0.0
 10
125.7673448036276
 20
-105.688294786946
 30
0.0
 10
125.6429768566101
 20
-104.0017482921419
 30
0.0
 10
124.70057098662
 20
-102.42682289106
 30
0.0
 10
122.9396104293346
 20
-100.9630018193773
 30
0.0
 10
121.50076629992
 20
-100.0455728916553
 30
0.0
 10
119.8514268363566
 20
-99.64852563698024
 30
0.0
 10
117.9910752743217
 20
-99.77237681967496
 30
0.0
 10
115.8575276403065
 20
-100.2438381368314
 30
0.0
 10
113.9105319268175
 20
-100.9507717304047
 30
0.0
 10
112.1495713695321
 20
-101.8931776003948
 30
0.0
 10
111.3060397399686
 20
-102.0669826676256
 30
0.0
 10
111.1821885572739
 20
-101.7693264177
 30
0.0
 10
111.7775010571251
 20
-101.000208850618
 30
0.0
 10
111.7775010571251
 20
-101.000208850618
 30
0.0
 10
115.4609971499542
 20
-98.20968150756563
 30
0.0
 10
115.4609971499542
 20
-98.20968150756563
 30
0.0
 10
117.3707858322024
 20
-96.0766506378732
 30
0.0
 10
118.2515244930066
 20
-94.1418850133569
 30
0.0
 10
118.1026963680438
 20
-92.40538463401671
 30
0.0
 10
117.6806721711007
 20
-90.64442407673126
 30
0.0
 10
116.8748643371007
 20
-89.25553383185279
 30
0.0
 10
115.6842393373984
 20
-88.23819713505851
 30
0.0
 10
114.3447862127333
 20
-87.07254907762423
 30
0.0
 10
112.7448838693832
 20
-86.67550182294919
 30
0.0
 10
110.8845323073483
 20
-87.04757213535616
 30
0.0
 10
108.8503756780826
 20
-87.4446193900312
 30
0.0
 10
107.4859456111493
 20
-88.32535805083533
 30
0.0
 10
106.7917588708715
 20
-89.68927135344575
 30
0.0
 10
105.8488362365586
 20
-90.80548229066669
 30
0.0
 10
105.4273288039383
 20
-92.79020179971911
 30
0.0
 10
105.5267198086878
 20
-95.64239635195746
 30
0.0
 10
105.5267198086878
 20
-95.64239635195746
 30
0.0
 10
105.7871690273727
 20
-97.80040416391796
 30
0.0
 10
105.7871690273727
 20
-97.80040416391796
 30
0.0
 10
105.6628010803551
 20
-98.66891273574944
 30
0.0
 10
105.3651448304296
 20
-98.80499400741681
 30
0.0
 10
104.8942002775959
 20
-98.20968150756563
 30
0.0
 10
104.2988877777447
 20
-95.90284557064234
 30
0.0
 10
103.2443440497098
 20
-93.81925182116325
 30
0.0
 10
101.7316026221365
 20
-91.95890025912834
 30
0.0
 10
100.4665635599528
 20
-90.86766626417545
 30
0.0
 10
99.04632294615857
 20
-90.3217908845376
 30
0.0
 10
97.4713975450766
 20
-90.3217908845376
 30
0.0
 10
95.89595537967185
 20
-90.3217908845376
 30
0.0
 10
94.56287568165442
 20
-90.74381508148072
 30
0.0
 10
93.47164168670155
 20
-91.58682994672135
 30
0.0
 10
92.2810166869992
 20
-92.8518690089051
 30
0.0
 10
91.5985432713712
 20
-94.29071313831969
 30
0.0
 10
91.42525496846314
 20
-95.90284557064234
 30
0.0
 10
91.42525496846314
 20
-97.76319713267726
 30
0.0
 10
92.10721161976834
 20
-99.32589244478659
 30
0.0
 10
93.47164168670155
 20
-100.5909315069703
 30
0.0
 10
95.43086748916312
 20
-102.1291666411344
 30
0.0
 10
97.73770342608641
 20
-103.1210096313378
 30
0.0
 10
100.3921494974714
 20
-103.5674940062262
 30
0.0
 10
101.2851182472482
 20
-104.0139783811146
 30
0.0
 10
101.3095784251935
 20
-104.3860486935215
 30
0.0
 10
100.4665635599528
 20
-104.6837049434471
 30
0.0
 10
99.35035262273186
 20
-104.4110256357896
 30
0.0
 10
98.24637177448355
 20
-104.3243814843356
 30
0.0
 10
97.15513777953066
 20
-104.4232557247622
 30
0.0
 10
95.0465670877835
 20
-104.3738186045489
 30
0.0
 10
93.1862155257486
 20
-105.0929822870948
 30
0.0
 10
91.57408309342593
 20
-106.5812635367227
 30
0.0
 10
90.35848115145552
 20
-108.1939127333682
 30
0.0
 10
89.80037568284504
 20
-109.7690103892244
 30
0.0
 10
89.89976668759451
 20
-111.3065565042914
 30
0.0
 10
90.07305499050257
 20
-113.0680338258997
 30
0.0
 10
90.82994246861196
 20
-114.5191080442869
 30
0.0
 10
92.1693955932771
 20
-115.6597791594531
 30
0.0
 10
93.38448077092471
 20
-116.4538736688032
 30
0.0
 10
94.71170380661722
 20
-116.8131971279148
 30
0.0
 10
96.15054793603181
 20
-116.7387830654334
 30
0.0
 10
98.08531356054812
 20
-116.292298690545
 30
0.0
 10
99.61080184141674
 20
-115.5236978877857
 30
0.0
 10
100.7270127786377
 20
-114.4319471285101
 30
0.0
 10
101.892660836072
 20
-113.0924940038449
 30
0.0
 10
102.8228366170894
 20
-111.6541666387531
 30
0.0
 10
103.5175401216901
 20
-110.1159315045891
 30
0.0
 10
104.3855319291988
 20
-109.2973768172937
 30
0.0
 10
104.720395210365
 20
-109.5578260359786
 30
0.0
 10
104.5221299651889
 20
-110.8972791606437
 30
0.0
 10
103.6785983356255
 20
-112.7576307226787
 30
0.0
 10
103.2071370184691
 20
-114.7423502317311
 30
0.0
 10
103.1082627780424
 20
-116.8504041591555
 30
0.0
 10
103.0832858357743
 20
-118.636341658709
 30
0.0
 10
103.8524034028564
 20
-120.2855088674981
 30
0.0
 10
105.4150987149657
 20
-121.7989393141683
 30
0.0
 10
107.895222954797
 20
-123.2369221697116
 30
0.0
 10
109.9915635575716
 20
-123.4732557199997
 30
0.0
 10
111.7030869946437
 20
-122.5058729077416
 30
0.0
  0
SPLINE
  5
46
330
1F
100
AcDbEntity
  8
Layer 4
 62
   250
370
     9
100
AcDbSpline
210
0.0
220
0.0
230
1.0
 70
    11
 71
     3
 72
    29
 73
    25
 74
     0
 42
0.0000000001
 43
0.0000000001
 40
0.0
 40
0.0
 40
0.0
 40
0.0
 40
1.0
 40
1.0
 40
1.0
 40
2.0
 40
2.0
 40
2.0
 40
3.0
 40
3.0
 40
3.0
 40
4.0
 40
4.0
 40
4.0
 40
5.0
 40
5.0
 40
5.0
 40
6.0
 40
6.0
 40
6.0
 40
7.0
 40
7.0
 40
7.0
 40
8.0
 40
8.0
 40
8.0
 40
8.0
 10
69.87514917957982
 20
-153.6285210119401
 30
0.0
 10
70.66855466983286
 20
-153.1324272620641
 30
0.0
 10
71.36343042920775
 20
-152.4378960122378
 30
0.0
 10
71.95874292905893
 20
-151.544927262461
 30
0.0
 10
72.40522730394731
 20
-150.0070366378455
 30
0.0
 10
72.35510116463692
 20
-148.5683647632051
 30
0.0
 10
71.80991480409614
 20
-147.22891163854
 30
0.0
 10
70.86681991500899
 20
-145.5421928889617
 30
0.0
 10
69.27983667972866
 20
-144.8476616391353
 30
0.0
 10
67.04741480528676
 20
-145.1453178890609
 30
0.0
 10
65.75722654606069
 20
-145.2445366390361
 30
0.0
 10
64.71542967132115
 20
-145.8894585138749
 30
0.0
 10
63.92202418106811
 20
-147.0800835135772
 30
0.0
 10
63.92202418106811
 20
-147.0800835135772
 30
0.0
 10
63.32671168121693
 20
-149.0148491380935
 30
0.0
 10
63.32671168121693
 20
-149.0148491380935
 30
0.0
 10
63.27658554190655
 20
-150.9496147626098
 30
0.0
 10
63.85966795278509
 20
-152.2649522188782
 30
0.0
 10
65.07544214952975
 20
-152.9587944496075
 30
0.0
 10
66.04282496178791
 20
-153.7029350744215
 30
0.0
 10
67.04741480528676
 20
-154.0253960118409
 30
0.0
 10
68.08921168002631
 20
-153.9261772618657
 30
0.0
 10
68.08921168002631
 20
-153.9261772618657
 30
0.0
 10
69.87514917957982
 20
-153.6285210119401
 30
0.0
 10
69.87514917957982
 20
-153.6285210119401
 30
0.0
  0
SPLINE
  5
47
330
1F
100
AcDbEntity
  8
Layer 4
 62
   250
370
     9
100
AcDbSpline
210
0.0
220
0.0
230
1.0
 70
    11
 71
     3
 72
    29
 73
    25
 74
     0
 42
0.0000000001
 43
0.0000000001
 40
0.0
 40
0.0
 40
0.0
 40
0.0
 40
1.0
 40
1.0
 40
1.0
 40
2.0
 40
2.0
 40
2.0
 40
3.0
 40
3.0
 40
3.0
 40
4.0
 40
4.0
 40
4.0
 40
5.0
 40
5.0
 40
5.0
 40
6.0
 40
6.0
 40
6.0
 40
7.0
 40
7.0
 40
7.0
 40
8.0
 40
8.0
 40
8.0
 40
8.0
 10
140.6055433133729
 20
-155.4492539758946
 30
0.0
 10
141.398948803626
 20
-154.9531602260187
 30
0.0
 10
142.0938245630009
 20
-154.2586289761923
 30
0.0
 10
142.689137062852
 20
-153.3656602264155
 30
0.0
 10
143.1356214377404
 20
-151.8277696018
 30
0.0
 10
143.08549529843
 20
-150.3890977271597
 30
0.0
 10
142.5403089378892
 20
-149.0496446024945
 30
0.0
 10
141.5972140488021
 20
-147.3629258529162
 30
0.0
 10
140.0102308135218
 20
-146.6683946030899
 30
0.0
 10
137.7778089390798
 20
-146.9660508530154
 30
0.0
 10
136.4876206798538
 20
-147.0652696029906
 30
0.0
 10
135.4458238051143
 20
-147.7101914778294
 30
0.0
 10
134.6524183148612
 20
-148.9008164775317
 30
0.0
 10
134.6524183148612
 20
-148.9008164775317
 30
0.0
 10
134.05710581501
 20
-150.8355821020481
 30
0.0
 10
134.05710581501
 20
-150.8355821020481
 30
0.0
 10
134.0069796756997
 20
-152.7703477265644
 30
0.0
 10
134.5900620865782
 20
-154.0856851828327
 30
0.0
 10
135.8058362833229
 20
-154.7795274135621
 30
0.0
 10
136.773219095581
 20
-155.523668038376
 30
0.0
 10
137.7778089390798
 20
-155.8461289757954
 30
0.0
 10
138.8196058138194
 20
-155.7469102258202
 30
0.0
 10
138.8196058138194
 20
-155.7469102258202
 30
0.0
 10
140.6055433133729
 20
-155.4492539758946
 30
0.0
 10
140.6055433133729
 20
-155.4492539758946
 30
0.0
  0
SPLINE
  5
49
330
1F
100
AcDbEntity
  8
Layer 5
 62
   250
370
     9
100
AcDbSpline
210
0.0
220
0.0
230
1.0
 70
    11
 71
     3
 72
   101
 73
    97
 74
     0
 42
0.0000000001
 43
0.0000000001
 40
0.0
 40
0.0
 40
0.0
 40
0.0
 40
1.0
 40
1.0
 40
1.0
 40
2.0
 40
2.0
 40
2.0
 40
3.0
 40
3.0
 40
3.0
 40
4.0
 40
4.0
 40
4.0
 40
5.0
 40
5.0
 40
5.0
 40
6.0
 40
6.0
 40
6.0
 40
7.0
 40
7.0
 40
7.0
 40
8.0
 40
8.0
 40
8.0
 40
9.0
 40
9.0
 40
9.0
 40
10.0
 40
10.0
 40
10.0
 40
11.0
 40
11.0
 40
11.0
 40
12.0
 40
12.0
 40
12.0
 40
13.0
 40
13.0
 40
13.0
 40
14.0
 40
14.0
 40
14.0
 40
15.0
 40
15.0
 40
15.0
 40
16.0
 40
16.0
 40
16.0
 40
17.0
 40
17.0
 40
17.0
 40
18.0
 40
18.0
 40
18.0
 40
19.0
 40
19.0
 40
19.0
 40
20.0
 40
20.0
 40
20.0
 40
21.0
 40
21.0
 40
21.0
 40
22.0
 40
22.0
 40
22.0
 40
23.0
 40
23.0
 40
23.0
 40
24.0
 40
24.0
 40
24.0
 40
25.0
 40
25.0
 40
25.0
 40
26.0
 40
26.0
 40
26.0
 40
27.0
 40
27.0
 40
27.0
 40
28.0
 40
28.0
 40
28.0
 40
29.0
 40
29.0
 40
29.0
 40
30.0
 40
30.0
 40
30.0
 40
31.0
 40
31.0
 40
31.0
 40
32.0
 40
32.0
 40
32.0
 40
32.0
 10
33.29202473126033
 20
-166.603439628488
 30
0.0
 10
31.18345403951317
 20
-166.2561740035748
 30
0.0
 10
31.3445122534486
 20
-161.4936740047655
 30
0.0
 10
33.77571613738941
 20
-152.3159396320599
 30
0.0
 10
30.65032551317075
 20
-161.4447536488749
 30
0.0
 10
28.07029350426715
 20
-165.5368380662547
 30
0.0
 10
26.03665363932417
 20
-164.5942599414903
 30
0.0
 10
24.1513251350212
 20
-163.15558806685
 30
0.0
 10
26.08609075953751
 20
-158.7658473995447
 30
0.0
 10
31.8409505128731
 20
-151.4229708822832
 30
0.0
 10
26.03665363932417
 20
-158.5667208804972
 30
0.0
 10
22.31595051525435
 20
-161.6921115047159
 30
0.0
 10
20.67884114066362
 20
-160.7991427549391
 30
0.0
 10
18.59524739118452
 20
-158.5171115055096
 30
0.0
 10
21.9189032605793
 20
-154.896316150512
 30
0.0
 10
30.65032551317075
 20
-149.9346896326552
 30
0.0
 10
22.46477864021714
 20
-154.7964083814398
 30
0.0
 10
17.90054388658389
 20
-156.2846896310677
 30
0.0
 10
16.9581380165938
 20
-154.399533381539
 30
0.0
 10
15.668122012142
 20
-152.1671115070971
 30
0.0
 10
19.93470051584966
 20
-150.1827365075932
 30
0.0
 10
29.757356763394
 20
-148.4464083830273
 30
0.0
 10
20.38118489073804
 20
-149.3393771328041
 30
0.0
 10
15.75476616359603
 20
-148.5828341642432
 30
0.0
 10
15.87913411061355
 20
-146.1767794773447
 30
0.0
 10
16.05242241352162
 20
-144.167599790347
 30
0.0
 10
20.87710638583975
 20
-144.2296115090815
 30
0.0
 10
30.35266926324517
 20
-146.3628146335482
 30
0.0
 10
21.32359076072813
 20
-144.0807833841187
 30
0.0
 10
17.00757513680713
 20
-141.5507052597512
 30
0.0
 10
17.40462239148218
 20
-138.7725802604457
 30
0.0
 10
18.99177788153678
 20
-137.2346896358302
 30
0.0
 10
23.45662163042057
 20
-139.1694552603465
 30
0.0
 10
30.79915363813355
 20
-144.5768771339947
 30
0.0
 10
23.25835638524444
 20
-138.7229708854582
 30
0.0
 10
20.28179388598858
 20
-134.8534396364255
 30
0.0
 10
21.86946614036597
 20
-132.9682833868968
 30
0.0
 10
23.80423176488228
 20
-131.5303005313535
 30
0.0
 10
27.27671575923985
 20
-135.0022677613883
 30
0.0
 10
32.28743488776148
 20
-143.3862521342923
 30
0.0
 10
27.32615287945319
 20
-135.0022677613883
 30
0.0
 10
25.93726263457472
 20
-130.4382052625294
 30
0.0
 10
28.12024738880327
 20
-129.6940646377154
 30
0.0
 10
30.45154350367184
 20
-129.0002224069861
 30
0.0
 10
32.43626301272427
 20
-133.3651583867976
 30
0.0
 10
34.07337238731499
 20
-142.7909396344412
 30
0.0
 10
33.47805988746382
 20
-133.4650661558699
 30
0.0
 10
34.22220051227779
 20
-128.7886935441917
 30
0.0
 10
36.30579426175689
 20
-128.7638888566979
 30
0.0
 10
38.38938801123599
 20
-129.3350856881523
 30
0.0
 10
38.33943412669986
 20
-134.1092990116116
 30
0.0
 10
36.1569661367941
 20
-143.0885958843668
 30
0.0
 10
39.0341376313005
 20
-134.5557833864999
 30
0.0
 10
41.61365287588131
 20
-130.488503656614
 30
0.0
 10
43.89602863485933
 20
-130.8846896374177
 30
0.0
 10
45.53313800945005
 20
-132.4232692811303
 30
0.0
 10
43.54841850039762
 20
-136.6889865109667
 30
0.0
 10
37.94290363634761
 20
-143.6839083842179
 30
0.0
 10
43.69724662536041
 20
-136.3913302610411
 30
0.0
 10
47.66616887914249
 20
-133.5139865117604
 30
0.0
 10
49.84915363337105
 20
-135.0518771363759
 30
0.0
 10
50.69216849861169
 20
-137.4834255298653
 30
0.0
 10
47.12029349950465
 20
-140.8561740099248
 30
0.0
 10
39.13352863604995
 20
-145.1721896338458
 30
0.0
 10
48.01326224928141
 20
-140.4096896350365
 30
0.0
 10
52.67688800766411
 20
-139.2190646353341
 30
0.0
 10
53.1233723825525
 20
-141.6003146347388
 30
0.0
 10
53.27220050751529
 20
-143.7342067783026
 30
0.0
 10
48.8073567586315
 20
-145.5201442778561
 30
0.0
 10
39.72884113590113
 20
-146.9581271333994
 30
0.0
 10
49.452106378696
 20
-146.0651583836226
 30
0.0
 10
54.11521537275592
 20
-146.8223903712805
 30
0.0
 10
53.71868488240366
 20
-149.227756039082
 30
0.0
 10
53.32163762772862
 20
-150.9392794761541
 30
0.0
 10
48.70796575388204
 20
-150.827658382432
 30
0.0
 10
39.87766926086392
 20
-148.8928927579157
 30
0.0
 10
49.20388724898375
 20
-151.4732692763678
 30
0.0
 10
53.47046575269141
 20
-154.1018771316134
 30
0.0
 10
52.67688800766411
 20
-156.7807833809437
 30
0.0
 10
51.63509113292456
 20
-159.0635036494702
 30
0.0
 10
47.12029349950465
 20
-156.9799098999911
 30
0.0
 10
39.13352863604995
 20
-150.5300021325064
 30
0.0
 10
46.32671575447735
 20
-156.2846896310677
 30
0.0
 10
49.20388724898375
 20
-160.2541286491726
 30
0.0
 10
47.76555988389195
 20
-162.4362521295298
 30
0.0
 10
45.58257512966338
 20
-163.775705254195
 30
0.0
 10
42.25891926026861
 20
-160.203830255088
 30
0.0
 10
37.79407551138482
 20
-151.7206271322087
 30
0.0
 10
42.20896537573248
 20
-160.5517848990982
 30
0.0
 10
43.39959037543483
 20
-165.2143771288353
 30
0.0
 10
41.36595051049185
 20
-165.7104708787113
 30
0.0
 10
38.88530950633771
 20
-166.1569552535996
 30
0.0
 10
36.99998100203473
 20
-161.7417208797035
 30
0.0
 10
35.71048176190571
 20
-152.4647677570227
 30
0.0
 10
36.35523138197022
 20
-162.1882052545918
 30
0.0
 10
35.5489067836475
 20
-166.9010958784136
 30
0.0
 10
33.29202473126033
 20
-166.603439628488
 30
0.0
  0
SPLINE
  5
4B
330
1F
100
AcDbEntity
  8
Layer 6
 62
   250
370
     9
100
AcDbSpline
210
0.0
220
0.0
230
1.0
 70
    11
 71
     3
 72
   101
 73
    97
 74
     0
 42
0.0000000001
 43
0.0000000001
 40
0.0
 40
0.0
 40
0.0
 40
0.0
 40
1.0
 40
1.0
 40
1.0
 40
2.0
 40
2.0
 40
2.0
 40
3.0
 40
3.0
 40
3.0
 40
4.0
 40
4.0
 40
4.0
 40
5.0
 40
5.0
 40
5.0
 40
6.0
 40
6.0
 40
6.0
 40
7.0
 40
7.0
 40
7.0
 40
8.0
 40
8.0
 40
8.0
 40
9.0
 40
9.0
 40
9.0
 40
10.0
 40
10.0
 40
10.0
 40
11.0
 40
11.0
 40
11.0
 40
12.0
 40
12.0
 40
12.0
 40
13.0
 40
13.0
 40
13.0
 40
14.0
 40
14.0
 40
14.0
 40
15.0
 40
15.0
 40
15.0
 40
16.0
 40
16.0
 40
16.0
 40
17.0
 40
17.0
 40
17.0
 40
18.0
 40
18.0
 40
18.0
 40
19.0
 40
19.0
 40
19.0
 40
20.0
 40
20.0
 40
20.0
 40
21.0
 40
21.0
 40
21.0
 40
22.0
 40
22.0
 40
22.0
 40
23.0
 40
23.0
 40
23.0
 40
24.0
 40
24.0
 40
24.0
 40
25.0
 40
25.0
 40
25.0
 40
26.0
 40
26.0
 40
26.0
 40
27.0
 40
27.0
 40
27.0
 40
28.0
 40
28.0
 40
28.0
 40
29.0
 40
29.0
 40
29.0
 40
30.0
 40
30.0
 40
30.0
 40
31.0
 40
31.0
 40
31.0
 40
32.0
 40
32.0
 40
32.0
 40
32.0
 10
104.0224188650534
 20
-168.4241725924426
 30
0.0
 10
101.9138481733063
 20
-168.0769069675294
 30
0.0
 10
102.0749063872417
 20
-163.31440696872
 30
0.0
 10
104.5061102711825
 20
-154.1366725960144
 30
0.0
 10
101.3807196469639
 20
-163.2654866128295
 30
0.0
 10
98.80068763806025
 20
-167.3575710302092
 30
0.0
 10
96.76704777311727
 20
-166.4149929054449
 30
0.0
 10
94.8817192688143
 20
-164.9763210308045
 30
0.0
 10
96.81648489333061
 20
-160.5865803634992
 30
0.0
 10
102.5713446466662
 20
-153.2437038462377
 30
0.0
 10
96.76704777311727
 20
-160.3874538444518
 30
0.0
 10
93.04634464904744
 20
-163.5128444686704
 30
0.0
 10
91.40923527445672
 20
-162.6198757188936
 30
0.0
 10
89.32564152497763
 20
-160.3378444694642
 30
0.0
 10
92.6492973943724
 20
-156.7170491144666
 30
0.0
 10
101.3807196469639
 20
-151.7554225966098
 30
0.0
 10
93.19517277401025
 20
-156.6171413453943
 30
0.0
 10
88.63093802037699
 20
-158.1054225950223
 30
0.0
 10
87.6885321503869
 20
-156.2202663454935
 30
0.0
 10
86.39851614593509
 20
-153.9878444710517
 30
0.0
 10
90.66509464964275
 20
-152.0034694715478
 30
0.0
 10
100.4877508971871
 20
-150.2671413469818
 30
0.0
 10
91.11157902453114
 20
-151.1601100967586
 30
0.0
 10
86.48516029738913
 20
-150.4035671281977
 30
0.0
 10
86.60952824440665
 20
-147.9975124412992
 30
0.0
 10
86.78281654731471
 20
-145.9883327543015
 30
0.0
 10
91.60750051963285
 20
-146.050344473036
 30
0.0
 10
101.0830633970383
 20
-148.1835475975027
 30
0.0
 10
92.05398489452124
 20
-145.9015163480732
 30
0.0
 10
87.73796927060023
 20
-143.3714382237058
 30
0.0
 10
88.13501652527528
 20
-140.5933132244003
 30
0.0
 10
89.72217201532987
 20
-139.0554225997847
 30
0.0
 10
94.18701576421367
 20
-140.9901882243011
 30
0.0
 10
101.5295477719266
 20
-146.3976100979492
 30
0.0
 10
93.98875051903754
 20
-140.5437038494127
 30
0.0
 10
91.01218801978168
 20
-136.6741726003801
 30
0.0
 10
92.59986027415907
 20
-134.7890163508514
 30
0.0
 10
94.53462589867537
 20
-133.3510334953081
 30
0.0
 10
98.00710989303295
 20
-136.8230007253429
 30
0.0
 10
103.0178290215546
 20
-145.2069850982469
 30
0.0
 10
98.05654701324629
 20
-136.8230007253429
 30
0.0
 10
96.6676567683678
 20
-132.2589382264839
 30
0.0
 10
98.85064152259638
 20
-131.5147976016699
 30
0.0
 10
101.1819376374649
 20
-130.8209553709406
 30
0.0
 10
103.1666571465174
 20
-135.1858913507521
 30
0.0
 10
104.8037665211081
 20
-144.6116725983957
 30
0.0
 10
104.2084540212569
 20
-135.2857991198244
 30
0.0
 10
104.9525946460709
 20
-130.6094265081463
 30
0.0
 10
107.03618839555
 20
-130.5846218206525
 30
0.0
 10
109.1197821450291
 20
-131.1558186521069
 30
0.0
 10
109.069828260493
 20
-135.9300319755661
 30
0.0
 10
106.8873602705872
 20
-144.9093288483213
 30
0.0
 10
109.7645317650936
 20
-136.3765163504545
 30
0.0
 10
112.3440470096744
 20
-132.3092366205685
 30
0.0
 10
114.6264227686524
 20
-132.7054226013722
 30
0.0
 10
116.2635321432432
 20
-134.2440022450848
 30
0.0
 10
114.2788126341907
 20
-138.5097194749212
 30
0.0
 10
108.6732977701407
 20
-145.5046413481725
 30
0.0
 10
114.4276407591535
 20
-138.2120632249956
 30
0.0
 10
118.3965630129356
 20
-135.3347194757149
 30
0.0
 10
120.5795477671641
 20
-136.8726101003305
 30
0.0
 10
121.4225626324048
 20
-139.3041584938198
 30
0.0
 10
117.8506876332978
 20
-142.6769069738794
 30
0.0
 10
109.8639227698431
 20
-146.9929225978004
 30
0.0
 10
118.7436563830745
 20
-142.230422598991
 30
0.0
 10
123.4072821414572
 20
-141.0397975992887
 30
0.0
 10
123.8537665163456
 20
-143.4210475986933
 30
0.0
 10
124.0025946413084
 20
-145.5549397422571
 30
0.0
 10
119.5377508924246
 20
-147.3408772418106
 30
0.0
 10
110.4592352696942
 20
-148.7788600973539
 30
0.0
 10
120.1825005124891
 20
-147.8858913475771
 30
0.0
 10
124.845609506549
 20
-148.6431233352351
 30
0.0
 10
124.4490790161968
 20
-151.0484890030365
 30
0.0
 10
124.0520317615217
 20
-152.7600124401086
 30
0.0
 10
119.4383598876751
 20
-152.6483913463865
 30
0.0
 10
110.608063394657
 20
-150.7136257218702
 30
0.0
 10
119.9342813827768
 20
-153.2940022403223
 30
0.0
 10
124.2008598864845
 20
-155.922610095568
 30
0.0
 10
123.4072821414572
 20
-158.6015163448982
 30
0.0
 10
122.3654852667177
 20
-160.8842366134248
 30
0.0
 10
117.8506876332978
 20
-158.8006428639457
 30
0.0
 10
109.8639227698431
 20
-152.3507350964609
 30
0.0
 10
117.0571098882704
 20
-158.1054225950223
 30
0.0
 10
119.9342813827768
 20
-162.0748616131271
 30
0.0
 10
118.4959540176851
 20
-164.2569850934844
 30
0.0
 10
116.3129692634565
 20
-165.5964382181495
 30
0.0
 10
112.9893133940617
 20
-162.0245632190425
 30
0.0
 10
108.5244696451779
 20
-153.5413600961633
 30
0.0
 10
112.9393595095256
 20
-162.3725178630527
 30
0.0
 10
114.1299845092279
 20
-167.0351100927898
 30
0.0
 10
112.0963446442849
 20
-167.5312038426658
 30
0.0
 10
109.6157036401308
 20
-167.9776882175542
 30
0.0
 10
107.7303751358278
 20
-163.562453843658
 30
0.0
 10
106.4408758956988
 20
-154.2855007209772
 30
0.0
 10
107.0856255157633
 20
-164.0089382185464
 30
0.0
 10
106.2793009174406
 20
-168.7218288423682
 30
0.0
 10
104.0224188650534
 20
-168.4241725924426
 30
0.0
  0
SPLINE
  5
4D
330
1F
100
AcDbEntity
  8
Layer 2
 62
   250
370
     9
100
AcDbSpline
210
0.0
220
0.0
230
1.0
 70
    11
 71
     3
 72
    17
 73
    13
 74
     0
 42
0.0000000001
 43
0.0000000001
 40
0.0
 40
0.0
 40
0.0
 40
0.0
 40
1.0
 40
1.0
 40
1.0
 40
2.0
 40
2.0
 40
2.0
 40
3.0
 40
3.0
 40
3.0
 40
4.0
 40
4.0
 40
4.0
 40
4.0
 10
78.87339407750387
 20
-103.7356146659064
 30
0.0
 10
78.87339407750387
 20
-108.4767550727072
 30
0.0
 10
74.80852591445759
 20
-112.3204481056004
 30
0.0
 10
69.79384492612793
 20
-112.3204481056004
 30
0.0
 10
64.77968070212106
 20
-112.3204481056004
 30
0.0
 10
60.71446802952624
 20
-108.4767550727072
 30
0.0
 10
60.71446802952624
 20
-103.7356146659064
 30
0.0
 10
60.71446802952624
 20
-98.99412974955703
 30
0.0
 10
64.77968070212106
 20
-95.15043671666379
 30
0.0
 10
69.79384492612793
 20
-95.15043671666379
 30
0.0
 10
74.80852591445759
 20
-95.15043671666379
 30
0.0
 10
78.87339407750387
 20
-98.99412974955703
 30
0.0
 10
78.87339407750387
 20
-103.7356146659064
 30
0.0
  0
SPLINE
  5
4F
330
1F
100
AcDbEntity
  8
Layer 7
 62
   250
370
     9
100
AcDbSpline
210
0.0
220
0.0
230
1.0
 70
    11
 71
     3
 72
    77
 73
    73
 74
     0
 42
0.0000000001
 43
0.0000000001
 40
0.0
 40
0.0
 40
0.0
 40
0.0
 40
1.0
 40
1.0
 40
1.0
 40
2.0
 40
2.0
 40
2.0
 40
3.0
 40
3.0
 40
3.0
 40
4.0
 40
4.0
 40
4.0
 40
5.0
 40
5.0
 40
5.0
 40
6.0
 40
6.0
 40
6.0
 40
7.0
 40
7.0
 40
7.0
 40
8.0
 40
8.0
 40
8.0
 40
9.0
 40
9.0
 40
9.0
 40
10.0
 40
10.0
 40
10.0
 40
11.0
 40
11.0
 40
11.0
 40
12.0
 40
12.0
 40
12.0
 40
13.0
 40
13.0
 40
13.0
 40
14.0
 40
14.0
 40
14.0
 40
15.0
 40
15.0
 40
15.0
 40
16.0
 40
16.0
 40
16.0
 40
17.0
 40
17.0
 40
17.0
 40
18.0
 40
18.0
 40
18.0
 40
19.0
 40
19.0
 40
19.0
 40
20.0
 40
20.0
 40
20.0
 40
21.0
 40
21.0
 40
21.0
 40
22.0
 40
22.0
 40
22.0
 40
23.0
 40
23.0
 40
23.0
 40
24.0
 40
24.0
 40
24.0
 40
24.0
 10
35.20594752809087
 20
-121.4795789626857
 30
0.0
 10
31.63407252898384
 20
-120.1897352130081
 30
0.0
 10
31.03876002913267
 20
-117.0643445887895
 30
0.0
 10
33.42001002853736
 20
-112.1034070900297
 30
0.0
 10
31.83233777415997
 20
-117.1129204351315
 30
0.0
 10
29.40165065454195
 20
-119.3453423095734
 30
0.0
 10
26.1274319053605
 20
-118.8006727133554
 30
0.0
 10
23.05147840135519
 20
-116.5176079352803
 30
0.0
 10
23.84505614638249
 20
-113.4428602146948
 30
0.0
 10
28.50868190476519
 20
-109.5733289656622
 30
0.0
 10
24.44036864623366
 20
-113.1452039647693
 30
0.0
 10
21.314978022015
 20
-113.5916883396576
 30
0.0
 10
19.13251003210923
 20
-110.9127820903274
 30
0.0
 10
17.84249402765743
 20
-107.4897352161831
 30
0.0
 10
20.22374402706212
 20
-105.3565320917164
 30
0.0
 10
26.2762600303233
 20
-104.5131727169273
 30
0.0
 10
20.17430690684878
 20
-105.2573133417412
 30
0.0
 10
17.19774440759292
 20
-104.0170789670513
 30
0.0
 10
17.34657253255572
 20
-100.7924695928574
 30
0.0
 10
17.94188503240689
 20
-97.2205945937504
 30
0.0
 10
21.01732177208942
 20
-96.47645396893644
 30
0.0
 10
26.57391628024888
 20
-98.56004771841555
 30
0.0
 10
20.86849364712663
 20
-97.07176646878762
 30
0.0
 10
18.73546277743419
 20
-94.69051646938293
 30
0.0
 10
20.17430690684878
 20
-91.41629772020148
 30
0.0
 10
22.30733777654122
 20
-88.24129772099523
 30
0.0
 10
25.58155652572267
 20
-88.9854383458092
 30
0.0
 10
29.99696315439312
 20
-93.64871959464338
 30
0.0
 10
25.53211940550933
 20
-89.92801647057355
 30
0.0
 10
24.78797878069537
 20
-86.95145397131769
 30
0.0
 10
27.76454127995123
 20
-84.71903209687581
 30
0.0
 10
30.93936902438321
 20
-83.23075084724788
 30
0.0
 10
33.27118190357456
 20
-85.21512584675177
 30
0.0
 10
34.7594631532025
 20
-90.67215709538752
 30
0.0
 10
34.51124402349025
 20
-85.06629772178898
 30
0.0
 10
36.1977905182943
 20
-82.48661022243391
 30
0.0
 10
39.81961940193746
 20
-82.93309459732228
 30
0.0
 10
42.89505614161999
 20
-84.27254772198742
 30
0.0
 10
43.0938381511189
 20
-87.19950084625569
 30
0.0
 10
40.41493190178863
 20
-91.71395397012706
 30
0.0
 10
43.39149440104449
 20
-86.05848522154093
 30
0.0
 10
46.36805690030035
 20
-84.47098522193781
 30
0.0
 10
49.34461939955621
 20
-86.95145397131769
 30
0.0
 10
51.0806030145736
 20
-89.33270397072238
 30
0.0
 10
49.69171276969513
 20
-92.06121959504026
 30
0.0
 10
45.177431900598
 20
-95.13700084427131
 30
0.0
 10
50.2870252695463
 20
-91.1682508452635
 30
0.0
 10
53.51180689851441
 20
-90.96981334531311
 30
0.0
 10
54.85126002317955
 20
-94.54168834442014
 30
0.0
 10
55.2477905135318
 20
-97.4190320937008
 30
0.0
 10
52.91649439866324
 20
-99.27938365573571
 30
0.0
 10
47.85633814992828
 20
-100.1227430305249
 30
0.0
 10
53.75950926390387
 20
-99.5770399056613
 30
0.0
 10
56.38897839302081
 20
-100.9785047490609
 30
0.0
 10
55.7442287729563
 20
-104.3271375607238
 30
0.0
 10
55.04952526835568
 20
-107.130067247523
 30
0.0
 10
52.34564207675734
 20
-107.7129774036273
 30
0.0
 10
47.63309596248409
 20
-106.0758680290366
 30
0.0
 10
52.59386120646959
 20
-107.7129774036273
 30
0.0
 10
54.4542127685045
 20
-109.9205945905754
 30
0.0
 10
53.21415064858883
 20
-112.6987195898809
 30
0.0
 10
51.27938502407252
 20
-115.6752820891367
 30
0.0
 10
48.30282252481665
 20
-114.8815320893352
 30
0.0
 10
44.28446315082125
 20
-110.3174695904762
 30
0.0
 10
48.15399439985386
 20
-114.5838758394096
 30
0.0
 10
48.69935301516892
 20
-117.6596570886406
 30
0.0
 10
45.92157252541197
 20
-119.5448133381694
 30
0.0
 10
42.20086940134215
 20
-120.3385633379709
 30
0.0
 10
39.96844752690025
 20
-118.0058891849083
 30
0.0
 10
39.22430690208628
 20
-112.5498914649181
 30
0.0
 10
39.86905652215079
 20
-118.354188338467
 30
0.0
 10
38.52960339748566
 20
-121.3307508377229
 30
0.0
 10
35.20594752809087
 20
-121.4795789626857
 30
0.0
  0
SPLINE
  5
51
330
1F
100
AcDbEntity
  8
Layer 8
 62
   250
370
     9
100
AcDbSpline
210
0.0
220
0.0
230
1.0
 70
    11
 71
     3
 72
    77
 73
    73
 74
     0
 42
0.0000000001
 43
0.0000000001
 40
0.0
 40
0.0
 40
0.0
 40
0.0
 40
1.0
 40
1.0
 40
1.0
 40
2.0
 40
2.0
 40
2.0
 40
3.0
 40
3.0
 40
3.0
 40
4.0
 40
4.0
 40
4.0
 40
5.0
 40
5.0
 40
5.0
 40
6.0
 40
6.0
 40
6.0
 40
7.0
 40
7.0
 40
7.0
 40
8.0
 40
8.0
 40
8.0
 40
9.0
 40
9.0
 40
9.0
 40
10.0
 40
10.0
 40
10.0
 40
11.0
 40
11.0
 40
11.0
 40
12.0
 40
12.0
 40
12.0
 40
13.0
 40
13.0
 40
13.0
 40
14.0
 40
14.0
 40
14.0
 40
15.0
 40
15.0
 40
15.0
 40
16.0
 40
16.0
 40
16.0
 40
17.0
 40
17.0
 40
17.0
 40
18.0
 40
18.0
 40
18.0
 40
19.0
 40
19.0
 40
19.0
 40
20.0
 40
20.0
 40
20.0
 40
21.0
 40
21.0
 40
21.0
 40
22.0
 40
22.0
 40
22.0
 40
23.0
 40
23.0
 40
23.0
 40
24.0
 40
24.0
 40
24.0
 40
24.0
 10
35.20594752809087
 20
-76.20378958598378
 30
0.0
 10
31.63407252898384
 20
-74.91394583630624
 30
0.0
 10
31.03876002913267
 20
-71.78855521208759
 30
0.0
 10
33.42001002853736
 20
-66.82761771332783
 30
0.0
 10
31.83233777415997
 20
-71.8371310584296
 30
0.0
 10
29.40165065454195
 20
-74.0695529328715
 30
0.0
 10
26.1274319053605
 20
-73.5248833366535
 30
0.0
 10
23.05147840135519
 20
-71.24181855857844
 30
0.0
 10
23.84505614638249
 20
-68.16707083799295
 30
0.0
 10
28.50868190476519
 20
-64.29753958896033
 30
0.0
 10
24.44036864623366
 20
-67.86941458806737
 30
0.0
 10
21.314978022015
 20
-68.31589896295576
 30
0.0
 10
19.13251003210923
 20
-65.63699271362547
 30
0.0
 10
17.84249402765743
 20
-62.21394583948124
 30
0.0
 10
20.22374402706212
 20
-60.08074271501454
 30
0.0
 10
26.2762600303233
 20
-59.23738334022538
 30
0.0
 10
20.17430690684878
 20
-59.98152396503934
 30
0.0
 10
17.19774440759292
 20
-58.7412895903494
 30
0.0
 10
17.34657253255572
 20
-55.51668021615556
 30
0.0
 10
17.94188503240689
 20
-51.94480521704853
 30
0.0
 10
21.01732177208942
 20
-51.20066459223456
 30
0.0
 10
26.57391628024888
 20
-53.28425834171366
 30
0.0
 10
20.86849364712663
 20
-51.79597709208573
 30
0.0
 10
18.73546277743419
 20
-49.41472709268104
 30
0.0
 10
20.17430690684878
 20
-46.1405083434996
 30
0.0
 10
22.30733777654122
 20
-42.96550834429335
 30
0.0
 10
25.58155652572267
 20
-43.70964896910731
 30
0.0
 10
29.99696315439312
 20
-48.37293021794149
 30
0.0
 10
25.53211940550933
 20
-44.65222709387167
 30
0.0
 10
24.78797878069537
 20
-41.67566459461581
 30
0.0
 10
27.76454127995123
 20
-39.44324272017391
 30
0.0
 10
30.93936902438321
 20
-37.95496147054598
 30
0.0
 10
33.27118190357456
 20
-39.93933647004989
 30
0.0
 10
34.7594631532025
 20
-45.39636771868563
 30
0.0
 10
34.51124402349025
 20
-39.7905083450871
 30
0.0
 10
36.1977905182943
 20
-37.21082084573202
 30
0.0
 10
39.81961940193746
 20
-37.6573052206204
 30
0.0
 10
42.89505614161999
 20
-38.99675834528554
 30
0.0
 10
43.0938381511189
 20
-41.92371146955379
 30
0.0
 10
40.41493190178863
 20
-46.43816459342518
 30
0.0
 10
43.39149440104449
 20
-40.78269584483905
 30
0.0
 10
46.36805690030035
 20
-39.19519584523592
 30
0.0
 10
49.34461939955621
 20
-41.67566459461581
 30
0.0
 10
51.0806030145736
 20
-44.0569145940205
 30
0.0
 10
49.69171276969513
 20
-46.78543021833837
 30
0.0
 10
45.177431900598
 20
-49.86121146756942
 30
0.0
 10
50.2870252695463
 20
-45.89246146856161
 30
0.0
 10
53.51180689851441
 20
-45.69402396861122
 30
0.0
 10
54.85126002317955
 20
-49.26589896771825
 30
0.0
 10
55.2477905135318
 20
-52.14324271699891
 30
0.0
 10
52.91649439866324
 20
-54.00359427903383
 30
0.0
 10
47.85633814992828
 20
-54.84695365382299
 30
0.0
 10
53.75950926390387
 20
-54.30125052895941
 30
0.0
 10
56.38897839302081
 20
-55.70271537235904
 30
0.0
 10
55.7442287729563
 20
-59.05134818402189
 30
0.0
 10
55.04952526835568
 20
-61.85427787082116
 30
0.0
 10
52.34564207675734
 20
-62.43718802692543
 30
0.0
 10
47.63309596248409
 20
-60.8000786523347
 30
0.0
 10
52.59386120646959
 20
-62.43718802692543
 30
0.0
 10
54.4542127685045
 20
-64.64480521387352
 30
0.0
 10
53.21415064858883
 20
-67.42293021317899
 30
0.0
 10
51.27938502407252
 20
-70.39949271243485
 30
0.0
 10
48.30282252481665
 20
-69.60574271263329
 30
0.0
 10
44.28446315082125
 20
-65.0416802137743
 30
0.0
 10
48.15399439985386
 20
-69.3080864627077
 30
0.0
 10
48.69935301516892
 20
-72.38386771193876
 30
0.0
 10
45.92157252541197
 20
-74.26902396146747
 30
0.0
 10
42.20086940134215
 20
-75.06277396126903
 30
0.0
 10
39.96844752690025
 20
-72.73009980820636
 30
0.0
 10
39.22430690208628
 20
-67.2741020882162
 30
0.0
 10
39.86905652215079
 20
-73.07839896176513
 30
0.0
 10
38.52960339748566
 20
-76.05496146102098
 30
0.0
 10
35.20594752809087
 20
-76.20378958598378
 30
0.0
  0
ENDSEC
  0
SECTION
  2
OBJECTS
  0
DICTIONARY
  5
C
330
0
100
AcDbDictionary
281
     1
  3
ACAD_GROUP
350
D
  3
ACAD_LAYOUT
350
1A
  3
ACAD_MLINESTYLE
350
17
  3
ACAD_PLOTSETTINGS
350
19
  3
ACAD_PLOTSTYLENAME
350
E
  3
ACAD_TABLESTYLE
350
53
  3
ACAD_VISUALSTYLE
350
2A
  0
DICTIONARY
  5
D
102
{ACAD_REACTORS
330
C
102
}
330
C
100
AcDbDictionary
281
     1
  0
DICTIONARY
  5
1A
102
{ACAD_REACTORS
330
C
102
}
330
C
100
AcDbDictionary
281
     1
  3
Layout1
350
1E
  3
Layout2
350
26
  3
Model
350
22
  0
DICTIONARY
  5
17
102
{ACAD_REACTORS
330
C
102
}
330
C
100
AcDbDictionary
281
     1
  3
Standard
350
18
  0
DICTIONARY
  5
19
102
{ACAD_REACTORS
330
C
102
}
330
C
100
AcDbDictionary
281
     1
  0
ACDBDICTIONARYWDFLT
  5
E
102
{ACAD_REACTORS
330
C
102
}
330
C
100
AcDbDictionary
281
     1
  3
Normal
350
F
100
AcDbDictionaryWithDefault
340
F
  0
DICTIONARY
  5
53
102
{ACAD_REACTORS
330
C
102
}
330
C
100
AcDbDictionary
281
     1
  0
DICTIONARY
  5
2A
102
{ACAD_REACTORS
330
C
102
}
330
C
100
AcDbDictionary
281
     1
  3
2dWireframe
350
2F
  3
3D Hidden
350
31
  3
3dWireframe
350
30
  3
Basic
350
32
  3
Brighten
350
36
  3
ColorChange
350
3A
  3
Conceptual
350
34
  3
Dim
350
35
  3
Facepattern
350
39
  3
Flat
350
2B
  3
FlatWithEdges
350
2C
  3
Gouraud
350
2D
  3
GouraudWithEdges
350
2E
  3
Linepattern
350
38
  3
Realistic
350
33
  3
Thicken
350
37
  0
LAYOUT
  5
1E
102
{ACAD_REACTORS
330
1A
102
}
330
1A
100
AcDbPlotSettings
  1

  2
none_device
  4

  6

 40
0.0
 41
0.0
 42
0.0
 43
0.0
 44
0.0
 45
0.0
 46
0.0
 47
0.0
 48
0.0
 49
0.0
140
0.0
141
0.0
142
1.0
143
1.0
 70
   688
 72
     0
 73
     0
 74
     5
  7

 75
    16
 76
     0
 77
     2
 78
   300
147
1.0
148
0.0
149
0.0
100
AcDbLayout
  1
Layout1
 70
     1
 71
     1
 10
0.0
 20
0.0
 11
12.0
 21
9.0
 12
0.0
 22
0.0
 32
0.0
 14
1.000000000000000E+20
 24
1.000000000000000E+20
 34
1.000000000000000E+20
 15
-1.000000000000000E+20
 25
-1.000000000000000E+20
 35
-1.000000000000000E+20
146
0.0
 13
0.0
 23
0.0
 33
0.0
 16
1.0
 26
0.0
 36
0.0
 17
0.0
 27
1.0
 37
0.0
 76
     0
330
1B
  0
LAYOUT
  5
26
102
{ACAD_REACTORS
330
1A
102
}
330
1A
100
AcDbPlotSettings
  1

  2
none_device
  4

  6

 40
0.0
 41
0.0
 42
0.0
 43
0.0
 44
0.0
 45
0.0
 46
0.0
 47
0.0
 48
0.0
 49
0.0
140
0.0
141
0.0
142
1.0
143
1.0
 70
   688
 72
     0
 73
     0
 74
     5
  7

 75
    16
 76
     0
 77
     2
 78
   300
147
1.0
148
0.0
149
0.0
100
AcDbLayout
  1
Layout2
 70
     1
 71
     2
 10
0.0
 20
0.0
 11
0.0
 21
0.0
 12
0.0
 22
0.0
 32
0.0
 14
0.0
 24
0.0
 34
0.0
 15
0.0
 25
0.0
 35
0.0
146
0.0
 13
0.0
 23
0.0
 33
0.0
 16
1.0
 26
0.0
 36
0.0
 17
0.0
 27
1.0
 37
0.0
 76
     0
330
23
  0
LAYOUT
  5
22
102
{ACAD_REACTORS
330
1A
102
}
330
1A
100
AcDbPlotSettings
  1

  2
none_device
  4

  6

 40
0.0
 41
0.0
 42
0.0
 43
0.0
 44
0.0
 45
0.0
 46
0.0
 47
0.0
 48
0.0
 49
0.0
140
0.0
141
0.0
142
1.0
143
1.0
 70
  1712
 72
     0
 73
     0
 74
     0
  7

 75
     0
 76
     0
 77
     2
 78
   300
147
1.0
148
0.0
149
0.0
100
AcDbLayout
  1
Model
 70
     1
 71
     0
 10
0.0
 20
0.0
 11
12.0
 21
9.0
 12
0.0
 22
0.0
 32
0.0
 14
1.000000000000000E+20
 24
1.000000000000000E+20
 34
1.000000000000000E+20
 15
-1.000000000000000E+20
 25
-1.000000000000000E+20
 35
-1.000000000000000E+20
146
0.0
 13
0.0
 23
0.0
 33
0.0
 16
1.0
 26
0.0
 36
0.0
 17
0.0
 27
1.0
 37
0.0
 76
     0
330
1F
331
29
  0
MLINESTYLE
  5
18
102
{ACAD_REACTORS
330
17
102
}
330
17
100
AcDbMlineStyle
  2
Standard
 70
     0
  3

 62
   256
 51
90.0
 52
90.0
 71
     2
 49
0.5
 62
   256
  6
BYLAYER
 49
-0.5
 62
   256
  6
BYLAYER
  0
ACDBPLACEHOLDER
  5
F
102
{ACAD_REACTORS
330
E
102
}
330
E
  0
VISUALSTYLE
  5
2F
102
{ACAD_REACTORS
330
2A
102
}
330
2A
100
AcDbVisualStyle
  2
2dWireframe
 70
     4
 71
     0
 72
     2
 73
     0
 90
        0
 40
-0.6
 41
-30.0
 62
     5
 63
     7
421
 16777215
 74
     1
 91
        4
 64
     7
 65
   257
 75
     1
175
     1
 42
1.0
 92
        0
 66
   257
 43
1.0
 76
     1
 77
     6
 78
     2
 67
     7
 79
     5
170
     0
171
     0
290
     0
174
     0
 93
        1
 44
0.0
173
     0
291
     0
 45
0.0
1001
ACAD
1000
AcDbSavedByObjectVersion
1070
     0
  0
VISUALSTYLE
  5
31
102
{ACAD_REACTORS
330
2A
102
}
330
2A
100
AcDbVisualStyle
  2
3D Hidden
 70
     6
 71
     1
 72
     2
 73
     2
 90
        0
 40
-0.6
 41
-30.0
 62
     5
 63
     7
421
 16777215
 74
     2
 91
        2
 64
     7
 65
   257
 75
     2
175
     1
 42
40.0
 92
        0
 66
   257
 43
1.0
 76
     1
 77
     6
 78
     2
 67
     7
 79
     3
170
     0
171
     0
290
     0
174
     0
 93
        1
 44
0.0
173
     0
291
     0
 45
0.0
1001
ACAD
1000
AcDbSavedByObjectVersion
1070
     0
  0
VISUALSTYLE
  5
30
102
{ACAD_REACTORS
330
2A
102
}
330
2A
100
AcDbVisualStyle
  2
3dWireframe
 70
     5
 71
     0
 72
     2
 73
     0
 90
        0
 40
-0.6
 41
-30.0
 62
     5
 63
     7
421
 16777215
 74
     1
 91
        4
 64
     7
 65
   257
 75
     1
175
     1
 42
1.0
 92
        0
 66
   257
 43
1.0
 76
     1
 77
     6
 78
     2
 67
     7
 79
     5
170
     0
171
     0
290
     0
174
     0
 93
        1
 44
0.0
173
     0
291
     0
 45
0.0
1001
ACAD
1000
AcDbSavedByObjectVersion
1070
     0
  0
VISUALSTYLE
  5
32
102
{ACAD_REACTORS
330
2A
102
}
330
2A
100
AcDbVisualStyle
  2
Basic
 70
     7
 71
     1
 72
     0
 73
     1
 90
        0
 40
-0.6
 41
-30.0
 62
     5
 63
     7
421
 16777215
 74
     0
 91
        4
 64
     7
 65
   257
 75
     1
175
     1
 42
1.0
 92
        8
 66
     7
 43
1.0
 76
     1
 77
     6
 78
     2
 67
     7
 79
     5
170
     0
171
     0
290
     0
174
     0
 93
        1
 44
0.0
173
     0
291
     1
 45
0.0
1001
ACAD
1000
AcDbSavedByObjectVersion
1070
     0
  0
VISUALSTYLE
  5
36
102
{ACAD_REACTORS
330
2A
102
}
330
2A
100
AcDbVisualStyle
  2
Brighten
 70
    12
 71
     2
 72
     2
 73
     0
 90
        0
 40
-0.6
 41
-30.0
 62
     5
 63
     7
421
 16777215
 74
     1
 91
        4
 64
     7
 65
   257
 75
     1
175
     1
 42
1.0
 92
        8
 66
     7
 43
1.0
 76
     1
 77
     6
 78
     2
 67
     7
 79
     5
170
     0
171
     0
290
     0
174
     0
 93
        1
 44
50.0
173
     0
291
     1
 45
0.0
1001
ACAD
1000
AcDbSavedByObjectVersion
1070
     0
  0
VISUALSTYLE
  5
3A
102
{ACAD_REACTORS
330
2A
102
}
330
2A
100
AcDbVisualStyle
  2
ColorChange
 70
    16
 71
     2
 72
     2
 73
     3
 90
        0
 40
-0.6
 41
-30.0
 62
     5
 63
     8
421
  8421504
 74
     1
 91
        4
 64
     7
 65
   257
 75
     1
175
     1
 42
1.0
 92
        8
 66
     8
424
  8421504
 43
1.0
 76
     1
 77
     6
 78
     2
 67
     7
 79
     5
170
     0
171
     0
290
     0
174
     0
 93
        1
 44
0.0
173
     0
291
     1
 45
0.0
1001
ACAD
1000
AcDbSavedByObjectVersion
1070
     0
  0
VISUALSTYLE
  5
34
102
{ACAD_REACTORS
330
2A
102
}
330
2A
100
AcDbVisualStyle
  2
Conceptual
 70
     9
 71
     3
 72
     2
 73
     0
 90
        0
 40
-0.6
 41
-30.0
 62
     5
 63
     7
421
 16777215
 74
     2
 91
        2
 64
     7
 65
   257
 75
     1
175
     1
 42
40.0
 92
        8
 66
     7
 43
1.0
 76
     1
 77
     6
 78
     2
 67
     7
 79
     3
170
     0
171
     0
290
     0
174
     0
 93
        1
 44
0.0
173
     0
291
     0
 45
0.0
1001
ACAD
1000
AcDbSavedByObjectVersion
1070
     0
  0
VISUALSTYLE
  5
35
102
{ACAD_REACTORS
330
2A
102
}
330
2A
100
AcDbVisualStyle
  2
Dim
 70
    11
 71
     2
 72
     2
 73
     0
 90
        0
 40
-0.6
 41
-30.0
 62
     5
 63
     7
421
 16777215
 74
     1
 91
        4
 64
     7
 65
   257
 75
     1
175
     1
 42
1.0
 92
        8
 66
     7
 43
1.0
 76
     1
 77
     6
 78
     2
 67
     7
 79
     5
170
     0
171
     0
290
     0
174
     0
 93
        1
 44
-50.0
173
     0
291
     1
 45
0.0
1001
ACAD
1000
AcDbSavedByObjectVersion
1070
     0
  0
VISUALSTYLE
  5
39
102
{ACAD_REACTORS
330
2A
102
}
330
2A
100
AcDbVisualStyle
  2
Facepattern
 70
    15
 71
     2
 72
     2
 73
     0
 90
        0
 40
-0.6
 41
-30.0
 62
     5
 63
     7
421
 16777215
 74
     1
 91
        4
 64
     7
 65
   257
 75
     1
175
     1
 42
1.0
 92
        8
 66
     7
 43
1.0
 76
     1
 77
     6
 78
     2
 67
     7
 79
     5
170
     0
171
     0
290
     0
174
     0
 93
        1
 44
0.0
173
     0
291
     1
 45
0.0
1001
ACAD
1000
AcDbSavedByObjectVersion
1070
     0
  0
VISUALSTYLE
  5
2B
102
{ACAD_REACTORS
330
2A
102
}
330
2A
100
AcDbVisualStyle
  2
Flat
 70
     0
 71
     2
 72
     1
 73
     1
 90
        2
 40
-0.6
 41
30.0
 62
     5
 63
     7
421
 16777215
 74
     0
 91
        4
 64
     7
 65
   257
 75
     1
175
     1
 42
1.0
 92
        8
 66
     7
 43
1.0
 76
     1
 77
     6
 78
     2
 67
     7
 79
     5
170
     0
171
     0
290
     0
174
     0
 93
       13
 44
0.0
173
     0
291
     1
 45
0.0
1001
ACAD
1000
AcDbSavedByObjectVersion
1070
     0
  0
VISUALSTYLE
  5
2C
102
{ACAD_REACTORS
330
2A
102
}
330
2A
100
AcDbVisualStyle
  2
FlatWithEdges
 70
     1
 71
     2
 72
     1
 73
     1
 90
        2
 40
-0.6
 41
30.0
 62
     5
 63
     7
421
 16777215
 74
     1
 91
        4
 64
     7
 65
   257
 75
     1
175
     1
 42
1.0
 92
        0
 66
   257
 43
1.0
 76
     1
 77
     6
 78
     2
 67
     7
 79
     5
170
     0
171
     0
290
     0
174
     0
 93
       13
 44
0.0
173
     0
291
     1
 45
0.0
1001
ACAD
1000
AcDbSavedByObjectVersion
1070
     0
  0
VISUALSTYLE
  5
2D
102
{ACAD_REACTORS
330
2A
102
}
330
2A
100
AcDbVisualStyle
  2
Gouraud
 70
     2
 71
     2
 72
     2
 73
     1
 90
        2
 40
-0.6
 41
30.0
 62
     5
 63
     7
421
 16777215
 74
     0
 91
        4
 64
     7
 65
   257
 75
     1
175
     1
 42
1.0
 92
        0
 66
     7
 43
1.0
 76
     1
 77
     6
 78
     2
 67
     7
 79
     5
170
     0
171
     0
290
     0
174
     0
 93
       13
 44
0.0
173
     0
291
     1
 45
0.0
1001
ACAD
1000
AcDbSavedByObjectVersion
1070
     0
  0
VISUALSTYLE
  5
2E
102
{ACAD_REACTORS
330
2A
102
}
330
2A
100
AcDbVisualStyle
  2
GouraudWithEdges
 70
     3
 71
     2
 72
     2
 73
     1
 90
        2
 40
-0.6
 41
30.0
 62
     5
 63
     7
421
 16777215
 74
     1
 91
        4
 64
     7
 65
   257
 75
     1
175
     1
 42
1.0
 92
        0
 66
   257
 43
1.0
 76
     1
 77
     6
 78
     2
 67
     7
 79
     5
170
     0
171
     0
290
     0
174
     0
 93
       13
 44
0.0
173
     0
291
     1
 45
0.0
1001
ACAD
1000
AcDbSavedByObjectVersion
1070
     0
  0
VISUALSTYLE
  5
38
102
{ACAD_REACTORS
330
2A
102
}
330
2A
100
AcDbVisualStyle
  2
Linepattern
 70
    14
 71
     2
 72
     2
 73
     0
 90
        0
 40
-0.6
 41
-30.0
 62
     5
 63
     7
421
 16777215
 74
     1
 91
        4
 64
     7
 65
   257
 75
     7
175
     7
 42
1.0
 92
        8
 66
     7
 43
1.0
 76
     1
 77
     6
 78
     2
 67
     7
 79
     5
170
     0
171
     0
290
     0
174
     0
 93
        1
 44
0.0
173
     0
291
     1
 45
0.0
1001
ACAD
1000
AcDbSavedByObjectVersion
1070
     0
  0
VISUALSTYLE
  5
33
102
{ACAD_REACTORS
330
2A
102
}
330
2A
100
AcDbVisualStyle
  2
Realistic
 70
     8
 71
     2
 72
     2
 73
     0
 90
        0
 40
-0.6
 41
-30.0
 62
     5
 63
     7
421
 16777215
 74
     1
 91
        0
 64
     7
 65
   257
 75
     1
175
     1
 42
1.0
 92
        8
 66
     8
424
  7895160
 43
1.0
 76
     1
 77
     6
 78
     2
 67
     7
 79
     5
170
     0
171
     0
290
     0
174
     0
 93
       13
 44
0.0
173
     0
291
     0
 45
0.0
1001
ACAD
1000
AcDbSavedByObjectVersion
1070
     0
  0
VISUALSTYLE
  5
37
102
{ACAD_REACTORS
330
2A
102
}
330
2A
100
AcDbVisualStyle
  2
Thicken
 70
    13
 71
     2
 72
     2
 73
     0
 90
        0
 40
-0.6
 41
-30.0
 62
     5
 63
     7
421
 16777215
 74
     1
 91
        4
 64
     7
 65
   257
 75
     1
175
     1
 42
1.0
 92
       12
 66
     7
 43
1.0
 76
     1
 77
     6
 78
     2
 67
     7
 79
     5
170
     0
171
     0
290
     0
174
     0
 93
        1
 44
0.0
173
     0
291
     1
 45
0.0
1001
ACAD
1000
AcDbSavedByObjectVersion
1070
     0
  0
ENDSEC
  0
EOF
