  0
SECTION
  2
HEADER
  9
$ACADVER
  1
AC1014
  9
$HANDSEED
  5
FFFF
  9
$MEASUREMENT
 70
     1
  0
ENDSEC
  0
SECTION
  2
TABLES
  0
TABLE
  2
VPORT
  5
8
330
0
100
AcDbSymbolTable
 70
     4
  0
VPORT
  5
2E
330
8
100
AcDbSymbolTableRecord
100
AcDbViewportTableRecord
  2
*ACTIVE
 70
     0
 10
0.0
 20
0.0
 11
1.0
 21
1.0
 12
210.0
 22
148.5
 13
0.0
 23
0.0
 14
10.0
 24
10.0
 15
10.0
 25
10.0
 16
0.0
 26
0.0
 36
1.0
 17
0.0
 27
0.0
 37
0.0
 40
341.0
 41
1.24
 42
50.0
 43
0.0
 44
0.0
 50
0.0
 51
0.0
 71
     0
 72
   100
 73
     1
 74
     3
 75
     0
 76
     0
 77
     0
 78
     0
  0
ENDTAB
  0
TABLE
  2
LTYPE
  5
5
330
0
100
AcDbSymbolTable
 70
     1
  0
LTYPE
  5
14
330
5
100
AcDbSymbolTableRecord
100
AcDbLinetypeTableRecord
  2
BYBLOCK
 70
     0
  3

 72
    65
 73
     0
 40
0.0
  0
LTYPE
  5
15
330
5
100
AcDbSymbolTableRecord
100
AcDbLinetypeTableRecord
  2
BYLAYER
 70
     0
  3

 72
    65
 73
     0
 40
0.0
  0
LTYPE
  5
16
330
5
100
AcDbSymbolTableRecord
100
AcDbLinetypeTableRecord
  2
CONTINUOUS
 70
     0
  3
Solid line
 72
    65
 73
     0
 40
0.0
  0
ENDTAB
  0
TABLE
  2
LAYER
  5
2
100
AcDbSymbolTable
 70
2
  0
LAYER
  5
50
100
AcDbSymbolTableRecord
100
AcDbLayerTableRecord
  2
0
 70
0
  6
CONTINUOUS
  0
LAYER
  5
51
100
AcDbSymbolTableRecord
100
AcDbLayerTableRecord
  2
Layer_1
 70
0
  6
CONTINUOUS
  0
ENDTAB
  0
TABLE
  2
STYLE
  5
3
330
0
100
AcDbSymbolTable
 70
     1
  0
STYLE
  5
11
330
3
100
AcDbSymbolTableRecord
100
AcDbTextStyleTableRecord
  2
STANDARD
 70
     0
 40
0.0
 41
1.0
 50
0.0
 71
     0
 42
2.5
  3
txt
  4

  0
ENDTAB
  0
TABLE
  2
VIEW
  5
6
330
0
100
AcDbSymbolTable
 70
     0
  0
ENDTAB
  0
TABLE
  2
UCS
  5
7
330
0
100
AcDbSymbolTable
 70
     0
  0
ENDTAB
  0
TABLE
  2
APPID
  5
9
330
0
100
AcDbSymbolTable
 70
     2
  0
APPID
  5
12
330
9
100
AcDbSymbolTableRecord
100
AcDbRegAppTableRecord
  2
ACAD
 70
     0
  0
ENDTAB
  0
TABLE
  2
DIMSTYLE
  5
A
330
0
100
AcDbSymbolTable
 70
     1
  0
DIMSTYLE
105
27
330
A
100
AcDbSymbolTableRecord
100
AcDbDimStyleTableRecord
  2
ISO-25
 70
     0
  3

  4

  5

  6

  7

 40
1.0
 41
2.5
 42
0.625
 43
3.75
 44
1.25
 45
0.0
 46
0.0
 47
0.0
 48
0.0
140
2.5
141
2.5
142
0.0
143
0.03937007874016
144
1.0
145
0.0
146
1.0
147
0.625
 71
     0
 72
     0
 73
     0
 74
     0
 75
     0
 76
     0
 77
     1
 78
     8
170
     0
171
     3
172
     1
173
     0
174
     0
175
     0
176
     0
177
     0
178
     0
270
     2
271
     2
272
     2
273
     2
274
     3
340
11
275
     0
280
     0
281
     0
282
     0
283
     0
284
     8
285
     0
286
     0
287
     3
288
     0
  0
ENDTAB
  0
TABLE
  2
BLOCK_RECORD
  5
1
330
0
100
AcDbSymbolTable
 70
     1
  0
BLOCK_RECORD
  5
1F
330
1
100
AcDbSymbolTableRecord
100
AcDbBlockTableRecord
  2
*MODEL_SPACE
  0
BLOCK_RECORD
  5
1B
330
1
100
AcDbSymbolTableRecord
100
AcDbBlockTableRecord
  2
*PAPER_SPACE
  0
ENDTAB
  0
ENDSEC
  0
SECTION
  2
BLOCKS
  0
BLOCK
  5
20
330
1F
100
AcDbEntity
  8
0
100
AcDbBlockBegin
  2
*MODEL_SPACE
 70
     0
 10
0.0
 20
0.0
 30
0.0
  3
*MODEL_SPACE
  1

  0
ENDBLK
  5
21
330
1F
100
AcDbEntity
  8
0
100
AcDbBlockEnd
  0
BLOCK
  5
1C
330
1B
100
AcDbEntity
 67
     1
  8
0
100
AcDbBlockBegin
  2
*PAPER_SPACE
  1

  0
ENDBLK
  5
1D
330
1B
100
AcDbEntity
 67
     1
  8
0
100
AcDbBlockEnd
  0
ENDSEC
  0
SECTION
  2
ENTITIES
  0
LWPOLYLINE
  5
100
100
AcDbEntity
  8
Layer_1
 62
5
100
AcDbPolyline
 90
5
 70
1
 10
18.351200
 20
628.524341
 30
0.0
 10
-7.065232
 20
628.524341
 30
0.0
 10
-7.065232
 20
602.048885
 30
0.0
 10
18.351200
 20
602.048885
 30
0.0
 10
18.351200
 20
628.524341
 30
0.0
  0
LWPOLYLINE
  5
101
100
AcDbEntity
  8
Layer_1
 62
5
100
AcDbPolyline
 90
5
 70
1
 10
-14.478344
 20
661.883397
 30
0.0
 10
-39.894776
 20
661.883397
 30
0.0
 10
-39.894776
 20
635.407941
 30
0.0
 10
-14.478344
 20
635.407941
 30
0.0
 10
-14.478344
 20
661.883397
 30
0.0
  0
LWPOLYLINE
  5
102
100
AcDbEntity
  8
Layer_1
 62
5
100
AcDbPolyline
 90
5
 70
1
 10
-14.789864
 20
628.804101
 30
0.0
 10
-40.206304
 20
628.804101
 30
0.0
 10
-40.206304
 20
602.328645
 30
0.0
 10
-14.789864
 20
602.328645
 30
0.0
 10
-14.789864
 20
628.804101
 30
0.0
  0
LWPOLYLINE
  5
103
100
AcDbEntity
  8
Layer_1
 62
5
100
AcDbPolyline
 90
5
 70
1
 10
-46.622184
 20
693.217117
 30
0.0
 10
-72.038624
 20
693.217117
 30
0.0
 10
-72.038624
 20
666.741661
 30
0.0
 10
-46.622184
 20
666.741661
 30
0.0
 10
-46.622184
 20
693.217117
 30
0.0
  0
LWPOLYLINE
  5
104
100
AcDbEntity
  8
Layer_1
 62
5
100
AcDbPolyline
 90
5
 70
1
 10
-46.933760
 20
661.135061
 30
0.0
 10
-72.350200
 20
661.135061
 30
0.0
 10
-72.350200
 20
634.659605
 30
0.0
 10
-46.933760
 20
634.659605
 30
0.0
 10
-46.933760
 20
661.135061
 30
0.0
  0
LWPOLYLINE
  5
105
100
AcDbEntity
  8
Layer_1
 62
5
100
AcDbPolyline
 90
5
 70
1
 10
-46.871944
 20
629.176565
 30
0.0
 10
-72.288384
 20
629.176565
 30
0.0
 10
-72.288384
 20
602.701109
 30
0.0
 10
-46.871944
 20
602.701109
 30
0.0
 10
-46.871944
 20
629.176565
 30
0.0
  0
LWPOLYLINE
  5
106
100
AcDbEntity
  8
Layer_1
 62
5
100
AcDbPolyline
 90
5
 70
1
 10
-79.141960
 20
628.741453
 30
0.0
 10
-104.558400
 20
628.741453
 30
0.0
 10
-104.558400
 20
602.265997
 30
0.0
 10
-79.141960
 20
602.265997
 30
0.0
 10
-79.141960
 20
628.741453
 30
0.0
  0
LWPOLYLINE
  5
107
100
AcDbEntity
  8
Layer_1
 62
5
100
AcDbPolyline
 90
5
 70
1
 10
-79.141088
 20
661.198557
 30
0.0
 10
-104.557520
 20
661.198557
 30
0.0
 10
-104.557520
 20
634.723101
 30
0.0
 10
-79.141088
 20
634.723101
 30
0.0
 10
-79.141088
 20
661.198557
 30
0.0
  0
LWPOLYLINE
  5
108
100
AcDbEntity
  8
Layer_1
 62
5
100
AcDbPolyline
 90
5
 70
1
 10
-78.206512
 20
693.778365
 30
0.0
 10
-103.622952
 20
693.778365
 30
0.0
 10
-103.622952
 20
667.302917
 30
0.0
 10
-78.206512
 20
667.302917
 30
0.0
 10
-78.206512
 20
693.778365
 30
0.0
  0
LWPOLYLINE
  5
109
100
AcDbEntity
  8
Layer_1
 62
5
100
AcDbPolyline
 90
5
 70
1
 10
-79.265544
 20
726.049269
 30
0.0
 10
-104.681984
 20
726.049269
 30
0.0
 10
-104.681984
 20
699.573813
 30
0.0
 10
-79.265544
 20
699.573813
 30
0.0
 10
-79.265544
 20
726.049269
 30
0.0
  0
LWPOLYLINE
  5
10a
100
AcDbEntity
  8
Layer_1
 62
5
100
AcDbPolyline
 90
5
 70
1
 10
-111.223168
 20
757.692797
 30
0.0
 10
-136.639600
 20
757.692797
 30
0.0
 10
-136.639600
 20
731.217341
 30
0.0
 10
-111.223168
 20
731.217341
 30
0.0
 10
-111.223168
 20
757.692797
 30
0.0
  0
LWPOLYLINE
  5
10b
100
AcDbEntity
  8
Layer_1
 62
5
100
AcDbPolyline
 90
5
 70
1
 10
-110.911640
 20
726.359085
 30
0.0
 10
-136.328080
 20
726.359085
 30
0.0
 10
-136.328080
 20
699.883629
 30
0.0
 10
-110.911640
 20
699.883629
 30
0.0
 10
-110.911640
 20
726.359085
 30
0.0
  0
LWPOLYLINE
  5
10c
100
AcDbEntity
  8
Layer_1
 62
5
100
AcDbPolyline
 90
5
 70
1
 10
-111.223168
 20
694.151709
 30
0.0
 10
-136.639600
 20
694.151709
 30
0.0
 10
-136.639600
 20
667.676253
 30
0.0
 10
-111.223168
 20
667.676253
 30
0.0
 10
-111.223168
 20
694.151709
 30
0.0
  0
LWPOLYLINE
  5
10d
100
AcDbEntity
  8
Layer_1
 62
5
100
AcDbPolyline
 90
5
 70
1
 10
-111.285832
 20
661.883397
 30
0.0
 10
-136.702272
 20
661.883397
 30
0.0
 10
-136.702272
 20
635.407941
 30
0.0
 10
-111.285832
 20
635.407941
 30
0.0
 10
-111.285832
 20
661.883397
 30
0.0
  0
LWPOLYLINE
  5
10e
100
AcDbEntity
  8
Layer_1
 62
5
100
AcDbPolyline
 90
5
 70
1
 10
-111.346752
 20
629.052981
 30
0.0
 10
-136.763184
 20
629.052981
 30
0.0
 10
-136.763184
 20
602.577525
 30
0.0
 10
-111.346752
 20
602.577525
 30
0.0
 10
-111.346752
 20
629.052981
 30
0.0
  0
LWPOLYLINE
  5
10f
100
AcDbEntity
  8
Layer_1
 62
5
100
AcDbPolyline
 90
5
 70
1
 10
17.665504
 20
597.470381
 30
0.0
 10
-7.750928
 20
597.470381
 30
0.0
 10
-7.750928
 20
570.994933
 30
0.0
 10
17.665504
 20
570.994933
 30
0.0
 10
17.665504
 20
597.470381
 30
0.0
  0
LWPOLYLINE
  5
110
100
AcDbEntity
  8
Layer_1
 62
5
100
AcDbPolyline
 90
5
 70
1
 10
17.354864
 20
564.391085
 30
0.0
 10
-8.061576
 20
564.391085
 30
0.0
 10
-8.061576
 20
537.915637
 30
0.0
 10
17.354864
 20
537.915637
 30
0.0
 10
17.354864
 20
564.391085
 30
0.0
  0
LWPOLYLINE
  5
111
100
AcDbEntity
  8
Layer_1
 62
5
100
AcDbPolyline
 90
5
 70
1
 10
17.790800
 20
531.998341
 30
0.0
 10
-7.625640
 20
531.998341
 30
0.0
 10
-7.625640
 20
505.522885
 30
0.0
 10
17.790800
 20
505.522885
 30
0.0
 10
17.790800
 20
531.998341
 30
0.0
  0
LWPOLYLINE
  5
112
100
AcDbEntity
  8
Layer_1
 62
5
100
AcDbPolyline
 90
5
 70
1
 10
-14.353928
 20
597.283301
 30
0.0
 10
-39.770360
 20
597.283301
 30
0.0
 10
-39.770360
 20
570.807845
 30
0.0
 10
-14.353928
 20
570.807845
 30
0.0
 10
-14.353928
 20
597.283301
 30
0.0
  0
LWPOLYLINE
  5
113
100
AcDbEntity
  8
Layer_1
 62
5
100
AcDbPolyline
 90
5
 70
1
 10
-14.602752
 20
564.266629
 30
0.0
 10
-40.019192
 20
564.266629
 30
0.0
 10
-40.019192
 20
537.791173
 30
0.0
 10
-14.602752
 20
537.791173
 30
0.0
 10
-14.602752
 20
564.266629
 30
0.0
  0
LWPOLYLINE
  5
114
100
AcDbEntity
  8
Layer_1
 62
5
100
AcDbPolyline
 90
5
 70
1
 10
-14.665448
 20
532.059277
 30
0.0
 10
-40.081888
 20
532.059277
 30
0.0
 10
-40.081888
 20
505.583821
 30
0.0
 10
-14.665448
 20
505.583821
 30
0.0
 10
-14.665448
 20
532.059277
 30
0.0
  0
LWPOLYLINE
  5
115
100
AcDbEntity
  8
Layer_1
 62
5
100
AcDbPolyline
 90
5
 70
1
 10
-46.747480
 20
597.345093
 30
0.0
 10
-72.163920
 20
597.345093
 30
0.0
 10
-72.163920
 20
570.869637
 30
0.0
 10
-46.747480
 20
570.869637
 30
0.0
 10
-46.747480
 20
597.345093
 30
0.0
  0
LWPOLYLINE
  5
116
100
AcDbEntity
  8
Layer_1
 62
5
100
AcDbPolyline
 90
5
 70
1
 10
-47.307928
 20
564.827053
 30
0.0
 10
-72.724368
 20
564.827053
 30
0.0
 10
-72.724368
 20
538.351597
 30
0.0
 10
-47.307928
 20
538.351597
 30
0.0
 10
-47.307928
 20
564.827053
 30
0.0
  0
LWPOLYLINE
  5
117
100
AcDbEntity
  8
Layer_1
 62
5
100
AcDbPolyline
 90
5
 70
1
 10
-47.182640
 20
532.309005
 30
0.0
 10
-72.599072
 20
532.309005
 30
0.0
 10
-72.599072
 20
505.833557
 30
0.0
 10
-47.182640
 20
505.833557
 30
0.0
 10
-47.182640
 20
532.309005
 30
0.0
  0
LWPOLYLINE
  5
118
100
AcDbEntity
  8
Layer_1
 62
5
100
AcDbPolyline
 90
5
 70
1
 10
-79.389960
 20
532.247213
 30
0.0
 10
-104.806400
 20
532.247213
 30
0.0
 10
-104.806400
 20
505.771765
 30
0.0
 10
-79.389960
 20
505.771765
 30
0.0
 10
-79.389960
 20
532.247213
 30
0.0
  0
LWPOLYLINE
  5
119
100
AcDbEntity
  8
Layer_1
 62
5
100
AcDbPolyline
 90
5
 70
1
 10
-79.140256
 20
565.075925
 30
0.0
 10
-104.556688
 20
565.075925
 30
0.0
 10
-104.556688
 20
538.600469
 30
0.0
 10
-79.140256
 20
538.600469
 30
0.0
 10
-79.140256
 20
565.075925
 30
0.0
  0
LWPOLYLINE
  5
11a
100
AcDbEntity
  8
Layer_1
 62
5
100
AcDbPolyline
 90
5
 70
1
 10
-78.829560
 20
597.407741
 30
0.0
 10
-104.246000
 20
597.407741
 30
0.0
 10
-104.246000
 20
570.932285
 30
0.0
 10
-78.829560
 20
570.932285
 30
0.0
 10
-78.829560
 20
597.407741
 30
0.0
  0
LWPOLYLINE
  5
11b
100
AcDbEntity
  8
Layer_1
 62
5
100
AcDbPolyline
 90
5
 70
1
 10
-111.408544
 20
597.096189
 30
0.0
 10
-136.824976
 20
597.096189
 30
0.0
 10
-136.824976
 20
570.620733
 30
0.0
 10
-111.408544
 20
570.620733
 30
0.0
 10
-111.408544
 20
597.096189
 30
0.0
  0
LWPOLYLINE
  5
11c
100
AcDbEntity
  8
Layer_1
 62
5
100
AcDbPolyline
 90
5
 70
1
 10
-111.533832
 20
564.639941
 30
0.0
 10
-136.950272
 20
564.639941
 30
0.0
 10
-136.950272
 20
538.164485
 30
0.0
 10
-111.533832
 20
538.164485
 30
0.0
 10
-111.533832
 20
564.639941
 30
0.0
  0
LWPOLYLINE
  5
11d
100
AcDbEntity
  8
Layer_1
 62
5
100
AcDbPolyline
 90
5
 70
1
 10
-111.472064
 20
531.811253
 30
0.0
 10
-136.888504
 20
531.811253
 30
0.0
 10
-136.888504
 20
505.335797
 30
0.0
 10
-111.472064
 20
505.335797
 30
0.0
 10
-111.472064
 20
531.811253
 30
0.0
  0
LWPOLYLINE
  5
11e
100
AcDbEntity
  8
Layer_1
 62
5
100
AcDbPolyline
 90
5
 70
1
 10
17.977912
 20
499.853613
 30
0.0
 10
-7.438528
 20
499.853613
 30
0.0
 10
-7.438528
 20
473.378157
 30
0.0
 10
17.977912
 20
473.378157
 30
0.0
 10
17.977912
 20
499.853613
 30
0.0
  0
LWPOLYLINE
  5
11f
100
AcDbEntity
  8
Layer_1
 62
5
100
AcDbPolyline
 90
5
 70
1
 10
-14.540104
 20
499.729173
 30
0.0
 10
-39.956544
 20
499.729173
 30
0.0
 10
-39.956544
 20
473.253717
 30
0.0
 10
-14.540104
 20
473.253717
 30
0.0
 10
-14.540104
 20
499.729173
 30
0.0
  0
LWPOLYLINE
  5
120
100
AcDbEntity
  8
Layer_1
 62
5
100
AcDbPolyline
 90
5
 70
1
 10
-13.978880
 20
468.083053
 30
0.0
 10
-39.395312
 20
468.083053
 30
0.0
 10
-39.395312
 20
441.607605
 30
0.0
 10
-13.978880
 20
441.607605
 30
0.0
 10
-13.978880
 20
468.083053
 30
0.0
  0
LWPOLYLINE
  5
121
100
AcDbEntity
  8
Layer_1
 62
5
100
AcDbPolyline
 90
5
 70
1
 10
-46.808416
 20
499.603877
 30
0.0
 10
-72.224856
 20
499.603877
 30
0.0
 10
-72.224856
 20
473.128429
 30
0.0
 10
-46.808416
 20
473.128429
 30
0.0
 10
-46.808416
 20
499.603877
 30
0.0
  0
LWPOLYLINE
  5
122
100
AcDbEntity
  8
Layer_1
 62
5
100
AcDbPolyline
 90
5
 70
1
 10
-46.186248
 20
467.521773
 30
0.0
 10
-71.602688
 20
467.521773
 30
0.0
 10
-71.602688
 20
441.046325
 30
0.0
 10
-46.186248
 20
441.046325
 30
0.0
 10
-46.186248
 20
467.521773
 30
0.0
  0
LWPOLYLINE
  5
123
100
AcDbEntity
  8
Layer_1
 62
5
100
AcDbPolyline
 90
5
 70
1
 10
-45.812912
 20
435.128173
 30
0.0
 10
-71.229344
 20
435.128173
 30
0.0
 10
-71.229344
 20
408.652717
 30
0.0
 10
-45.812912
 20
408.652717
 30
0.0
 10
-45.812912
 20
435.128173
 30
0.0
  0
LWPOLYLINE
  5
124
100
AcDbEntity
  8
Layer_1
 62
5
100
AcDbPolyline
 90
5
 70
1
 10
-79.514424
 20
435.190869
 30
0.0
 10
-104.930864
 20
435.190869
 30
0.0
 10
-104.930864
 20
408.715413
 30
0.0
 10
-79.514424
 20
408.715413
 30
0.0
 10
-79.514424
 20
435.190869
 30
0.0
  0
LWPOLYLINE
  5
125
100
AcDbEntity
  8
Layer_1
 62
5
100
AcDbPolyline
 90
5
 70
1
 10
-79.141088
 20
467.770701
 30
0.0
 10
-104.557520
 20
467.770701
 30
0.0
 10
-104.557520
 20
441.295245
 30
0.0
 10
-79.141088
 20
441.295245
 30
0.0
 10
-79.141088
 20
467.770701
 30
0.0
  0
LWPOLYLINE
  5
126
100
AcDbEntity
  8
Layer_1
 62
5
100
AcDbPolyline
 90
5
 70
1
 10
-79.452608
 20
499.603877
 30
0.0
 10
-104.869048
 20
499.603877
 30
0.0
 10
-104.869048
 20
473.128429
 30
0.0
 10
-79.452608
 20
473.128429
 30
0.0
 10
-79.452608
 20
499.603877
 30
0.0
  0
LWPOLYLINE
  5
127
100
AcDbEntity
  8
Layer_1
 62
5
100
AcDbPolyline
 90
5
 70
1
 10
-111.346752
 20
499.416797
 30
0.0
 10
-136.763184
 20
499.416797
 30
0.0
 10
-136.763184
 20
472.941341
 30
0.0
 10
-111.346752
 20
472.941341
 30
0.0
 10
-111.346752
 20
499.416797
 30
0.0
  0
LWPOLYLINE
  5
128
100
AcDbEntity
  8
Layer_1
 62
5
100
AcDbPolyline
 90
5
 70
1
 10
-111.284104
 20
467.335549
 30
0.0
 10
-136.700536
 20
467.335549
 30
0.0
 10
-136.700536
 20
440.860093
 30
0.0
 10
-111.284104
 20
440.860093
 30
0.0
 10
-111.284104
 20
467.335549
 30
0.0
  0
LWPOLYLINE
  5
129
100
AcDbEntity
  8
Layer_1
 62
5
100
AcDbPolyline
 90
5
 70
1
 10
-111.596480
 20
435.502389
 30
0.0
 10
-137.012920
 20
435.502389
 30
0.0
 10
-137.012920
 20
409.026933
 30
0.0
 10
-111.596480
 20
409.026933
 30
0.0
 10
-111.596480
 20
435.502389
 30
0.0
  0
LWPOLYLINE
  5
12a
100
AcDbEntity
  8
Layer_1
 62
5
100
AcDbPolyline
 90
5
 70
1
 10
-79.638840
 20
402.983493
 30
0.0
 10
-105.055272
 20
402.983493
 30
0.0
 10
-105.055272
 20
376.508037
 30
0.0
 10
-79.638840
 20
376.508037
 30
0.0
 10
-79.638840
 20
402.983493
 30
0.0
  0
LWPOLYLINE
  5
12b
100
AcDbEntity
  8
Layer_1
 62
5
100
AcDbPolyline
 90
5
 70
1
 10
-111.908000
 20
402.237693
 30
0.0
 10
-137.324440
 20
402.237693
 30
0.0
 10
-137.324440
 20
375.762237
 30
0.0
 10
-111.908000
 20
375.762237
 30
0.0
 10
-111.908000
 20
402.237693
 30
0.0
  0
LWPOLYLINE
  5
12c
100
AcDbEntity
  8
Layer_1
 62
5
100
AcDbPolyline
 90
5
 70
1
 10
-111.720920
 20
371.026661
 30
0.0
 10
-137.137352
 20
371.026661
 30
0.0
 10
-137.137352
 20
344.551205
 30
0.0
 10
-111.720920
 20
344.551205
 30
0.0
 10
-111.720920
 20
371.026661
 30
0.0
  0
LWPOLYLINE
  5
12d
100
AcDbEntity
  8
Layer_1
 62
5
100
AcDbPolyline
 90
5
 70
1
 10
-143.865656
 20
338.446017
 30
0.0
 10
-169.282088
 20
338.446017
 30
0.0
 10
-169.282088
 20
311.970561
 30
0.0
 10
-143.865656
 20
311.970561
 30
0.0
 10
-143.865656
 20
338.446017
 30
0.0
  0
LWPOLYLINE
  5
12e
100
AcDbEntity
  8
Layer_1
 62
5
100
AcDbPolyline
 90
5
 70
1
 10
-143.056376
 20
370.902273
 30
0.0
 10
-168.472816
 20
370.902273
 30
0.0
 10
-168.472816
 20
344.426817
 30
0.0
 10
-143.056376
 20
344.426817
 30
0.0
 10
-143.056376
 20
370.902273
 30
0.0
  0
LWPOLYLINE
  5
12f
100
AcDbEntity
  8
Layer_1
 62
5
100
AcDbPolyline
 90
5
 70
1
 10
-143.367896
 20
402.983521
 30
0.0
 10
-168.784336
 20
402.983521
 30
0.0
 10
-168.784336
 20
376.508065
 30
0.0
 10
-143.367896
 20
376.508065
 30
0.0
 10
-143.367896
 20
402.983521
 30
0.0
  0
LWPOLYLINE
  5
130
100
AcDbEntity
  8
Layer_1
 62
5
100
AcDbPolyline
 90
5
 70
1
 10
-142.992864
 20
435.438889
 30
0.0
 10
-168.409304
 20
435.438889
 30
0.0
 10
-168.409304
 20
408.963433
 30
0.0
 10
-142.992864
 20
408.963433
 30
0.0
 10
-142.992864
 20
435.438889
 30
0.0
  0
LWPOLYLINE
  5
131
100
AcDbEntity
  8
Layer_1
 62
5
100
AcDbPolyline
 90
5
 70
1
 10
-143.615912
 20
467.584449
 30
0.0
 10
-169.032344
 20
467.584449
 30
0.0
 10
-169.032344
 20
441.108993
 30
0.0
 10
-143.615912
 20
441.108993
 30
0.0
 10
-143.615912
 20
467.584449
 30
0.0
  0
LWPOLYLINE
  5
132
100
AcDbEntity
  8
Layer_1
 62
5
100
AcDbPolyline
 90
5
 70
1
 10
-143.117304
 20
499.043481
 30
0.0
 10
-168.533736
 20
499.043481
 30
0.0
 10
-168.533736
 20
472.568025
 30
0.0
 10
-143.117304
 20
472.568025
 30
0.0
 10
-143.117304
 20
499.043481
 30
0.0
  0
LWPOLYLINE
  5
133
100
AcDbEntity
  8
Layer_1
 62
5
100
AcDbPolyline
 90
5
 70
1
 10
-143.491472
 20
532.247217
 30
0.0
 10
-168.907912
 20
532.247217
 30
0.0
 10
-168.907912
 20
505.771761
 30
0.0
 10
-143.491472
 20
505.771761
 30
0.0
 10
-143.491472
 20
532.247217
 30
0.0
  0
LWPOLYLINE
  5
134
100
AcDbEntity
  8
Layer_1
 62
5
100
AcDbPolyline
 90
5
 70
1
 10
-143.864800
 20
564.578169
 30
0.0
 10
-169.281240
 20
564.578169
 30
0.0
 10
-169.281240
 20
538.102721
 30
0.0
 10
-143.864800
 20
538.102721
 30
0.0
 10
-143.864800
 20
564.578169
 30
0.0
  0
LWPOLYLINE
  5
135
100
AcDbEntity
  8
Layer_1
 62
5
100
AcDbPolyline
 90
5
 70
1
 10
-143.989224
 20
597.033569
 30
0.0
 10
-169.405664
 20
597.033569
 30
0.0
 10
-169.405664
 20
570.558113
 30
0.0
 10
-143.989224
 20
570.558113
 30
0.0
 10
-143.989224
 20
597.033569
 30
0.0
  0
LWPOLYLINE
  5
136
100
AcDbEntity
  8
Layer_1
 62
5
100
AcDbPolyline
 90
5
 70
1
 10
-143.989224
 20
628.991185
 30
0.0
 10
-169.405664
 20
628.991185
 30
0.0
 10
-169.405664
 20
602.515729
 30
0.0
 10
-143.989224
 20
602.515729
 30
0.0
 10
-143.989224
 20
628.991185
 30
0.0
  0
LWPOLYLINE
  5
137
100
AcDbEntity
  8
Layer_1
 62
5
100
AcDbPolyline
 90
5
 70
1
 10
-144.114520
 20
661.010593
 30
0.0
 10
-169.530952
 20
661.010593
 30
0.0
 10
-169.530952
 20
634.535137
 30
0.0
 10
-144.114520
 20
634.535137
 30
0.0
 10
-144.114520
 20
661.010593
 30
0.0
  0
LWPOLYLINE
  5
138
100
AcDbEntity
  8
Layer_1
 62
5
100
AcDbPolyline
 90
5
 70
1
 10
-144.550496
 20
694.277009
 30
0.0
 10
-169.966928
 20
694.277009
 30
0.0
 10
-169.966928
 20
667.801561
 30
0.0
 10
-144.550496
 20
667.801561
 30
0.0
 10
-144.550496
 20
694.277009
 30
0.0
  0
LWPOLYLINE
  5
139
100
AcDbEntity
  8
Layer_1
 62
5
100
AcDbPolyline
 90
5
 70
1
 10
-143.927432
 20
725.860457
 30
0.0
 10
-169.343872
 20
725.860457
 30
0.0
 10
-169.343872
 20
699.385009
 30
0.0
 10
-143.927432
 20
699.385009
 30
0.0
 10
-143.927432
 20
725.860457
 30
0.0
  0
LWPOLYLINE
  5
13a
100
AcDbEntity
  8
Layer_1
 62
5
100
AcDbPolyline
 90
5
 70
1
 10
-143.802144
 20
757.942537
 30
0.0
 10
-169.218576
 20
757.942537
 30
0.0
 10
-169.218576
 20
731.467089
 30
0.0
 10
-143.802144
 20
731.467089
 30
0.0
 10
-143.802144
 20
757.942537
 30
0.0
  0
LWPOLYLINE
  5
13b
100
AcDbEntity
  8
Layer_1
 62
5
100
AcDbPolyline
 90
5
 70
1
 10
-143.428824
 20
789.774873
 30
0.0
 10
-168.845264
 20
789.774873
 30
0.0
 10
-168.845264
 20
763.299417
 30
0.0
 10
-143.428824
 20
763.299417
 30
0.0
 10
-143.428824
 20
789.774873
 30
0.0
  0
LWPOLYLINE
  5
13c
100
AcDbEntity
  8
Layer_1
 62
5
100
AcDbPolyline
 90
5
 70
1
 10
-176.226528
 20
338.486214
 30
0.0
 10
-201.642960
 20
338.486214
 30
0.0
 10
-201.642960
 20
312.010758
 30
0.0
 10
-176.226528
 20
312.010758
 30
0.0
 10
-176.226528
 20
338.486214
 30
0.0
  0
LWPOLYLINE
  5
13d
100
AcDbEntity
  8
Layer_1
 62
5
100
AcDbPolyline
 90
5
 70
1
 10
-175.417248
 20
370.942470
 30
0.0
 10
-200.833688
 20
370.942470
 30
0.0
 10
-200.833688
 20
344.467014
 30
0.0
 10
-175.417248
 20
344.467014
 30
0.0
 10
-175.417248
 20
370.942470
 30
0.0
  0
LWPOLYLINE
  5
13e
100
AcDbEntity
  8
Layer_1
 62
5
100
AcDbPolyline
 90
5
 70
1
 10
-175.728768
 20
403.023718
 30
0.0
 10
-201.145208
 20
403.023718
 30
0.0
 10
-201.145208
 20
376.548262
 30
0.0
 10
-175.728768
 20
376.548262
 30
0.0
 10
-175.728768
 20
403.023718
 30
0.0
  0
LWPOLYLINE
  5
13f
100
AcDbEntity
  8
Layer_1
 62
5
100
AcDbPolyline
 90
5
 70
1
 10
-175.353736
 20
435.479086
 30
0.0
 10
-200.770176
 20
435.479086
 30
0.0
 10
-200.770176
 20
409.003630
 30
0.0
 10
-175.353736
 20
409.003630
 30
0.0
 10
-175.353736
 20
435.479086
 30
0.0
  0
LWPOLYLINE
  5
140
100
AcDbEntity
  8
Layer_1
 62
5
100
AcDbPolyline
 90
5
 70
1
 10
-175.976784
 20
467.624646
 30
0.0
 10
-201.393216
 20
467.624646
 30
0.0
 10
-201.393216
 20
441.149190
 30
0.0
 10
-175.976784
 20
441.149190
 30
0.0
 10
-175.976784
 20
467.624646
 30
0.0
  0
LWPOLYLINE
  5
141
100
AcDbEntity
  8
Layer_1
 62
5
100
AcDbPolyline
 90
5
 70
1
 10
-175.478176
 20
499.083678
 30
0.0
 10
-200.894608
 20
499.083678
 30
0.0
 10
-200.894608
 20
472.608222
 30
0.0
 10
-175.478176
 20
472.608222
 30
0.0
 10
-175.478176
 20
499.083678
 30
0.0
  0
LWPOLYLINE
  5
142
100
AcDbEntity
  8
Layer_1
 62
5
100
AcDbPolyline
 90
5
 70
1
 10
-175.852344
 20
532.287414
 30
0.0
 10
-201.268784
 20
532.287414
 30
0.0
 10
-201.268784
 20
505.811958
 30
0.0
 10
-175.852344
 20
505.811958
 30
0.0
 10
-175.852344
 20
532.287414
 30
0.0
  0
LWPOLYLINE
  5
143
100
AcDbEntity
  8
Layer_1
 62
5
100
AcDbPolyline
 90
5
 70
1
 10
-176.225672
 20
564.618366
 30
0.0
 10
-201.642112
 20
564.618366
 30
0.0
 10
-201.642112
 20
538.142918
 30
0.0
 10
-176.225672
 20
538.142918
 30
0.0
 10
-176.225672
 20
564.618366
 30
0.0
  0
LWPOLYLINE
  5
144
100
AcDbEntity
  8
Layer_1
 62
5
100
AcDbPolyline
 90
5
 70
1
 10
-176.350096
 20
597.073766
 30
0.0
 10
-201.766536
 20
597.073766
 30
0.0
 10
-201.766536
 20
570.598310
 30
0.0
 10
-176.350096
 20
570.598310
 30
0.0
 10
-176.350096
 20
597.073766
 30
0.0
  0
LWPOLYLINE
  5
145
100
AcDbEntity
  8
Layer_1
 62
5
100
AcDbPolyline
 90
5
 70
1
 10
-176.350096
 20
629.031382
 30
0.0
 10
-201.766536
 20
629.031382
 30
0.0
 10
-201.766536
 20
602.555926
 30
0.0
 10
-176.350096
 20
602.555926
 30
0.0
 10
-176.350096
 20
629.031382
 30
0.0
  0
LWPOLYLINE
  5
146
100
AcDbEntity
  8
Layer_1
 62
5
100
AcDbPolyline
 90
5
 70
1
 10
-176.475392
 20
661.050790
 30
0.0
 10
-201.891824
 20
661.050790
 30
0.0
 10
-201.891824
 20
634.575334
 30
0.0
 10
-176.475392
 20
634.575334
 30
0.0
 10
-176.475392
 20
661.050790
 30
0.0
  0
LWPOLYLINE
  5
147
100
AcDbEntity
  8
Layer_1
 62
5
100
AcDbPolyline
 90
5
 70
1
 10
-176.911368
 20
694.317206
 30
0.0
 10
-202.327800
 20
694.317206
 30
0.0
 10
-202.327800
 20
667.841758
 30
0.0
 10
-176.911368
 20
667.841758
 30
0.0
 10
-176.911368
 20
694.317206
 30
0.0
  0
LWPOLYLINE
  5
148
100
AcDbEntity
  8
Layer_1
 62
5
100
AcDbPolyline
 90
5
 70
1
 10
-176.288304
 20
725.900654
 30
0.0
 10
-201.704744
 20
725.900654
 30
0.0
 10
-201.704744
 20
699.425206
 30
0.0
 10
-176.288304
 20
699.425206
 30
0.0
 10
-176.288304
 20
725.900654
 30
0.0
  0
LWPOLYLINE
  5
149
100
AcDbEntity
  8
Layer_1
 62
5
100
AcDbPolyline
 90
5
 70
1
 10
-176.163016
 20
757.982734
 30
0.0
 10
-201.579448
 20
757.982734
 30
0.0
 10
-201.579448
 20
731.507286
 30
0.0
 10
-176.163016
 20
731.507286
 30
0.0
 10
-176.163016
 20
757.982734
 30
0.0
  0
LWPOLYLINE
  5
14a
100
AcDbEntity
  8
Layer_1
 62
5
100
AcDbPolyline
 90
5
 70
1
 10
-175.789696
 20
789.815070
 30
0.0
 10
-201.206136
 20
789.815070
 30
0.0
 10
-201.206136
 20
763.339614
 30
0.0
 10
-175.789696
 20
763.339614
 30
0.0
 10
-175.789696
 20
789.815070
 30
0.0
  0
LWPOLYLINE
  5
14b
100
AcDbEntity
  8
Layer_1
 62
5
100
AcDbPolyline
 90
5
 70
1
 10
-208.883320
 20
338.486214
 30
0.0
 10
-234.299752
 20
338.486214
 30
0.0
 10
-234.299752
 20
312.010758
 30
0.0
 10
-208.883320
 20
312.010758
 30
0.0
 10
-208.883320
 20
338.486214
 30
0.0
  0
LWPOLYLINE
  5
14c
100
AcDbEntity
  8
Layer_1
 62
5
100
AcDbPolyline
 90
5
 70
1
 10
-208.074040
 20
370.942470
 30
0.0
 10
-233.490480
 20
370.942470
 30
0.0
 10
-233.490480
 20
344.467014
 30
0.0
 10
-208.074040
 20
344.467014
 30
0.0
 10
-208.074040
 20
370.942470
 30
0.0
  0
LWPOLYLINE
  5
14d
100
AcDbEntity
  8
Layer_1
 62
5
100
AcDbPolyline
 90
5
 70
1
 10
-208.385560
 20
403.023718
 30
0.0
 10
-233.802000
 20
403.023718
 30
0.0
 10
-233.802000
 20
376.548262
 30
0.0
 10
-208.385560
 20
376.548262
 30
0.0
 10
-208.385560
 20
403.023718
 30
0.0
  0
LWPOLYLINE
  5
14e
100
AcDbEntity
  8
Layer_1
 62
5
100
AcDbPolyline
 90
5
 70
1
 10
-208.010528
 20
435.479086
 30
0.0
 10
-233.426968
 20
435.479086
 30
0.0
 10
-233.426968
 20
409.003630
 30
0.0
 10
-208.010528
 20
409.003630
 30
0.0
 10
-208.010528
 20
435.479086
 30
0.0
  0
LWPOLYLINE
  5
14f
100
AcDbEntity
  8
Layer_1
 62
5
100
AcDbPolyline
 90
5
 70
1
 10
-208.633576
 20
467.624646
 30
0.0
 10
-234.050008
 20
467.624646
 30
0.0
 10
-234.050008
 20
441.149190
 30
0.0
 10
-208.633576
 20
441.149190
 30
0.0
 10
-208.633576
 20
467.624646
 30
0.0
  0
LWPOLYLINE
  5
150
100
AcDbEntity
  8
Layer_1
 62
5
100
AcDbPolyline
 90
5
 70
1
 10
-208.134968
 20
499.083678
 30
0.0
 10
-233.551400
 20
499.083678
 30
0.0
 10
-233.551400
 20
472.608222
 30
0.0
 10
-208.134968
 20
472.608222
 30
0.0
 10
-208.134968
 20
499.083678
 30
0.0
  0
LWPOLYLINE
  5
151
100
AcDbEntity
  8
Layer_1
 62
5
100
AcDbPolyline
 90
5
 70
1
 10
-208.509136
 20
532.287414
 30
0.0
 10
-233.925576
 20
532.287414
 30
0.0
 10
-233.925576
 20
505.811958
 30
0.0
 10
-208.509136
 20
505.811958
 30
0.0
 10
-208.509136
 20
532.287414
 30
0.0
  0
LWPOLYLINE
  5
152
100
AcDbEntity
  8
Layer_1
 62
5
100
AcDbPolyline
 90
5
 70
1
 10
-208.882464
 20
564.618366
 30
0.0
 10
-234.298904
 20
564.618366
 30
0.0
 10
-234.298904
 20
538.142918
 30
0.0
 10
-208.882464
 20
538.142918
 30
0.0
 10
-208.882464
 20
564.618366
 30
0.0
  0
LWPOLYLINE
  5
153
100
AcDbEntity
  8
Layer_1
 62
5
100
AcDbPolyline
 90
5
 70
1
 10
-209.006888
 20
597.073766
 30
0.0
 10
-234.423328
 20
597.073766
 30
0.0
 10
-234.423328
 20
570.598310
 30
0.0
 10
-209.006888
 20
570.598310
 30
0.0
 10
-209.006888
 20
597.073766
 30
0.0
  0
LWPOLYLINE
  5
154
100
AcDbEntity
  8
Layer_1
 62
5
100
AcDbPolyline
 90
5
 70
1
 10
-209.006888
 20
629.031382
 30
0.0
 10
-234.423328
 20
629.031382
 30
0.0
 10
-234.423328
 20
602.555926
 30
0.0
 10
-209.006888
 20
602.555926
 30
0.0
 10
-209.006888
 20
629.031382
 30
0.0
  0
LWPOLYLINE
  5
155
100
AcDbEntity
  8
Layer_1
 62
5
100
AcDbPolyline
 90
5
 70
1
 10
-209.132184
 20
661.050790
 30
0.0
 10
-234.548616
 20
661.050790
 30
0.0
 10
-234.548616
 20
634.575334
 30
0.0
 10
-209.132184
 20
634.575334
 30
0.0
 10
-209.132184
 20
661.050790
 30
0.0
  0
LWPOLYLINE
  5
156
100
AcDbEntity
  8
Layer_1
 62
5
100
AcDbPolyline
 90
5
 70
1
 10
-209.568160
 20
694.317206
 30
0.0
 10
-234.984592
 20
694.317206
 30
0.0
 10
-234.984592
 20
667.841758
 30
0.0
 10
-209.568160
 20
667.841758
 30
0.0
 10
-209.568160
 20
694.317206
 30
0.0
  0
LWPOLYLINE
  5
157
100
AcDbEntity
  8
Layer_1
 62
5
100
AcDbPolyline
 90
5
 70
1
 10
-208.945096
 20
725.900654
 30
0.0
 10
-234.361536
 20
725.900654
 30
0.0
 10
-234.361536
 20
699.425206
 30
0.0
 10
-208.945096
 20
699.425206
 30
0.0
 10
-208.945096
 20
725.900654
 30
0.0
  0
LWPOLYLINE
  5
158
100
AcDbEntity
  8
Layer_1
 62
5
100
AcDbPolyline
 90
5
 70
1
 10
-208.819808
 20
757.982734
 30
0.0
 10
-234.236240
 20
757.982734
 30
0.0
 10
-234.236240
 20
731.507286
 30
0.0
 10
-208.819808
 20
731.507286
 30
0.0
 10
-208.819808
 20
757.982734
 30
0.0
  0
LWPOLYLINE
  5
159
100
AcDbEntity
  8
Layer_1
 62
5
100
AcDbPolyline
 90
5
 70
1
 10
-208.446488
 20
789.815070
 30
0.0
 10
-233.862928
 20
789.815070
 30
0.0
 10
-233.862928
 20
763.339614
 30
0.0
 10
-208.446488
 20
763.339614
 30
0.0
 10
-208.446488
 20
789.815070
 30
0.0
  0
LWPOLYLINE
  5
15a
100
AcDbEntity
  8
Layer_1
 62
5
100
AcDbPolyline
 90
5
 70
1
 10
-240.599744
 20
338.092126
 30
0.0
 10
-266.016176
 20
338.092126
 30
0.0
 10
-266.016176
 20
311.616670
 30
0.0
 10
-240.599744
 20
311.616670
 30
0.0
 10
-240.599744
 20
338.092126
 30
0.0
  0
LWPOLYLINE
  5
15b
100
AcDbEntity
  8
Layer_1
 62
5
100
AcDbPolyline
 90
5
 70
1
 10
-239.790464
 20
370.548382
 30
0.0
 10
-265.206904
 20
370.548382
 30
0.0
 10
-265.206904
 20
344.072926
 30
0.0
 10
-239.790464
 20
344.072926
 30
0.0
 10
-239.790464
 20
370.548382
 30
0.0
  0
LWPOLYLINE
  5
15c
100
AcDbEntity
  8
Layer_1
 62
5
100
AcDbPolyline
 90
5
 70
1
 10
-240.101984
 20
402.629630
 30
0.0
 10
-265.518424
 20
402.629630
 30
0.0
 10
-265.518424
 20
376.154174
 30
0.0
 10
-240.101984
 20
376.154174
 30
0.0
 10
-240.101984
 20
402.629630
 30
0.0
  0
LWPOLYLINE
  5
15d
100
AcDbEntity
  8
Layer_1
 62
5
100
AcDbPolyline
 90
5
 70
1
 10
-239.726952
 20
435.084998
 30
0.0
 10
-265.143392
 20
435.084998
 30
0.0
 10
-265.143392
 20
408.609542
 30
0.0
 10
-239.726952
 20
408.609542
 30
0.0
 10
-239.726952
 20
435.084998
 30
0.0
  0
LWPOLYLINE
  5
15e
100
AcDbEntity
  8
Layer_1
 62
5
100
AcDbPolyline
 90
5
 70
1
 10
-240.350000
 20
467.230558
 30
0.0
 10
-265.766432
 20
467.230558
 30
0.0
 10
-265.766432
 20
440.755102
 30
0.0
 10
-240.350000
 20
440.755102
 30
0.0
 10
-240.350000
 20
467.230558
 30
0.0
  0
LWPOLYLINE
  5
15f
100
AcDbEntity
  8
Layer_1
 62
5
100
AcDbPolyline
 90
5
 70
1
 10
-239.851392
 20
498.689590
 30
0.0
 10
-265.267824
 20
498.689590
 30
0.0
 10
-265.267824
 20
472.214134
 30
0.0
 10
-239.851392
 20
472.214134
 30
0.0
 10
-239.851392
 20
498.689590
 30
0.0
  0
LWPOLYLINE
  5
160
100
AcDbEntity
  8
Layer_1
 62
5
100
AcDbPolyline
 90
5
 70
1
 10
-240.225560
 20
531.893326
 30
0.0
 10
-265.642000
 20
531.893326
 30
0.0
 10
-265.642000
 20
505.417870
 30
0.0
 10
-240.225560
 20
505.417870
 30
0.0
 10
-240.225560
 20
531.893326
 30
0.0
  0
LWPOLYLINE
  5
161
100
AcDbEntity
  8
Layer_1
 62
5
100
AcDbPolyline
 90
5
 70
1
 10
-240.598888
 20
564.224278
 30
0.0
 10
-266.015328
 20
564.224278
 30
0.0
 10
-266.015328
 20
537.748830
 30
0.0
 10
-240.598888
 20
537.748830
 30
0.0
 10
-240.598888
 20
564.224278
 30
0.0
  0
LWPOLYLINE
  5
162
100
AcDbEntity
  8
Layer_1
 62
5
100
AcDbPolyline
 90
5
 70
1
 10
-240.723312
 20
596.679678
 30
0.0
 10
-266.139752
 20
596.679678
 30
0.0
 10
-266.139752
 20
570.204222
 30
0.0
 10
-240.723312
 20
570.204222
 30
0.0
 10
-240.723312
 20
596.679678
 30
0.0
  0
LWPOLYLINE
  5
163
100
AcDbEntity
  8
Layer_1
 62
5
100
AcDbPolyline
 90
5
 70
1
 10
-240.723312
 20
628.637294
 30
0.0
 10
-266.139752
 20
628.637294
 30
0.0
 10
-266.139752
 20
602.161838
 30
0.0
 10
-240.723312
 20
602.161838
 30
0.0
 10
-240.723312
 20
628.637294
 30
0.0
  0
LWPOLYLINE
  5
164
100
AcDbEntity
  8
Layer_1
 62
5
100
AcDbPolyline
 90
5
 70
1
 10
-240.848608
 20
660.656702
 30
0.0
 10
-266.265040
 20
660.656702
 30
0.0
 10
-266.265040
 20
634.181246
 30
0.0
 10
-240.848608
 20
634.181246
 30
0.0
 10
-240.848608
 20
660.656702
 30
0.0
  0
LWPOLYLINE
  5
165
100
AcDbEntity
  8
Layer_1
 62
5
100
AcDbPolyline
 90
5
 70
1
 10
-241.284584
 20
693.923118
 30
0.0
 10
-266.701016
 20
693.923118
 30
0.0
 10
-266.701016
 20
667.447670
 30
0.0
 10
-241.284584
 20
667.447670
 30
0.0
 10
-241.284584
 20
693.923118
 30
0.0
  0
LWPOLYLINE
  5
166
100
AcDbEntity
  8
Layer_1
 62
5
100
AcDbPolyline
 90
5
 70
1
 10
-240.661520
 20
725.506566
 30
0.0
 10
-266.077960
 20
725.506566
 30
0.0
 10
-266.077960
 20
699.031118
 30
0.0
 10
-240.661520
 20
699.031118
 30
0.0
 10
-240.661520
 20
725.506566
 30
0.0
  0
LWPOLYLINE
  5
167
100
AcDbEntity
  8
Layer_1
 62
5
100
AcDbPolyline
 90
5
 70
1
 10
-240.536232
 20
757.588646
 30
0.0
 10
-265.952664
 20
757.588646
 30
0.0
 10
-265.952664
 20
731.113198
 30
0.0
 10
-240.536232
 20
731.113198
 30
0.0
 10
-240.536232
 20
757.588646
 30
0.0
  0
LWPOLYLINE
  5
168
100
AcDbEntity
  8
Layer_1
 62
5
100
AcDbPolyline
 90
5
 70
1
 10
-240.162912
 20
789.420982
 30
0.0
 10
-265.579352
 20
789.420982
 30
0.0
 10
-265.579352
 20
762.945526
 30
0.0
 10
-240.162912
 20
762.945526
 30
0.0
 10
-240.162912
 20
789.420982
 30
0.0
  0
LWPOLYLINE
  5
169
100
AcDbEntity
  8
Layer_1
 62
5
100
AcDbPolyline
 90
5
 70
1
 10
-273.281912
 20
338.435482
 30
0.0
 10
-298.698344
 20
338.435482
 30
0.0
 10
-298.698344
 20
311.960026
 30
0.0
 10
-273.281912
 20
311.960026
 30
0.0
 10
-273.281912
 20
338.435482
 30
0.0
  0
LWPOLYLINE
  5
16a
100
AcDbEntity
  8
Layer_1
 62
5
100
AcDbPolyline
 90
5
 70
1
 10
-272.472632
 20
370.891738
 30
0.0
 10
-297.889072
 20
370.891738
 30
0.0
 10
-297.889072
 20
344.416282
 30
0.0
 10
-272.472632
 20
344.416282
 30
0.0
 10
-272.472632
 20
370.891738
 30
0.0
  0
LWPOLYLINE
  5
16b
100
AcDbEntity
  8
Layer_1
 62
5
100
AcDbPolyline
 90
5
 70
1
 10
-272.784152
 20
402.972986
 30
0.0
 10
-298.200592
 20
402.972986
 30
0.0
 10
-298.200592
 20
376.497530
 30
0.0
 10
-272.784152
 20
376.497530
 30
0.0
 10
-272.784152
 20
402.972986
 30
0.0
  0
LWPOLYLINE
  5
16c
100
AcDbEntity
  8
Layer_1
 62
5
100
AcDbPolyline
 90
5
 70
1
 10
-272.409120
 20
435.428354
 30
0.0
 10
-297.825560
 20
435.428354
 30
0.0
 10
-297.825560
 20
408.952898
 30
0.0
 10
-272.409120
 20
408.952898
 30
0.0
 10
-272.409120
 20
435.428354
 30
0.0
  0
LWPOLYLINE
  5
16d
100
AcDbEntity
  8
Layer_1
 62
5
100
AcDbPolyline
 90
5
 70
1
 10
-273.032168
 20
467.573914
 30
0.0
 10
-298.448600
 20
467.573914
 30
0.0
 10
-298.448600
 20
441.098458
 30
0.0
 10
-273.032168
 20
441.098458
 30
0.0
 10
-273.032168
 20
467.573914
 30
0.0
  0
LWPOLYLINE
  5
16e
100
AcDbEntity
  8
Layer_1
 62
5
100
AcDbPolyline
 90
5
 70
1
 10
-272.533560
 20
499.032946
 30
0.0
 10
-297.949992
 20
499.032946
 30
0.0
 10
-297.949992
 20
472.557490
 30
0.0
 10
-272.533560
 20
472.557490
 30
0.0
 10
-272.533560
 20
499.032946
 30
0.0
  0
LWPOLYLINE
  5
16f
100
AcDbEntity
  8
Layer_1
 62
5
100
AcDbPolyline
 90
5
 70
1
 10
-272.907728
 20
532.236682
 30
0.0
 10
-298.324168
 20
532.236682
 30
0.0
 10
-298.324168
 20
505.761226
 30
0.0
 10
-272.907728
 20
505.761226
 30
0.0
 10
-272.907728
 20
532.236682
 30
0.0
  0
LWPOLYLINE
  5
170
100
AcDbEntity
  8
Layer_1
 62
5
100
AcDbPolyline
 90
5
 70
1
 10
-273.281056
 20
564.567634
 30
0.0
 10
-298.697496
 20
564.567634
 30
0.0
 10
-298.697496
 20
538.092186
 30
0.0
 10
-273.281056
 20
538.092186
 30
0.0
 10
-273.281056
 20
564.567634
 30
0.0
  0
LWPOLYLINE
  5
171
100
AcDbEntity
  8
Layer_1
 62
5
100
AcDbPolyline
 90
5
 70
1
 10
-273.405480
 20
597.023034
 30
0.0
 10
-298.821920
 20
597.023034
 30
0.0
 10
-298.821920
 20
570.547578
 30
0.0
 10
-273.405480
 20
570.547578
 30
0.0
 10
-273.405480
 20
597.023034
 30
0.0
  0
LWPOLYLINE
  5
172
100
AcDbEntity
  8
Layer_1
 62
5
100
AcDbPolyline
 90
5
 70
1
 10
-273.405480
 20
628.980650
 30
0.0
 10
-298.821920
 20
628.980650
 30
0.0
 10
-298.821920
 20
602.505194
 30
0.0
 10
-273.405480
 20
602.505194
 30
0.0
 10
-273.405480
 20
628.980650
 30
0.0
  0
LWPOLYLINE
  5
173
100
AcDbEntity
  8
Layer_1
 62
5
100
AcDbPolyline
 90
5
 70
1
 10
-273.530776
 20
661.000058
 30
0.0
 10
-298.947208
 20
661.000058
 30
0.0
 10
-298.947208
 20
634.524602
 30
0.0
 10
-273.530776
 20
634.524602
 30
0.0
 10
-273.530776
 20
661.000058
 30
0.0
  0
LWPOLYLINE
  5
174
100
AcDbEntity
  8
Layer_1
 62
5
100
AcDbPolyline
 90
5
 70
1
 10
-273.966752
 20
694.266474
 30
0.0
 10
-299.383184
 20
694.266474
 30
0.0
 10
-299.383184
 20
667.791026
 30
0.0
 10
-273.966752
 20
667.791026
 30
0.0
 10
-273.966752
 20
694.266474
 30
0.0
  0
LWPOLYLINE
  5
175
100
AcDbEntity
  8
Layer_1
 62
5
100
AcDbPolyline
 90
5
 70
1
 10
-273.343688
 20
725.849922
 30
0.0
 10
-298.760128
 20
725.849922
 30
0.0
 10
-298.760128
 20
699.374474
 30
0.0
 10
-273.343688
 20
699.374474
 30
0.0
 10
-273.343688
 20
725.849922
 30
0.0
  0
LWPOLYLINE
  5
176
100
AcDbEntity
  8
Layer_1
 62
5
100
AcDbPolyline
 90
5
 70
1
 10
-273.218400
 20
757.932002
 30
0.0
 10
-298.634832
 20
757.932002
 30
0.0
 10
-298.634832
 20
731.456554
 30
0.0
 10
-273.218400
 20
731.456554
 30
0.0
 10
-273.218400
 20
757.932002
 30
0.0
  0
LWPOLYLINE
  5
177
100
AcDbEntity
  8
Layer_1
 62
5
100
AcDbPolyline
 90
5
 70
1
 10
-272.845080
 20
789.764338
 30
0.0
 10
-298.261520
 20
789.764338
 30
0.0
 10
-298.261520
 20
763.288882
 30
0.0
 10
-272.845080
 20
763.288882
 30
0.0
 10
-272.845080
 20
789.764338
 30
0.0
  0
LWPOLYLINE
  5
178
100
AcDbEntity
  8
Layer_1
 62
5
100
AcDbPolyline
 90
5
 70
1
 10
-459.531000
 20
628.264497
 30
0.0
 10
-434.114560
 20
628.264497
 30
0.0
 10
-434.114560
 20
601.789049
 30
0.0
 10
-459.531000
 20
601.789049
 30
0.0
 10
-459.531000
 20
628.264497
 30
0.0
  0
LWPOLYLINE
  5
179
100
AcDbEntity
  8
Layer_1
 62
5
100
AcDbPolyline
 90
5
 70
1
 10
-458.845304
 20
597.210545
 30
0.0
 10
-433.428864
 20
597.210545
 30
0.0
 10
-433.428864
 20
570.735089
 30
0.0
 10
-458.845304
 20
570.735089
 30
0.0
 10
-458.845304
 20
597.210545
 30
0.0
  0
LWPOLYLINE
  5
17a
100
AcDbEntity
  8
Layer_1
 62
5
100
AcDbPolyline
 90
5
 70
1
 10
-458.534664
 20
564.131249
 30
0.0
 10
-433.118224
 20
564.131249
 30
0.0
 10
-433.118224
 20
537.655793
 30
0.0
 10
-458.534664
 20
537.655793
 30
0.0
 10
-458.534664
 20
564.131249
 30
0.0
  0
LWPOLYLINE
  5
17b
100
AcDbEntity
  8
Layer_1
 62
5
100
AcDbPolyline
 90
5
 70
1
 10
-458.970600
 20
531.738497
 30
0.0
 10
-433.554160
 20
531.738497
 30
0.0
 10
-433.554160
 20
505.263041
 30
0.0
 10
-458.970600
 20
505.263041
 30
0.0
 10
-458.970600
 20
531.738497
 30
0.0
  0
LWPOLYLINE
  5
17c
100
AcDbEntity
  8
Layer_1
 62
5
100
AcDbPolyline
 90
5
 70
1
 10
-459.157704
 20
499.593777
 30
0.0
 10
-433.741272
 20
499.593777
 30
0.0
 10
-433.741272
 20
473.118321
 30
0.0
 10
-459.157704
 20
473.118321
 30
0.0
 10
-459.157704
 20
499.593777
 30
0.0
  0
LWPOLYLINE
  5
17d
100
AcDbEntity
  8
Layer_1
 62
5
100
AcDbPolyline
 90
5
 70
1
 10
-426.701456
 20
660.564553
 30
0.0
 10
-401.285024
 20
660.564553
 30
0.0
 10
-401.285024
 20
634.089097
 30
0.0
 10
-426.701456
 20
634.089097
 30
0.0
 10
-426.701456
 20
660.564553
 30
0.0
  0
LWPOLYLINE
  5
17e
100
AcDbEntity
  8
Layer_1
 62
5
100
AcDbPolyline
 90
5
 70
1
 10
-426.389936
 20
628.544265
 30
0.0
 10
-400.973496
 20
628.544265
 30
0.0
 10
-400.973496
 20
602.068809
 30
0.0
 10
-426.389936
 20
602.068809
 30
0.0
 10
-426.389936
 20
628.544265
 30
0.0
  0
LWPOLYLINE
  5
17f
100
AcDbEntity
  8
Layer_1
 62
5
100
AcDbPolyline
 90
5
 70
1
 10
-426.825872
 20
597.023457
 30
0.0
 10
-401.409432
 20
597.023457
 30
0.0
 10
-401.409432
 20
570.548009
 30
0.0
 10
-426.825872
 20
570.548009
 30
0.0
 10
-426.825872
 20
597.023457
 30
0.0
  0
LWPOLYLINE
  5
180
100
AcDbEntity
  8
Layer_1
 62
5
100
AcDbPolyline
 90
5
 70
1
 10
-426.576992
 20
564.006785
 30
0.0
 10
-401.160560
 20
564.006785
 30
0.0
 10
-401.160560
 20
537.531329
 30
0.0
 10
-426.576992
 20
537.531329
 30
0.0
 10
-426.576992
 20
564.006785
 30
0.0
  0
LWPOLYLINE
  5
181
100
AcDbEntity
  8
Layer_1
 62
5
100
AcDbPolyline
 90
5
 70
1
 10
-426.514344
 20
531.799441
 30
0.0
 10
-401.097912
 20
531.799441
 30
0.0
 10
-401.097912
 20
505.323985
 30
0.0
 10
-426.514344
 20
505.323985
 30
0.0
 10
-426.514344
 20
531.799441
 30
0.0
  0
LWPOLYLINE
  5
182
100
AcDbEntity
  8
Layer_1
 62
5
100
AcDbPolyline
 90
5
 70
1
 10
-426.639640
 20
499.469337
 30
0.0
 10
-401.223200
 20
499.469337
 30
0.0
 10
-401.223200
 20
472.993881
 30
0.0
 10
-426.639640
 20
472.993881
 30
0.0
 10
-426.639640
 20
499.469337
 30
0.0
  0
LWPOLYLINE
  5
183
100
AcDbEntity
  8
Layer_1
 62
5
100
AcDbPolyline
 90
5
 70
1
 10
-427.200920
 20
467.823241
 30
0.0
 10
-401.784480
 20
467.823241
 30
0.0
 10
-401.784480
 20
441.347785
 30
0.0
 10
-427.200920
 20
441.347785
 30
0.0
 10
-427.200920
 20
467.823241
 30
0.0
  0
LWPOLYLINE
  5
184
100
AcDbEntity
  8
Layer_1
 62
5
100
AcDbPolyline
 90
5
 70
1
 10
-394.557560
 20
692.957297
 30
0.0
 10
-369.141120
 20
692.957297
 30
0.0
 10
-369.141120
 20
666.481841
 30
0.0
 10
-394.557560
 20
666.481841
 30
0.0
 10
-394.557560
 20
692.957297
 30
0.0
  0
LWPOLYLINE
  5
185
100
AcDbEntity
  8
Layer_1
 62
5
100
AcDbPolyline
 90
5
 70
1
 10
-394.246040
 20
660.875217
 30
0.0
 10
-368.829600
 20
660.875217
 30
0.0
 10
-368.829600
 20
634.399761
 30
0.0
 10
-394.246040
 20
634.399761
 30
0.0
 10
-394.246040
 20
660.875217
 30
0.0
  0
LWPOLYLINE
  5
186
100
AcDbEntity
  8
Layer_1
 62
5
100
AcDbPolyline
 90
5
 70
1
 10
-394.307856
 20
628.916721
 30
0.0
 10
-368.891416
 20
628.916721
 30
0.0
 10
-368.891416
 20
602.441265
 30
0.0
 10
-394.307856
 20
602.441265
 30
0.0
 10
-394.307856
 20
628.916721
 30
0.0
  0
LWPOLYLINE
  5
187
100
AcDbEntity
  8
Layer_1
 62
5
100
AcDbPolyline
 90
5
 70
1
 10
-394.432264
 20
597.085249
 30
0.0
 10
-369.015832
 20
597.085249
 30
0.0
 10
-369.015832
 20
570.609801
 30
0.0
 10
-394.432264
 20
570.609801
 30
0.0
 10
-394.432264
 20
597.085249
 30
0.0
  0
LWPOLYLINE
  5
188
100
AcDbEntity
  8
Layer_1
 62
5
100
AcDbPolyline
 90
5
 70
1
 10
-393.871864
 20
564.567209
 30
0.0
 10
-368.455432
 20
564.567209
 30
0.0
 10
-368.455432
 20
538.091753
 30
0.0
 10
-393.871864
 20
538.091753
 30
0.0
 10
-393.871864
 20
564.567209
 30
0.0
  0
LWPOLYLINE
  5
189
100
AcDbEntity
  8
Layer_1
 62
5
100
AcDbPolyline
 90
5
 70
1
 10
-393.997160
 20
532.049169
 30
0.0
 10
-368.580720
 20
532.049169
 30
0.0
 10
-368.580720
 20
505.573713
 30
0.0
 10
-393.997160
 20
505.573713
 30
0.0
 10
-393.997160
 20
532.049169
 30
0.0
  0
LWPOLYLINE
  5
18a
100
AcDbEntity
  8
Layer_1
 62
5
100
AcDbPolyline
 90
5
 70
1
 10
-394.371328
 20
499.344041
 30
0.0
 10
-368.954896
 20
499.344041
 30
0.0
 10
-368.954896
 20
472.868585
 30
0.0
 10
-394.371328
 20
472.868585
 30
0.0
 10
-394.371328
 20
499.344041
 30
0.0
  0
LWPOLYLINE
  5
18b
100
AcDbEntity
  8
Layer_1
 62
5
100
AcDbPolyline
 90
5
 70
1
 10
-394.993544
 20
467.261961
 30
0.0
 10
-369.577112
 20
467.261961
 30
0.0
 10
-369.577112
 20
440.786505
 30
0.0
 10
-394.993544
 20
440.786505
 30
0.0
 10
-394.993544
 20
467.261961
 30
0.0
  0
LWPOLYLINE
  5
18c
100
AcDbEntity
  8
Layer_1
 62
5
100
AcDbPolyline
 90
5
 70
1
 10
-395.366888
 20
434.868385
 30
0.0
 10
-369.950448
 20
434.868385
 30
0.0
 10
-369.950448
 20
408.392929
 30
0.0
 10
-395.366888
 20
408.392929
 30
0.0
 10
-395.366888
 20
434.868385
 30
0.0
  0
LWPOLYLINE
  5
18d
100
AcDbEntity
  8
Layer_1
 62
5
100
AcDbPolyline
 90
5
 70
1
 10
-361.540912
 20
402.723705
 30
0.0
 10
-336.124472
 20
402.723705
 30
0.0
 10
-336.124472
 20
376.248249
 30
0.0
 10
-361.540912
 20
376.248249
 30
0.0
 10
-361.540912
 20
402.723705
 30
0.0
  0
LWPOLYLINE
  5
18e
100
AcDbEntity
  8
Layer_1
 62
5
100
AcDbPolyline
 90
5
 70
1
 10
-361.665376
 20
434.931081
 30
0.0
 10
-336.248936
 20
434.931081
 30
0.0
 10
-336.248936
 20
408.455625
 30
0.0
 10
-361.665376
 20
408.455625
 30
0.0
 10
-361.665376
 20
434.931081
 30
0.0
  0
LWPOLYLINE
  5
18f
100
AcDbEntity
  8
Layer_1
 62
5
100
AcDbPolyline
 90
5
 70
1
 10
-362.038664
 20
467.510865
 30
0.0
 10
-336.622224
 20
467.510865
 30
0.0
 10
-336.622224
 20
441.035409
 30
0.0
 10
-362.038664
 20
441.035409
 30
0.0
 10
-362.038664
 20
467.510865
 30
0.0
  0
LWPOLYLINE
  5
190
100
AcDbEntity
  8
Layer_1
 62
5
100
AcDbPolyline
 90
5
 70
1
 10
-361.727144
 20
499.344041
 30
0.0
 10
-336.310704
 20
499.344041
 30
0.0
 10
-336.310704
 20
472.868585
 30
0.0
 10
-361.727144
 20
472.868585
 30
0.0
 10
-361.727144
 20
499.344041
 30
0.0
  0
LWPOLYLINE
  5
191
100
AcDbEntity
  8
Layer_1
 62
5
100
AcDbPolyline
 90
5
 70
1
 10
-361.789832
 20
531.987377
 30
0.0
 10
-336.373400
 20
531.987377
 30
0.0
 10
-336.373400
 20
505.511921
 30
0.0
 10
-361.789832
 20
505.511921
 30
0.0
 10
-361.789832
 20
531.987377
 30
0.0
  0
LWPOLYLINE
  5
192
100
AcDbEntity
  8
Layer_1
 62
5
100
AcDbPolyline
 90
5
 70
1
 10
-362.039544
 20
564.816089
 30
0.0
 10
-336.623104
 20
564.816089
 30
0.0
 10
-336.623104
 20
538.340633
 30
0.0
 10
-362.039544
 20
538.340633
 30
0.0
 10
-362.039544
 20
564.816089
 30
0.0
  0
LWPOLYLINE
  5
193
100
AcDbEntity
  8
Layer_1
 62
5
100
AcDbPolyline
 90
5
 70
1
 10
-362.350184
 20
597.147897
 30
0.0
 10
-336.933752
 20
597.147897
 30
0.0
 10
-336.933752
 20
570.672441
 30
0.0
 10
-362.350184
 20
570.672441
 30
0.0
 10
-362.350184
 20
597.147897
 30
0.0
  0
LWPOLYLINE
  5
194
100
AcDbEntity
  8
Layer_1
 62
5
100
AcDbPolyline
 90
5
 70
1
 10
-362.037832
 20
628.481617
 30
0.0
 10
-336.621400
 20
628.481617
 30
0.0
 10
-336.621400
 20
602.006161
 30
0.0
 10
-362.037832
 20
602.006161
 30
0.0
 10
-362.037832
 20
628.481617
 30
0.0
  0
LWPOLYLINE
  5
195
100
AcDbEntity
  8
Layer_1
 62
5
100
AcDbPolyline
 90
5
 70
1
 10
-362.038664
 20
660.938721
 30
0.0
 10
-336.622224
 20
660.938721
 30
0.0
 10
-336.622224
 20
634.463265
 30
0.0
 10
-362.038664
 20
634.463265
 30
0.0
 10
-362.038664
 20
660.938721
 30
0.0
  0
LWPOLYLINE
  5
196
100
AcDbEntity
  8
Layer_1
 62
5
100
AcDbPolyline
 90
5
 70
1
 10
-362.973280
 20
693.518553
 30
0.0
 10
-337.556848
 20
693.518553
 30
0.0
 10
-337.556848
 20
667.043097
 30
0.0
 10
-362.973280
 20
667.043097
 30
0.0
 10
-362.973280
 20
693.518553
 30
0.0
  0
LWPOLYLINE
  5
197
100
AcDbEntity
  8
Layer_1
 62
5
100
AcDbPolyline
 90
5
 70
1
 10
-361.914248
 20
725.789441
 30
0.0
 10
-336.497816
 20
725.789441
 30
0.0
 10
-336.497816
 20
699.313985
 30
0.0
 10
-361.914248
 20
699.313985
 30
0.0
 10
-361.914248
 20
725.789441
 30
0.0
  0
LWPOLYLINE
  5
198
100
AcDbEntity
  8
Layer_1
 62
5
100
AcDbPolyline
 90
5
 70
1
 10
-329.956608
 20
757.432969
 30
0.0
 10
-304.540168
 20
757.432969
 30
0.0
 10
-304.540168
 20
730.957513
 30
0.0
 10
-329.956608
 20
730.957513
 30
0.0
 10
-329.956608
 20
757.432969
 30
0.0
  0
LWPOLYLINE
  5
199
100
AcDbEntity
  8
Layer_1
 62
5
100
AcDbPolyline
 90
5
 70
1
 10
-330.268128
 20
726.099257
 30
0.0
 10
-304.851696
 20
726.099257
 30
0.0
 10
-304.851696
 20
699.623801
 30
0.0
 10
-330.268128
 20
699.623801
 30
0.0
 10
-330.268128
 20
726.099257
 30
0.0
  0
LWPOLYLINE
  5
19a
100
AcDbEntity
  8
Layer_1
 62
5
100
AcDbPolyline
 90
5
 70
1
 10
-329.956608
 20
693.891881
 30
0.0
 10
-304.540168
 20
693.891881
 30
0.0
 10
-304.540168
 20
667.416425
 30
0.0
 10
-329.956608
 20
667.416425
 30
0.0
 10
-329.956608
 20
693.891881
 30
0.0
  0
LWPOLYLINE
  5
19b
100
AcDbEntity
  8
Layer_1
 62
5
100
AcDbPolyline
 90
5
 70
1
 10
-329.893960
 20
661.623561
 30
0.0
 10
-304.477528
 20
661.623561
 30
0.0
 10
-304.477528
 20
635.148105
 30
0.0
 10
-329.893960
 20
635.148105
 30
0.0
 10
-329.893960
 20
661.623561
 30
0.0
  0
LWPOLYLINE
  5
19c
100
AcDbEntity
  8
Layer_1
 62
5
100
AcDbPolyline
 90
5
 70
1
 10
-329.833024
 20
628.793137
 30
0.0
 10
-304.416584
 20
628.793137
 30
0.0
 10
-304.416584
 20
602.317681
 30
0.0
 10
-329.833024
 20
602.317681
 30
0.0
 10
-329.833024
 20
628.793137
 30
0.0
  0
LWPOLYLINE
  5
19d
100
AcDbEntity
  8
Layer_1
 62
5
100
AcDbPolyline
 90
5
 70
1
 10
-329.771256
 20
596.836353
 30
0.0
 10
-304.354824
 20
596.836353
 30
0.0
 10
-304.354824
 20
570.360897
 30
0.0
 10
-329.771256
 20
570.360897
 30
0.0
 10
-329.771256
 20
596.836353
 30
0.0
  0
LWPOLYLINE
  5
19e
100
AcDbEntity
  8
Layer_1
 62
5
100
AcDbPolyline
 90
5
 70
1
 10
-329.645936
 20
564.380105
 30
0.0
 10
-304.229504
 20
564.380105
 30
0.0
 10
-304.229504
 20
537.904649
 30
0.0
 10
-329.645936
 20
537.904649
 30
0.0
 10
-329.645936
 20
564.380105
 30
0.0
  0
LWPOLYLINE
  5
19f
100
AcDbEntity
  8
Layer_1
 62
5
100
AcDbPolyline
 90
5
 70
1
 10
-329.707728
 20
531.551417
 30
0.0
 10
-304.291296
 20
531.551417
 30
0.0
 10
-304.291296
 20
505.075961
 30
0.0
 10
-329.707728
 20
505.075961
 30
0.0
 10
-329.707728
 20
531.551417
 30
0.0
  0
LWPOLYLINE
  5
1a0
100
AcDbEntity
  8
Layer_1
 62
5
100
AcDbPolyline
 90
5
 70
1
 10
-329.833024
 20
499.156953
 30
0.0
 10
-304.416584
 20
499.156953
 30
0.0
 10
-304.416584
 20
472.681505
 30
0.0
 10
-329.833024
 20
472.681505
 30
0.0
 10
-329.833024
 20
499.156953
 30
0.0
  0
LWPOLYLINE
  5
1a1
100
AcDbEntity
  8
Layer_1
 62
5
100
AcDbPolyline
 90
5
 70
1
 10
-329.895696
 20
467.075729
 30
0.0
 10
-304.479256
 20
467.075729
 30
0.0
 10
-304.479256
 20
440.600273
 30
0.0
 10
-329.895696
 20
440.600273
 30
0.0
 10
-329.895696
 20
467.075729
 30
0.0
  0
LWPOLYLINE
  5
1a2
100
AcDbEntity
  8
Layer_1
 62
5
100
AcDbPolyline
 90
5
 70
1
 10
-329.583296
 20
435.242601
 30
0.0
 10
-304.166856
 20
435.242601
 30
0.0
 10
-304.166856
 20
408.767145
 30
0.0
 10
-329.583296
 20
408.767145
 30
0.0
 10
-329.583296
 20
435.242601
 30
0.0
  0
LWPOLYLINE
  5
1a3
100
AcDbEntity
  8
Layer_1
 62
5
100
AcDbPolyline
 90
5
 70
1
 10
-329.271768
 20
401.977905
 30
0.0
 10
-303.855336
 20
401.977905
 30
0.0
 10
-303.855336
 20
375.502449
 30
0.0
 10
-329.271768
 20
375.502449
 30
0.0
 10
-329.271768
 20
401.977905
 30
0.0
  0
LWPOLYLINE
  5
1a4
100
AcDbEntity
  8
Layer_1
 62
5
100
AcDbPolyline
 90
5
 70
1
 10
-329.458856
 20
370.766865
 30
0.0
 10
-304.042416
 20
370.766865
 30
0.0
 10
-304.042416
 20
344.291417
 30
0.0
 10
-329.458856
 20
344.291417
 30
0.0
 10
-329.458856
 20
370.766865
 30
0.0
  0
LWPOLYLINE
  5
1a5
100
AcDbEntity
  8
Layer_1
 62
3
100
AcDbPolyline
 90
45
 70
1
 10
21.564648
 20
632.202013
 30
0.0
 10
-10.503280
 20
631.737757
 30
0.0
 10
-10.539680
 20
665.162085
 30
0.0
 10
-41.976472
 20
664.864701
 30
0.0
 10
-42.106984
 20
697.433253
 30
0.0
 10
-74.878784
 20
697.324149
 30
0.0
 10
-74.639168
 20
729.203805
 30
0.0
 10
-107.671976
 20
729.131085
 30
0.0
 10
-107.802488
 20
761.402261
 30
0.0
 10
-139.442520
 20
761.626901
 30
0.0
 10
-139.296944
 20
794.103909
 30
0.0
 10
-301.221736
 20
793.968973
 30
0.0
 10
-301.514000
 20
761.468813
 30
0.0
 10
-333.288056
 20
761.197405
 30
0.0
 10
-333.821592
 20
729.340997
 30
0.0
 10
-366.951664
 20
729.445429
 30
0.0
 10
-367.428824
 20
696.969021
 30
0.0
 10
-398.901984
 20
697.360541
 30
0.0
 10
-399.032496
 20
663.878445
 30
0.0
 10
-430.839407
 20
664.233597
 30
0.0
 10
-431.267287
 20
632.927301
 30
0.0
 10
-463.204711
 20
632.796805
 30
0.0
 10
-463.241111
 20
470.730645
 30
0.0
 10
-431.470559
 20
470.433261
 30
0.0
 10
-431.397839
 20
437.697829
 30
0.0
 10
-399.329912
 20
438.198461
 30
0.0
 10
-398.902024
 20
405.463037
 30
0.0
 10
-366.406208
 20
405.499437
 30
0.0
 10
-366.500344
 20
373.301005
 30
0.0
 10
-335.063552
 20
373.562021
 30
0.0
 10
-335.360936
 20
340.471445
 30
0.0
 10
-303.423512
 20
340.507845
 30
0.0
 10
-302.661880
 20
308.069797
 30
0.0
 10
-139.442560
 20
308.700925
 30
0.0
 10
-139.703576
 20
340.638349
 30
0.0
 10
-107.933024
 20
340.935733
 30
0.0
 10
-107.708392
 20
373.003653
 30
0.0
 10
-75.770960
 20
374.193181
 30
0.0
 10
-76.068344
 20
405.905965
 30
0.0
 10
-43.666664
 20
405.608581
 30
0.0
 10
-42.680384
 20
437.937525
 30
0.0
 10
-11.040344
 20
437.937525
 30
0.0
 10
-11.243592
 20
470.730717
 30
0.0
 10
21.528208
 20
470.730717
 30
0.0
 10
21.564648
 20
632.202013
 30
0.0
  0
LWPOLYLINE
  5
1a6
100
AcDbEntity
  8
Layer_1
 62
5
100
AcDbPolyline
 90
4
 70
1
 10
42.095488
 20
811.985253
 30
0.0
 10
42.095488
 20
287.935253
 30
0.0
 10
-467.254512
 20
287.935253
 30
0.0
 10
-442.329512
 20
312.860253
 30
0.0
  0
SPLINE
  5
1a7
100
AcDbEntity
  8
Layer_1
 62
5
100
AcDbSpline
 70
0
 71
3
 72
13
 73
9
 74
7
 40
0.000000
 40
0.000000
 40
0.000000
 40
0.000000
 40
5.080218
 40
9.999129
 40
15.079348
 40
20.159567
 40
25.078480
 40
30.158699
 40
30.158699
 40
30.158699
 40
30.158699
 10
-442.329512
 20
312.860253
 30
0.0
 10
-441.305375
 20
314.259092
 30
0.0
 10
-439.289618
 20
317.012355
 30
0.0
 10
-439.394499
 20
322.371039
 30
0.0
 10
-442.004553
 20
326.910212
 30
0.0
 10
-446.543726
 20
329.520270
 30
0.0
 10
-451.902412
 20
329.625150
 30
0.0
 10
-454.655673
 20
327.609392
 30
0.0
 10
-456.054512
 20
326.585253
 30
0.0
 11
-442.329512
 21
312.860253
 31
0.0
 11
-439.795381
 21
317.263298
 31
0.0
 11
-439.795381
 21
322.182209
 31
0.0
 11
-442.329512
 21
326.585253
 31
0.0
 11
-446.732556
 21
329.119387
 31
0.0
 11
-451.651468
 21
329.119387
 31
0.0
 11
-456.054512
 21
326.585253
 31
0.0
  0
LWPOLYLINE
  5
1a8
100
AcDbEntity
  8
Layer_1
 62
5
100
AcDbPolyline
 90
4
 70
1
 10
-456.054512
 20
326.585253
 30
0.0
 10
-481.954512
 20
300.685253
 30
0.0
 10
-481.954512
 20
799.135253
 30
0.0
 10
-456.454512
 20
773.635253
 30
0.0
  0
SPLINE
  5
1a9
100
AcDbEntity
  8
Layer_1
 62
5
100
AcDbSpline
 70
0
 71
3
 72
13
 73
9
 74
7
 40
0.000000
 40
0.000000
 40
0.000000
 40
0.000000
 40
5.080219
 40
9.999132
 40
15.079351
 40
20.153953
 40
25.060827
 40
30.135429
 40
30.135429
 40
30.135429
 40
30.135429
 10
-456.454512
 20
773.635253
 30
0.0
 10
-455.055693
 20
772.611125
 30
0.0
 10
-452.302471
 20
770.595387
 30
0.0
 10
-446.943494
 20
770.700118
 30
0.0
 10
-442.407145
 20
773.309782
 30
0.0
 10
-439.794870
 20
777.840430
 30
0.0
 10
-439.690652
 20
783.191848
 30
0.0
 10
-441.705274
 20
785.938732
 30
0.0
 10
-442.729512
 20
787.335253
 30
0.0
 11
-456.454512
 21
773.635253
 31
0.0
 11
-452.051468
 21
771.101120
 31
0.0
 11
-447.132556
 21
771.101120
 31
0.0
 11
-442.729512
 21
773.635253
 31
0.0
 11
-440.195381
 21
778.031816
 31
0.0
 11
-440.195381
 21
782.938690
 31
0.0
 11
-442.729512
 21
787.335253
 31
0.0
  0
LWPOLYLINE
  5
1aa
100
AcDbEntity
  8
Layer_1
 62
5
100
AcDbPolyline
 90
4
 70
1
 10
-442.729512
 20
787.335253
 30
0.0
 10
-467.379512
 20
811.985253
 30
0.0
 10
42.095488
 20
811.985253
 30
0.0
 10
42.095488
 20
811.985253
 30
0.0
  0
SPLINE
  5
1ab
100
AcDbEntity
  8
Layer_1
 62
5
100
AcDbSpline
 70
0
 71
3
 72
19
 73
15
 74
13
 40
0.000000
 40
0.000000
 40
0.000000
 40
0.000000
 40
2.924259
 40
5.761784
 40
8.686041
 40
11.610298
 40
14.447824
 40
17.372083
 40
20.296340
 40
23.133865
 40
26.058123
 40
28.982380
 40
31.819904
 40
34.744161
 40
34.744161
 40
34.744161
 40
34.744161
 10
-5.262920
 20
770.242970
 30
0.0
 10
-5.109202
 20
769.257048
 30
0.0
 10
-4.806326
 20
767.314445
 30
0.0
 10
-2.579731
 20
765.175798
 30
0.0
 10
0.324767
 20
764.383366
 30
0.0
 10
3.259760
 20
765.175798
 30
0.0
 10
5.396683
 20
767.314445
 30
0.0
 10
6.189702
 20
770.242969
 30
0.0
 10
5.396682
 20
773.171494
 30
0.0
 10
3.259759
 20
775.310139
 30
0.0
 10
0.324767
 20
776.102571
 30
0.0
 10
-2.579731
 20
775.310139
 30
0.0
 10
-4.806326
 20
773.171493
 30
0.0
 10
-5.109202
 20
771.228892
 30
0.0
 10
-5.262920
 20
770.242970
 30
0.0
 11
-5.262920
 21
770.242970
 31
0.0
 11
-4.499336
 21
767.420165
 31
0.0
 11
-2.492903
 21
765.413731
 31
0.0
 11
0.329900
 21
764.650147
 31
0.0
 11
3.152704
 21
765.413731
 31
0.0
 11
5.159138
 21
767.420165
 31
0.0
 11
5.922723
 21
770.242970
 31
0.0
 11
5.159138
 21
773.065773
 31
0.0
 11
3.152704
 21
775.072206
 31
0.0
 11
0.329900
 21
775.835790
 31
0.0
 11
-2.492903
 21
775.072206
 31
0.0
 11
-4.499336
 21
773.065773
 31
0.0
 11
-5.262920
 21
770.242970
 31
0.0
  0
LWPOLYLINE
  5
1ac
100
AcDbEntity
  8
Layer_1
 62
5
100
AcDbPolyline
 90
2
 70
1
 10
-5.262920
 20
770.242970
 30
0.0
 10
-5.262920
 20
770.242970
 30
0.0
  0
LWPOLYLINE
  5
1ad
100
AcDbEntity
  8
Layer_1
 62
5
100
AcDbPolyline
 90
2
 70
1
 10
-6.082984
 20
329.584465
 30
0.0
 10
-6.082984
 20
329.584465
 30
0.0
  0
SPLINE
  5
1ae
100
AcDbEntity
  8
Layer_1
 62
5
100
AcDbSpline
 70
0
 71
3
 72
19
 73
15
 74
13
 40
0.000000
 40
0.000000
 40
0.000000
 40
0.000000
 40
2.924259
 40
5.761784
 40
8.686041
 40
11.610298
 40
14.447824
 40
17.372083
 40
20.296340
 40
23.133865
 40
26.058123
 40
28.982380
 40
31.819904
 40
34.744161
 40
34.744161
 40
34.744161
 40
34.744161
 10
-6.082984
 20
329.584465
 30
0.0
 10
-5.929266
 20
330.570387
 30
0.0
 10
-5.626390
 20
332.512990
 30
0.0
 10
-3.399795
 20
334.651637
 30
0.0
 10
-0.495297
 20
335.444069
 30
0.0
 10
2.439696
 20
334.651636
 30
0.0
 10
4.576619
 20
332.512990
 30
0.0
 10
5.369638
 20
329.584465
 30
0.0
 10
4.576618
 20
326.655941
 30
0.0
 10
2.439695
 20
324.517296
 30
0.0
 10
-0.495297
 20
323.724863
 30
0.0
 10
-3.399795
 20
324.517296
 30
0.0
 10
-5.626390
 20
326.655941
 30
0.0
 10
-5.929266
 20
328.598543
 30
0.0
 10
-6.082984
 20
329.584465
 30
0.0
 11
-6.082984
 21
329.584465
 31
0.0
 11
-5.319400
 21
332.407270
 31
0.0
 11
-3.312967
 21
334.413703
 31
0.0
 11
-0.490164
 21
335.177287
 31
0.0
 11
2.332640
 21
334.413703
 31
0.0
 11
4.339074
 21
332.407270
 31
0.0
 11
5.102659
 21
329.584465
 31
0.0
 11
4.339074
 21
326.761661
 31
0.0
 11
2.332640
 21
324.755229
 31
0.0
 11
-0.490164
 21
323.991645
 31
0.0
 11
-3.312967
 21
324.755229
 31
0.0
 11
-5.319400
 21
326.761661
 31
0.0
 11
-6.082984
 21
329.584465
 31
0.0
  0
LWPOLYLINE
  5
1af
100
AcDbEntity
  8
Layer_1
 62
5
100
AcDbPolyline
 90
2
 70
1
 10
-680.025056
 20
699.749652
 30
0.0
 10
-678.975416
 20
699.749652
 30
0.0
  0
SPLINE
  5
1b0
100
AcDbEntity
  8
Layer_1
 62
5
100
AcDbSpline
 70
0
 71
3
 72
10
 73
6
 74
4
 40
0.000000
 40
0.000000
 40
0.000000
 40
0.000000
 40
6.593794
 40
12.977447
 40
19.571241
 40
19.571241
 40
19.571241
 40
19.571241
 10
-678.975416
 20
699.749652
 30
0.0
 10
-676.764841
 20
699.405927
 30
0.0
 10
-672.414140
 20
698.729431
 30
0.0
 10
-667.399941
 20
693.715232
 30
0.0
 10
-666.723445
 20
689.364531
 30
0.0
 10
-666.379720
 20
687.153956
 30
0.0
 11
-678.975416
 21
699.749652
 31
0.0
 11
-672.608525
 21
698.034771
 31
0.0
 11
-668.094601
 21
693.520847
 31
0.0
 11
-666.379720
 21
687.153956
 31
0.0
  0
LWPOLYLINE
  5
1b1
100
AcDbEntity
  8
Layer_1
 62
5
100
AcDbPolyline
 90
2
 70
1
 10
-666.379720
 20
687.153956
 30
0.0
 10
-666.379720
 20
686.104316
 30
0.0
  0
SPLINE
  5
1b2
100
AcDbEntity
  8
Layer_1
 62
5
100
AcDbSpline
 70
0
 71
3
 72
10
 73
6
 74
4
 40
0.000000
 40
0.000000
 40
0.000000
 40
0.000000
 40
6.593799
 40
12.977454
 40
19.571248
 40
19.571248
 40
19.571248
 40
19.571248
 10
-666.379720
 20
686.104316
 30
0.0
 10
-666.723445
 20
683.893738
 30
0.0
 10
-667.399940
 20
679.543035
 30
0.0
 10
-672.414139
 20
674.528833
 30
0.0
 10
-676.764841
 20
673.852337
 30
0.0
 10
-678.975416
 20
673.508612
 30
0.0
 11
-666.379720
 21
686.104316
 31
0.0
 11
-668.094601
 21
679.737419
 31
0.0
 11
-672.608525
 21
675.223493
 31
0.0
 11
-678.975416
 21
673.508612
 31
0.0
  0
LWPOLYLINE
  5
1b3
100
AcDbEntity
  8
Layer_1
 62
5
100
AcDbPolyline
 90
2
 70
1
 10
-678.975416
 20
673.508612
 30
0.0
 10
-680.025056
 20
673.508612
 30
0.0
  0
SPLINE
  5
1b4
100
AcDbEntity
  8
Layer_1
 62
5
100
AcDbSpline
 70
0
 71
3
 72
10
 73
6
 74
4
 40
0.000000
 40
0.000000
 40
0.000000
 40
0.000000
 40
6.593794
 40
12.977448
 40
19.571248
 40
19.571248
 40
19.571248
 40
19.571248
 10
-680.025056
 20
673.508612
 30
0.0
 10
-682.235631
 20
673.852337
 30
0.0
 10
-686.586333
 20
674.528833
 30
0.0
 10
-691.600532
 20
679.543035
 30
0.0
 10
-692.277027
 20
683.893738
 30
0.0
 10
-692.620752
 20
686.104316
 30
0.0
 11
-680.025056
 21
673.508612
 31
0.0
 11
-686.391947
 21
675.223493
 31
0.0
 11
-690.905871
 21
679.737419
 31
0.0
 11
-692.620752
 21
686.104316
 31
0.0
  0
LWPOLYLINE
  5
1b5
100
AcDbEntity
  8
Layer_1
 62
5
100
AcDbPolyline
 90
2
 70
1
 10
-692.620752
 20
686.104316
 30
0.0
 10
-692.620752
 20
687.153956
 30
0.0
  0
LWPOLYLINE
  5
1b6
100
AcDbEntity
  8
Layer_1
 62
5
100
AcDbPolyline
 90
2
 70
1
 10
-680.025056
 20
699.749652
 30
0.0
 10
-680.025056
 20
699.749652
 30
0.0
  0
LWPOLYLINE
  5
1b7
100
AcDbEntity
  8
Layer_1
 62
3
100
AcDbPolyline
 90
14
 70
1
 10
-689.505573
 20
681.166617
 30
0.0
 10
-686.550376
 20
678.253280
 30
0.0
 10
-684.251889
 20
677.895929
 30
0.0
 10
-682.363848
 20
676.490619
 30
0.0
 10
-679.490739
 20
676.556983
 30
0.0
 10
-677.766877
 20
677.927377
 30
0.0
 10
-672.184836
 20
679.377407
 30
0.0
 10
-669.722173
 20
685.983720
 30
0.0
 10
-671.774393
 20
688.323453
 30
0.0
 10
-674.893768
 20
686.809507
 30
0.0
 10
-679.244473
 20
686.947137
 30
0.0
 10
-684.580244
 20
683.537798
 30
0.0
 10
-687.617532
 20
683.193721
 30
0.0
 10
-689.505573
 20
681.166617
 30
0.0
  0
LWPOLYLINE
  5
1b8
100
AcDbEntity
  8
Layer_1
 62
3
100
AcDbPolyline
 90
9
 70
0
 10
-686.057843
 20
683.316037
 30
0.0
 10
-687.617529
 20
687.174210
 30
0.0
 10
-686.304110
 20
691.853272
 30
0.0
 10
-682.528024
 20
696.286067
 30
0.0
 10
-680.804159
 20
696.121888
 30
0.0
 10
-677.356431
 20
697.517399
 30
0.0
 10
-675.386299
 20
696.696510
 30
0.0
 10
-673.334079
 20
694.151756
 30
0.0
 10
-672.266924
 20
688.159275
 30
0.0
  0
LWPOLYLINE
  5
1b9
100
AcDbEntity
  8
Layer_1
 62
3
100
AcDbPolyline
 90
5
 70
0
 10
-686.468286
 20
687.830920
 30
0.0
 10
-685.319042
 20
689.144342
 30
0.0
 10
-681.871314
 20
689.144342
 30
0.0
 10
-680.229537
 20
688.323453
 30
0.0
 10
-680.065361
 20
686.435410
 30
0.0
  0
SPLINE
  5
1ba
100
AcDbEntity
  8
Layer_1
 62
5
100
AcDbSpline
 70
0
 71
3
 72
10
 73
6
 74
4
 40
0.000000
 40
0.000000
 40
0.000000
 40
0.000000
 40
6.593794
 40
12.977447
 40
19.571241
 40
19.571241
 40
19.571241
 40
19.571241
 10
-692.620752
 20
687.153956
 30
0.0
 10
-692.277027
 20
689.364531
 30
0.0
 10
-691.600531
 20
693.715232
 30
0.0
 10
-686.586332
 20
698.729431
 30
0.0
 10
-682.235631
 20
699.405927
 30
0.0
 10
-680.025056
 20
699.749652
 30
0.0
 11
-692.620752
 21
687.153956
 31
0.0
 11
-690.905871
 21
693.520847
 31
0.0
 11
-686.391947
 21
698.034771
 31
0.0
 11
-680.025056
 21
699.749652
 31
0.0
  0
LWPOLYLINE
  5
1bb
100
AcDbEntity
  8
Layer_1
 62
3
100
AcDbPolyline
 90
4
 70
0
 10
-678.095229
 20
686.845855
 30
0.0
 10
-679.080294
 20
688.651808
 30
0.0
 10
-675.304211
 20
689.801052
 30
0.0
 10
-673.580346
 20
692.099536
 30
0.0
  0
SPLINE
  5
1bc
100
AcDbEntity
  8
Layer_1
 62
3
100
AcDbSpline
 70
0
 71
3
 72
19
 73
15
 74
13
 40
0.000000
 40
0.000000
 40
0.000000
 40
0.000000
 40
0.351455
 40
0.864943
 40
1.525660
 40
2.186379
 40
2.699866
 40
3.051320
 40
3.402775
 40
3.916262
 40
4.576981
 40
5.237698
 40
5.751185
 40
6.102640
 40
6.102640
 40
6.102640
 40
6.102640
 10
-681.760955
 20
687.472626
 30
0.0
 10
-681.835875
 20
687.377002
 30
0.0
 10
-682.020256
 20
687.141668
 30
0.0
 10
-682.573271
 20
687.110583
 30
0.0
 10
-683.170517
 20
687.177681
 30
0.0
 10
-683.750397
 20
687.407061
 30
0.0
 10
-684.175761
 20
687.684567
 30
0.0
 10
-684.360715
 20
688.127418
 30
0.0
 10
-683.988056
 20
688.429824
 30
0.0
 10
-683.481990
 20
688.472735
 30
0.0
 10
-682.862639
 20
688.400069
 30
0.0
 10
-682.304865
 20
688.176256
 30
0.0
 10
-681.832551
 20
687.886926
 30
0.0
 10
-681.781642
 20
687.592330
 30
0.0
 10
-681.760955
 20
687.472626
 30
0.0
 11
-681.760955
 21
687.472626
 31
0.0
 11
-682.007038
 21
687.221700
 31
0.0
 11
-682.511599
 21
687.126370
 31
0.0
 11
-683.167390
 21
687.206898
 31
0.0
 11
-683.783089
 21
687.446615
 31
0.0
 11
-684.182296
 21
687.769574
 31
0.0
 11
-684.280159
 21
688.107128
 31
0.0
 11
-684.034078
 21
688.358055
 31
0.0
 11
-683.529518
 21
688.453385
 31
0.0
 11
-682.873725
 21
688.372856
 31
0.0
 11
-682.258027
 21
688.133140
 31
0.0
 11
-681.858819
 21
687.810181
 31
0.0
 11
-681.760955
 21
687.472626
 31
0.0
  0
LWPOLYLINE
  5
1bd
100
AcDbEntity
  8
Layer_1
 62
3
100
AcDbPolyline
 90
2
 70
1
 10
-681.760955
 20
687.472626
 30
0.0
 10
-681.760955
 20
687.472626
 30
0.0
  0
LWPOLYLINE
  5
1be
100
AcDbEntity
  8
Layer_1
 62
3
100
AcDbPolyline
 90
2
 70
1
 10
-677.795127
 20
687.924112
 30
0.0
 10
-677.795127
 20
687.924112
 30
0.0
  0
LWPOLYLINE
  5
1bf
100
AcDbEntity
  8
Layer_1
 62
3
100
AcDbPolyline
 90
4
 70
0
 10
-683.595180
 20
681.674260
 30
0.0
 10
-679.244473
 20
680.935462
 30
0.0
 10
-674.729589
 20
681.592172
 30
0.0
 10
-673.087812
 20
684.957811
 30
0.0
  0
SPLINE
  5
1c0
100
AcDbEntity
  8
Layer_1
 62
3
100
AcDbSpline
 70
0
 71
3
 72
19
 73
15
 74
13
 40
0.000000
 40
0.000000
 40
0.000000
 40
0.000000
 40
0.351455
 40
0.864943
 40
1.525660
 40
2.186379
 40
2.699866
 40
3.051320
 40
3.402775
 40
3.916262
 40
4.576981
 40
5.237698
 40
5.751185
 40
6.102640
 40
6.102640
 40
6.102640
 40
6.102640
 10
-677.795127
 20
687.924112
 30
0.0
 10
-677.720207
 20
687.828488
 30
0.0
 10
-677.535826
 20
687.593154
 30
0.0
 10
-676.982811
 20
687.562069
 30
0.0
 10
-676.385566
 20
687.629167
 30
0.0
 10
-675.805685
 20
687.858547
 30
0.0
 10
-675.380322
 20
688.136052
 30
0.0
 10
-675.195367
 20
688.578903
 30
0.0
 10
-675.568027
 20
688.881310
 30
0.0
 10
-676.074092
 20
688.924220
 30
0.0
 10
-676.693444
 20
688.851554
 30
0.0
 10
-677.251218
 20
688.627742
 30
0.0
 10
-677.723531
 20
688.338412
 30
0.0
 10
-677.774441
 20
688.043816
 30
0.0
 10
-677.795127
 20
687.924112
 30
0.0
 11
-677.795127
 21
687.924112
 31
0.0
 11
-677.549045
 21
687.673186
 31
0.0
 11
-677.044484
 21
687.577855
 31
0.0
 11
-676.388693
 21
687.658384
 31
0.0
 11
-675.772994
 21
687.898101
 31
0.0
 11
-675.373786
 21
688.221059
 31
0.0
 11
-675.275923
 21
688.558614
 31
0.0
 11
-675.522005
 21
688.809541
 31
0.0
 11
-676.026565
 21
688.904871
 31
0.0
 11
-676.682358
 21
688.824342
 31
0.0
 11
-677.298055
 21
688.584626
 31
0.0
 11
-677.697264
 21
688.261667
 31
0.0
 11
-677.795127
 21
687.924112
 31
0.0
  0
LWPOLYLINE
  5
1c1
100
AcDbEntity
  8
Layer_1
 62
5
100
AcDbPolyline
 90
2
 70
1
 10
-577.086184
 20
701.710812
 30
0.0
 10
-576.036552
 20
701.710812
 30
0.0
  0
SPLINE
  5
1c2
100
AcDbEntity
  8
Layer_1
 62
5
100
AcDbSpline
 70
0
 71
3
 72
10
 73
6
 74
4
 40
0.000000
 40
0.000000
 40
0.000000
 40
0.000000
 40
6.593797
 40
12.977455
 40
19.571251
 40
19.571251
 40
19.571251
 40
19.571251
 10
-576.036552
 20
701.710812
 30
0.0
 10
-573.825976
 20
701.367086
 30
0.0
 10
-569.475273
 20
700.690588
 30
0.0
 10
-564.461072
 20
695.676387
 30
0.0
 10
-563.784574
 20
691.325684
 30
0.0
 10
-563.440848
 20
689.115108
 30
0.0
 11
-576.036552
 21
701.710812
 31
0.0
 11
-569.669659
 21
699.995929
 31
0.0
 11
-565.155731
 21
695.482001
 31
0.0
 11
-563.440848
 21
689.115108
 31
0.0
  0
LWPOLYLINE
  5
1c3
100
AcDbEntity
  8
Layer_1
 62
5
100
AcDbPolyline
 90
2
 70
1
 10
-563.440848
 20
689.115108
 30
0.0
 10
-563.440848
 20
688.065468
 30
0.0
  0
SPLINE
  5
1c4
100
AcDbEntity
  8
Layer_1
 62
5
100
AcDbSpline
 70
0
 71
3
 72
10
 73
6
 74
4
 40
0.000000
 40
0.000000
 40
0.000000
 40
0.000000
 40
6.593795
 40
12.977450
 40
19.571246
 40
19.571246
 40
19.571246
 40
19.571246
 10
-563.440848
 20
688.065468
 30
0.0
 10
-563.784574
 20
685.854892
 30
0.0
 10
-564.461071
 20
681.504190
 30
0.0
 10
-569.475274
 20
676.489993
 30
0.0
 10
-573.825976
 20
675.813497
 30
0.0
 10
-576.036552
 20
675.469772
 30
0.0
 11
-563.440848
 21
688.065468
 31
0.0
 11
-565.155731
 21
681.698577
 31
0.0
 11
-569.669659
 21
677.184652
 31
0.0
 11
-576.036552
 21
675.469772
 31
0.0
  0
LWPOLYLINE
  5
1c5
100
AcDbEntity
  8
Layer_1
 62
5
100
AcDbPolyline
 90
2
 70
1
 10
-576.036552
 20
675.469772
 30
0.0
 10
-577.086184
 20
675.469772
 30
0.0
  0
SPLINE
  5
1c6
100
AcDbEntity
  8
Layer_1
 62
5
100
AcDbSpline
 70
0
 71
3
 72
10
 73
6
 74
4
 40
0.000000
 40
0.000000
 40
0.000000
 40
0.000000
 40
6.593796
 40
12.977452
 40
19.571246
 40
19.571246
 40
19.571246
 40
19.571246
 10
-577.086184
 20
675.469772
 30
0.0
 10
-579.296760
 20
675.813497
 30
0.0
 10
-583.647462
 20
676.489993
 30
0.0
 10
-588.661665
 20
681.504190
 30
0.0
 10
-589.338162
 20
685.854892
 30
0.0
 10
-589.681888
 20
688.065468
 30
0.0
 11
-577.086184
 21
675.469772
 31
0.0
 11
-583.453077
 21
677.184652
 31
0.0
 11
-587.967005
 21
681.698577
 31
0.0
 11
-589.681888
 21
688.065468
 31
0.0
  0
LWPOLYLINE
  5
1c7
100
AcDbEntity
  8
Layer_1
 62
5
100
AcDbPolyline
 90
2
 70
1
 10
-589.681888
 20
688.065468
 30
0.0
 10
-589.681888
 20
689.115108
 30
0.0
  0
LWPOLYLINE
  5
1c8
100
AcDbEntity
  8
Layer_1
 62
5
100
AcDbPolyline
 90
2
 70
1
 10
-577.086184
 20
701.710812
 30
0.0
 10
-577.086184
 20
701.710812
 30
0.0
  0
LWPOLYLINE
  5
1c9
100
AcDbEntity
  8
Layer_1
 62
3
100
AcDbPolyline
 90
5
 70
1
 10
-577.310629
 20
691.229305
 30
0.0
 10
-574.795738
 20
691.229305
 30
0.0
 10
-574.795738
 20
676.944445
 30
0.0
 10
-577.310629
 20
676.944445
 30
0.0
 10
-577.310629
 20
691.229305
 30
0.0
  0
SPLINE
  5
1ca
100
AcDbEntity
  8
Layer_1
 62
5
100
AcDbSpline
 70
0
 71
3
 72
10
 73
6
 74
4
 40
0.000000
 40
0.000000
 40
0.000000
 40
0.000000
 40
6.593797
 40
12.977455
 40
19.571251
 40
19.571251
 40
19.571251
 40
19.571251
 10
-589.681888
 20
689.115108
 30
0.0
 10
-589.338162
 20
691.325684
 30
0.0
 10
-588.661664
 20
695.676387
 30
0.0
 10
-583.647463
 20
700.690588
 30
0.0
 10
-579.296760
 20
701.367086
 30
0.0
 10
-577.086184
 20
701.710812
 30
0.0
 11
-589.681888
 21
689.115108
 31
0.0
 11
-587.967005
 21
695.482001
 31
0.0
 11
-583.453077
 21
699.995929
 31
0.0
 11
-577.086184
 21
701.710812
 31
0.0
  0
LWPOLYLINE
  5
1cb
100
AcDbEntity
  8
Layer_1
 62
3
100
AcDbPolyline
 90
2
 70
1
 10
-577.191124
 20
695.250230
 30
0.0
 10
-574.818208
 20
695.250230
 30
0.0
  0
SPLINE
  5
1cc
100
AcDbEntity
  8
Layer_1
 62
3
100
AcDbSpline
 70
0
 71
3
 72
13
 73
9
 74
7
 40
0.000000
 40
0.000000
 40
0.000000
 40
0.000000
 40
0.905007
 40
1.850060
 40
2.892533
 40
3.935005
 40
4.880058
 40
5.785064
 40
5.785064
 40
5.785064
 40
5.785064
 10
-574.818208
 20
695.250230
 30
0.0
 10
-574.513181
 20
695.191151
 30
0.0
 10
-573.889628
 20
695.070379
 30
0.0
 10
-573.257490
 20
694.251149
 30
0.0
 10
-573.035197
 20
693.239766
 30
0.0
 10
-573.257490
 20
692.228383
 30
0.0
 10
-573.889629
 20
691.409154
 30
0.0
 10
-574.513181
 20
691.288383
 30
0.0
 10
-574.818208
 20
691.229305
 30
0.0
 11
-574.818208
 21
695.250230
 31
0.0
 11
-573.955588
 21
694.976509
 31
0.0
 11
-573.344018
 21
694.256018
 31
0.0
 11
-573.111677
 21
693.239766
 31
0.0
 11
-573.344018
 21
692.223515
 31
0.0
 11
-573.955588
 21
691.503025
 31
0.0
 11
-574.818208
 21
691.229305
 31
0.0
  0
LWPOLYLINE
  5
1cd
100
AcDbEntity
  8
Layer_1
 62
3
100
AcDbPolyline
 90
2
 70
1
 10
-574.818208
 20
691.229305
 30
0.0
 10
-577.191124
 20
691.229305
 30
0.0
  0
SPLINE
  5
1ce
100
AcDbEntity
  8
Layer_1
 62
3
100
AcDbSpline
 70
0
 71
3
 72
13
 73
9
 74
7
 40
0.000000
 40
0.000000
 40
0.000000
 40
0.000000
 40
0.905007
 40
1.850060
 40
2.892533
 40
3.935006
 40
4.880060
 40
5.785067
 40
5.785067
 40
5.785067
 40
5.785067
 10
-577.191124
 20
691.229305
 30
0.0
 10
-577.496151
 20
691.288383
 30
0.0
 10
-578.119704
 20
691.409155
 30
0.0
 10
-578.751844
 20
692.228382
 30
0.0
 10
-578.974139
 20
693.239766
 30
0.0
 10
-578.751844
 20
694.251150
 30
0.0
 10
-578.119704
 20
695.070379
 30
0.0
 10
-577.496151
 20
695.191151
 30
0.0
 10
-577.191124
 20
695.250230
 30
0.0
 11
-577.191124
 21
691.229305
 31
0.0
 11
-578.053745
 21
691.503025
 31
0.0
 11
-578.665316
 21
692.223515
 31
0.0
 11
-578.897658
 21
693.239766
 31
0.0
 11
-578.665316
 21
694.256018
 31
0.0
 11
-578.053745
 21
694.976509
 31
0.0
 11
-577.191124
 21
695.250230
 31
0.0
  0
SPLINE
  5
1cf
100
AcDbEntity
  8
Layer_1
 62
3
100
AcDbSpline
 70
0
 71
3
 72
10
 73
6
 74
4
 40
0.000000
 40
0.000000
 40
0.000000
 40
0.000000
 40
1.559924
 40
3.208831
 40
5.558774
 40
5.558774
 40
5.558774
 40
5.558774
 10
-578.568060
 20
694.509530
 30
0.0
 10
-578.947191
 20
694.861217
 30
0.0
 10
-579.727079
 20
695.584652
 30
0.0
 10
-581.013772
 20
696.997556
 30
0.0
 10
-581.170489
 20
698.362954
 30
0.0
 10
-581.262584
 20
699.165336
 30
0.0
 11
-578.568060
 21
694.509530
 31
0.0
 11
-579.696675
 21
695.586373
 31
0.0
 11
-580.720768
 21
696.878708
 31
0.0
 11
-581.262584
 21
699.165336
 31
0.0
  0
SPLINE
  5
1d0
100
AcDbEntity
  8
Layer_1
 62
3
100
AcDbSpline
 70
0
 71
3
 72
10
 73
6
 74
4
 40
0.000000
 40
0.000000
 40
0.000000
 40
0.000000
 40
4.015699
 40
8.808328
 40
13.862345
 40
13.862345
 40
13.862345
 40
13.862345
 10
-581.262584
 20
699.165336
 30
0.0
 10
-582.216618
 20
698.170292
 30
0.0
 10
-584.309267
 20
695.987689
 30
0.0
 10
-584.085534
 20
690.763900
 30
0.0
 10
-581.863956
 20
688.274495
 30
0.0
 10
-580.723681
 20
686.996750
 30
0.0
 11
-581.262584
 21
699.165336
 31
0.0
 11
-583.660197
 21
695.943956
 31
0.0
 11
-583.601102
 21
691.151691
 31
0.0
 11
-580.723681
 21
686.996750
 31
0.0
  0
SPLINE
  5
1d1
100
AcDbEntity
  8
Layer_1
 62
3
100
AcDbSpline
 70
0
 71
3
 72
10
 73
6
 74
4
 40
0.000000
 40
0.000000
 40
0.000000
 40
0.000000
 40
2.070415
 40
3.912869
 40
5.620974
 40
5.620974
 40
5.620974
 40
5.620974
 10
-580.723681
 20
686.996750
 30
0.0
 10
-580.681337
 20
687.677513
 30
0.0
 10
-580.601312
 20
688.964085
 30
0.0
 10
-580.228401
 20
690.917574
 30
0.0
 10
-579.228655
 20
691.628152
 30
0.0
 10
-578.747696
 20
691.969998
 30
0.0
 11
-580.723681
 21
686.996750
 31
0.0
 11
-580.546375
 21
689.059560
 31
0.0
 11
-580.013708
 21
690.823334
 31
0.0
 11
-578.747696
 21
691.969998
 31
0.0
  0
SPLINE
  5
1d2
100
AcDbEntity
  8
Layer_1
 62
3
100
AcDbSpline
 70
0
 71
3
 72
10
 73
6
 74
4
 40
0.000000
 40
0.000000
 40
0.000000
 40
0.000000
 40
1.559924
 40
3.208831
 40
5.558774
 40
5.558774
 40
5.558774
 40
5.558774
 10
-573.450262
 20
694.456622
 30
0.0
 10
-573.071131
 20
694.808309
 30
0.0
 10
-572.291243
 20
695.531744
 30
0.0
 10
-571.004550
 20
696.944648
 30
0.0
 10
-570.847833
 20
698.310046
 30
0.0
 10
-570.755738
 20
699.112428
 30
0.0
 11
-573.450262
 21
694.456622
 31
0.0
 11
-572.321647
 21
695.533465
 31
0.0
 11
-571.297554
 21
696.825800
 31
0.0
 11
-570.755738
 21
699.112428
 31
0.0
  0
SPLINE
  5
1d3
100
AcDbEntity
  8
Layer_1
 62
3
100
AcDbSpline
 70
0
 71
3
 72
10
 73
6
 74
4
 40
0.000000
 40
0.000000
 40
0.000000
 40
0.000000
 40
4.015699
 40
8.808328
 40
13.862345
 40
13.862345
 40
13.862345
 40
13.862345
 10
-570.755738
 20
699.112428
 30
0.0
 10
-569.801704
 20
698.117384
 30
0.0
 10
-567.709055
 20
695.934781
 30
0.0
 10
-567.932788
 20
690.710992
 30
0.0
 10
-570.154366
 20
688.221587
 30
0.0
 10
-571.294641
 20
686.943842
 30
0.0
 11
-570.755738
 21
699.112428
 31
0.0
 11
-568.358125
 21
695.891048
 31
0.0
 11
-568.417220
 21
691.098782
 31
0.0
 11
-571.294641
 21
686.943842
 31
0.0
  0
LWPOLYLINE
  5
1d4
100
AcDbEntity
  8
Layer_1
 62
3
100
AcDbPolyline
 90
2
 70
1
 10
-577.191124
 20
695.250230
 30
0.0
 10
-577.191124
 20
695.250230
 30
0.0
  0
SPLINE
  5
1d5
100
AcDbEntity
  8
Layer_1
 62
3
100
AcDbSpline
 70
0
 71
3
 72
10
 73
6
 74
4
 40
0.000000
 40
0.000000
 40
0.000000
 40
0.000000
 40
2.070415
 40
3.912869
 40
5.620974
 40
5.620974
 40
5.620974
 40
5.620974
 10
-571.294641
 20
686.943842
 30
0.0
 10
-571.336985
 20
687.624605
 30
0.0
 10
-571.417010
 20
688.911177
 30
0.0
 10
-571.789921
 20
690.864666
 30
0.0
 10
-572.789667
 20
691.575244
 30
0.0
 10
-573.270626
 20
691.917090
 30
0.0
 11
-571.294641
 21
686.943842
 31
0.0
 11
-571.471947
 21
689.006651
 31
0.0
 11
-572.004614
 21
690.770426
 31
0.0
 11
-573.270626
 21
691.917090
 31
0.0
  0
LWPOLYLINE
  5
1d6
100
AcDbEntity
  8
Layer_1
 62
5
100
AcDbPolyline
 90
2
 70
1
 10
-645.171048
 20
699.224404
 30
0.0
 10
-644.121408
 20
699.224404
 30
0.0
  0
SPLINE
  5
1d7
100
AcDbEntity
  8
Layer_1
 62
5
100
AcDbSpline
 70
0
 71
3
 72
10
 73
6
 74
4
 40
0.000000
 40
0.000000
 40
0.000000
 40
0.000000
 40
6.593794
 40
12.977447
 40
19.571241
 40
19.571241
 40
19.571241
 40
19.571241
 10
-644.121408
 20
699.224404
 30
0.0
 10
-641.910833
 20
698.880679
 30
0.0
 10
-637.560132
 20
698.204183
 30
0.0
 10
-632.545933
 20
693.189984
 30
0.0
 10
-631.869437
 20
688.839283
 30
0.0
 10
-631.525712
 20
686.628708
 30
0.0
 11
-644.121408
 21
699.224404
 31
0.0
 11
-637.754517
 21
697.509523
 31
0.0
 11
-633.240593
 21
692.995599
 31
0.0
 11
-631.525712
 21
686.628708
 31
0.0
  0
LWPOLYLINE
  5
1d8
100
AcDbEntity
  8
Layer_1
 62
5
100
AcDbPolyline
 90
2
 70
1
 10
-631.525712
 20
686.628708
 30
0.0
 10
-631.525712
 20
685.579068
 30
0.0
  0
SPLINE
  5
1d9
100
AcDbEntity
  8
Layer_1
 62
5
100
AcDbSpline
 70
0
 71
3
 72
10
 73
6
 74
4
 40
0.000000
 40
0.000000
 40
0.000000
 40
0.000000
 40
6.593794
 40
12.977447
 40
19.571241
 40
19.571241
 40
19.571241
 40
19.571241
 10
-631.525712
 20
685.579068
 30
0.0
 10
-631.869437
 20
683.368492
 30
0.0
 10
-632.545933
 20
679.017792
 30
0.0
 10
-637.560132
 20
674.003593
 30
0.0
 10
-641.910833
 20
673.327097
 30
0.0
 10
-644.121408
 20
672.983372
 30
0.0
 11
-631.525712
 21
685.579068
 31
0.0
 11
-633.240593
 21
679.212177
 31
0.0
 11
-637.754517
 21
674.698252
 31
0.0
 11
-644.121408
 21
672.983372
 31
0.0
  0
LWPOLYLINE
  5
1da
100
AcDbEntity
  8
Layer_1
 62
5
100
AcDbPolyline
 90
2
 70
1
 10
-644.121408
 20
672.983372
 30
0.0
 10
-645.171048
 20
672.983372
 30
0.0
  0
SPLINE
  5
1db
100
AcDbEntity
  8
Layer_1
 62
5
100
AcDbSpline
 70
0
 71
3
 72
10
 73
6
 74
4
 40
0.000000
 40
0.000000
 40
0.000000
 40
0.000000
 40
6.593796
 40
12.977452
 40
19.571246
 40
19.571246
 40
19.571246
 40
19.571246
 10
-645.171048
 20
672.983372
 30
0.0
 10
-647.381624
 20
673.327097
 30
0.0
 10
-651.732326
 20
674.003593
 30
0.0
 10
-656.746529
 20
679.017790
 30
0.0
 10
-657.423026
 20
683.368492
 30
0.0
 10
-657.766752
 20
685.579068
 30
0.0
 11
-645.171048
 21
672.983372
 31
0.0
 11
-651.537941
 21
674.698252
 31
0.0
 11
-656.051869
 21
679.212177
 31
0.0
 11
-657.766752
 21
685.579068
 31
0.0
  0
LWPOLYLINE
  5
1dc
100
AcDbEntity
  8
Layer_1
 62
5
100
AcDbPolyline
 90
2
 70
1
 10
-657.766752
 20
685.579068
 30
0.0
 10
-657.766752
 20
686.628708
 30
0.0
  0
SPLINE
  5
1dd
100
AcDbEntity
  8
Layer_1
 62
5
100
AcDbSpline
 70
0
 71
3
 72
10
 73
6
 74
4
 40
0.000000
 40
0.000000
 40
0.000000
 40
0.000000
 40
6.593795
 40
12.977450
 40
19.571246
 40
19.571246
 40
19.571246
 40
19.571246
 10
-657.766752
 20
686.628708
 30
0.0
 10
-657.423026
 20
688.839283
 30
0.0
 10
-656.746529
 20
693.189985
 30
0.0
 10
-651.732326
 20
698.204182
 30
0.0
 10
-647.381624
 20
698.880678
 30
0.0
 10
-645.171048
 20
699.224404
 30
0.0
 11
-657.766752
 21
686.628708
 31
0.0
 11
-656.051869
 21
692.995599
 31
0.0
 11
-651.537941
 21
697.509523
 31
0.0
 11
-645.171048
 21
699.224404
 31
0.0
  0
SPLINE
  5
1de
100
AcDbEntity
  8
Layer_1
 62
3
100
AcDbSpline
 70
0
 71
3
 72
10
 73
6
 74
4
 40
0.000000
 40
0.000000
 40
0.000000
 40
0.000000
 40
4.567801
 40
8.405711
 40
11.646428
 40
11.646428
 40
11.646428
 40
11.646428
 10
-652.334992
 20
689.355977
 30
0.0
 10
-651.691308
 20
690.723030
 30
0.0
 10
-650.506795
 20
693.238695
 30
0.0
 10
-648.224503
 20
696.592191
 30
0.0
 10
-645.962187
 20
697.426159
 30
0.0
 10
-644.926459
 20
697.807964
 30
0.0
 11
-652.334992
 21
689.355977
 31
0.0
 11
-650.267301
 21
693.428993
 31
0.0
 11
-647.850212
 21
696.410140
 31
0.0
 11
-644.926459
 21
697.807964
 31
0.0
  0
SPLINE
  5
1df
100
AcDbEntity
  8
Layer_1
 62
3
100
AcDbSpline
 70
0
 71
3
 72
10
 73
6
 74
4
 40
0.000000
 40
0.000000
 40
0.000000
 40
0.000000
 40
3.986194
 40
7.665304
 40
11.409570
 40
11.409570
 40
11.409570
 40
11.409570
 10
-644.926459
 20
697.807964
 30
0.0
 10
-643.634694
 20
697.332883
 30
0.0
 10
-641.150676
 20
696.419318
 30
0.0
 10
-639.241300
 20
692.929650
 30
0.0
 10
-638.095736
 20
690.762233
 30
0.0
 10
-637.517926
 20
689.669013
 30
0.0
 11
-644.926459
 21
697.807964
 31
0.0
 11
-641.376016
 21
695.995757
 31
0.0
 11
-639.275963
 21
692.974892
 31
0.0
 11
-637.517926
 21
689.669013
 31
0.0
  0
LWPOLYLINE
  5
1e0
100
AcDbEntity
  8
Layer_1
 62
5
100
AcDbPolyline
 90
2
 70
1
 10
-645.171048
 20
699.224404
 30
0.0
 10
-645.171048
 20
699.224404
 30
0.0
  0
SPLINE
  5
1e1
100
AcDbEntity
  8
Layer_1
 62
3
100
AcDbSpline
 70
0
 71
3
 72
10
 73
6
 74
4
 40
0.000000
 40
0.000000
 40
0.000000
 40
0.000000
 40
1.925765
 40
3.874730
 40
5.941423
 40
5.941423
 40
5.941423
 40
5.941423
 10
-637.517926
 20
689.669013
 30
0.0
 10
-638.136149
 20
689.838563
 30
0.0
 10
-639.380042
 20
690.179708
 30
0.0
 10
-641.326774
 20
690.619217
 30
0.0
 10
-642.669982
 20
690.543002
 30
0.0
 10
-643.361276
 20
690.503777
 30
0.0
 11
-637.517926
 21
689.669013
 31
0.0
 11
-639.378937
 21
690.164199
 31
0.0
 11
-641.294669
 21
690.522582
 31
0.0
 11
-643.361276
 21
690.503777
 31
0.0
  0
LWPOLYLINE
  5
1e2
100
AcDbEntity
  8
Layer_1
 62
3
100
AcDbPolyline
 90
4
 70
1
 10
-643.361276
 20
690.503777
 30
0.0
 10
-643.569968
 20
687.060375
 30
0.0
 10
-645.656878
 20
687.164720
 30
0.0
 10
-645.865569
 20
690.295086
 30
0.0
  0
LWPOLYLINE
  5
1e3
100
AcDbEntity
  8
Layer_1
 62
3
100
AcDbPolyline
 90
2
 70
1
 10
-652.334992
 20
689.355977
 30
0.0
 10
-652.334992
 20
689.355977
 30
0.0
  0
LWPOLYLINE
  5
1e4
100
AcDbEntity
  8
Layer_1
 62
3
100
AcDbPolyline
 90
2
 70
0
 10
-645.229603
 20
686.950283
 30
0.0
 10
-647.525205
 20
682.046043
 30
0.0
  0
LWPOLYLINE
  5
1e5
100
AcDbEntity
  8
Layer_1
 62
3
100
AcDbPolyline
 90
3
 70
0
 10
-646.377404
 20
687.993738
 30
0.0
 10
-648.456538
 20
683.302866
 30
0.0
 10
-647.224698
 20
680.031545
 30
0.0
  0
LWPOLYLINE
  5
1e6
100
AcDbEntity
  8
Layer_1
 62
3
100
AcDbPolyline
 90
3
 70
0
 10
-648.464315
 20
688.098084
 30
0.0
 10
-649.820807
 20
683.089498
 30
0.0
 10
-647.212168
 20
678.498295
 30
0.0
  0
LWPOLYLINE
  5
1e7
100
AcDbEntity
  8
Layer_1
 62
3
100
AcDbPolyline
 90
4
 70
0
 10
-649.555549
 20
688.285014
 30
0.0
 10
-650.982409
 20
684.556766
 30
0.0
 10
-650.660215
 20
681.449894
 30
0.0
 10
-647.530328
 20
677.307396
 30
0.0
  0
LWPOLYLINE
  5
1e8
100
AcDbEntity
  8
Layer_1
 62
3
100
AcDbPolyline
 90
4
 70
0
 10
-650.982409
 20
688.331042
 30
0.0
 10
-651.902964
 20
684.464711
 30
0.0
 10
-651.212547
 20
680.460297
 30
0.0
 10
-647.415259
 20
675.489300
 30
0.0
  0
LWPOLYLINE
  5
1e9
100
AcDbEntity
  8
Layer_1
 62
3
100
AcDbPolyline
 90
2
 70
0
 10
-644.000671
 20
686.975678
 30
0.0
 10
-641.705069
 20
682.071438
 30
0.0
  0
LWPOLYLINE
  5
1ea
100
AcDbEntity
  8
Layer_1
 62
3
100
AcDbPolyline
 90
3
 70
0
 10
-642.852870
 20
688.019133
 30
0.0
 10
-640.773736
 20
683.328261
 30
0.0
 10
-642.005576
 20
680.056940
 30
0.0
  0
LWPOLYLINE
  5
1eb
100
AcDbEntity
  8
Layer_1
 62
3
100
AcDbPolyline
 90
3
 70
0
 10
-640.765960
 20
688.123479
 30
0.0
 10
-639.409467
 20
683.114893
 30
0.0
 10
-642.018106
 20
678.523690
 30
0.0
  0
LWPOLYLINE
  5
1ec
100
AcDbEntity
  8
Layer_1
 62
3
100
AcDbPolyline
 90
4
 70
0
 10
-639.674725
 20
688.310409
 30
0.0
 10
-638.247865
 20
684.582161
 30
0.0
 10
-638.570059
 20
681.475289
 30
0.0
 10
-641.699946
 20
677.332790
 30
0.0
  0
SPLINE
  5
1ed
100
AcDbEntity
  8
Layer_1
 62
3
100
AcDbSpline
 70
0
 71
3
 72
10
 73
6
 74
4
 40
0.000000
 40
0.000000
 40
0.000000
 40
0.000000
 40
2.156571
 40
4.345074
 40
6.569515
 40
6.569515
 40
6.569515
 40
6.569515
 10
-645.865569
 20
690.295086
 30
0.0
 10
-646.586419
 20
690.315393
 30
0.0
 10
-648.038792
 20
690.356306
 30
0.0
 10
-650.197414
 20
689.919114
 30
0.0
 10
-651.618608
 20
689.544706
 30
0.0
 10
-652.334992
 20
689.355977
 30
0.0
 11
-645.865569
 21
690.295086
 31
0.0
 11
-648.022043
 21
690.274696
 31
0.0
 11
-650.178517
 21
689.901650
 31
0.0
 11
-652.334992
 21
689.355977
 31
0.0
  0
SPLINE
  5
1ee
100
AcDbEntity
  8
Layer_1
 62
3
100
AcDbSpline
 70
0
 71
3
 72
13
 73
9
 74
7
 40
0.000000
 40
0.000000
 40
0.000000
 40
0.000000
 40
0.749877
 40
2.176335
 40
3.045322
 40
4.507213
 40
7.027502
 40
8.365531
 40
8.365531
 40
8.365531
 40
8.365531
 10
-645.626220
 20
682.942937
 30
0.0
 10
-645.704502
 20
682.705311
 30
0.0
 10
-645.931696
 20
682.015660
 30
0.0
 10
-646.217856
 20
681.048766
 30
0.0
 10
-646.652601
 20
679.848979
 30
0.0
 10
-646.280466
 20
678.216801
 30
0.0
 10
-646.211945
 20
676.460339
 30
0.0
 10
-646.081773
 20
675.179063
 30
0.0
 10
-646.036630
 20
674.734729
 30
0.0
 11
-645.626220
 21
682.942937
 31
0.0
 11
-645.858372
 21
682.229901
 31
0.0
 11
-646.289510
 21
680.870157
 31
0.0
 11
-646.521661
 21
680.032754
 31
0.0
 11
-646.395913
 21
678.576281
 31
0.0
 11
-646.162379
 21
676.066836
 31
0.0
 11
-646.036630
 21
674.734729
 31
0.0
  0
LWPOLYLINE
  5
1ef
100
AcDbEntity
  8
Layer_1
 62
3
100
AcDbPolyline
 90
4
 70
0
 10
-638.247865
 20
688.356437
 30
0.0
 10
-637.327310
 20
684.490106
 30
0.0
 10
-638.017727
 20
680.485692
 30
0.0
 10
-641.815016
 20
675.514695
 30
0.0
  0
SPLINE
  5
1f0
100
AcDbEntity
  8
Layer_1
 62
3
100
AcDbSpline
 70
0
 71
3
 72
13
 73
9
 74
7
 40
0.000000
 40
0.000000
 40
0.000000
 40
0.000000
 40
0.593554
 40
1.613092
 40
2.306479
 40
3.860413
 40
6.440636
 40
7.800198
 40
7.800198
 40
7.800198
 40
7.800198
 10
-643.238378
 20
683.092177
 30
0.0
 10
-643.146092
 20
682.916679
 30
0.0
 10
-642.895289
 20
682.439731
 30
0.0
 10
-642.483439
 20
681.801631
 30
0.0
 10
-641.903585
 20
680.832531
 30
0.0
 10
-642.462643
 20
679.166386
 30
0.0
 10
-642.557912
 20
677.382540
 30
0.0
 10
-642.758684
 20
676.079745
 30
0.0
 10
-642.827968
 20
675.630170
 30
0.0
 11
-643.238378
 21
683.092177
 31
0.0
 11
-642.956479
 21
682.569837
 31
0.0
 11
-642.425848
 21
681.699269
 31
0.0
 11
-642.119076
 21
681.077435
 31
0.0
 11
-642.286281
 21
679.532523
 31
0.0
 11
-642.635890
 21
676.976095
 31
0.0
 11
-642.827968
 21
675.630170
 31
0.0
  0
LWPOLYLINE
  5
1f1
100
AcDbEntity
  8
Layer_1
 62
3
100
AcDbPolyline
 90
3
 70
0
 10
-645.029260
 20
682.345977
 30
0.0
 10
-645.850080
 20
679.025383
 30
0.0
 10
-645.141190
 20
674.883969
 30
0.0
  0
SPLINE
  5
1f2
100
AcDbEntity
  8
Layer_1
 62
3
100
AcDbSpline
 70
0
 71
3
 72
13
 73
9
 74
7
 40
0.000000
 40
0.000000
 40
0.000000
 40
0.000000
 40
0.680867
 40
1.968823
 40
2.735009
 40
3.857851
 40
5.770839
 40
6.784069
 40
6.784069
 40
6.784069
 40
6.784069
 10
-643.686098
 20
682.047496
 30
0.0
 10
-643.621473
 20
681.829471
 30
0.0
 10
-643.434600
 20
681.199022
 30
0.0
 10
-643.211941
 20
680.328545
 30
0.0
 10
-642.898236
 20
679.274570
 30
0.0
 10
-643.514590
 20
678.081653
 30
0.0
 10
-643.791210
 20
676.778040
 30
0.0
 10
-644.073413
 20
675.842262
 30
0.0
 10
-644.171129
 20
675.518240
 30
0.0
 11
-643.686098
 21
682.047496
 31
0.0
 11
-643.495403
 21
681.393880
 31
0.0
 11
-643.155466
 21
680.151594
 31
0.0
 11
-643.014517
 21
679.398483
 31
0.0
 11
-643.347544
 21
678.326165
 31
0.0
 11
-643.887849
 21
676.491064
 31
0.0
 11
-644.171129
 21
675.518240
 31
0.0
  0
SPLINE
  5
1f3
100
AcDbEntity
  8
Layer_1
 62
3
100
AcDbSpline
 70
0
 71
3
 72
10
 73
6
 74
4
 40
0.000000
 40
0.000000
 40
0.000000
 40
0.000000
 40
0.959538
 40
1.867802
 40
2.819095
 40
2.819095
 40
2.819095
 40
2.819095
 10
-645.924701
 20
684.286098
 30
0.0
 10
-645.627704
 20
684.157495
 30
0.0
 10
-645.049582
 20
683.907160
 30
0.0
 10
-644.080428
 20
683.959471
 30
0.0
 10
-643.498675
 20
684.175556
 30
0.0
 10
-643.201067
 20
684.286098
 30
0.0
 11
-645.924701
 21
684.286098
 31
0.0
 11
-645.016823
 21
683.975502
 31
0.0
 11
-644.108945
 21
684.001990
 31
0.0
 11
-643.201067
 21
684.286098
 31
0.0
  0
LWPOLYLINE
  5
1f4
100
AcDbEntity
  8
Layer_1
 62
3
100
AcDbPolyline
 90
2
 70
0
 10
-644.506919
 20
680.331234
 30
0.0
 10
-644.768089
 20
677.719532
 30
0.0
  0
LWPOLYLINE
  5
1f5
100
AcDbEntity
  8
Layer_1
 62
3
100
AcDbPolyline
 90
2
 70
0
 10
-645.738150
 20
692.760333
 30
0.0
 10
-645.795056
 20
697.675665
 30
0.0
  0
SPLINE
  5
1f6
100
AcDbEntity
  8
Layer_1
 62
3
100
AcDbSpline
 70
0
 71
3
 72
10
 73
6
 74
4
 40
0.000000
 40
0.000000
 40
0.000000
 40
0.000000
 40
2.072406
 40
3.709858
 40
5.045992
 40
5.045992
 40
5.045992
 40
5.045992
 10
-650.745880
 20
692.303092
 30
0.0
 10
-650.068285
 20
692.438383
 30
0.0
 10
-648.855308
 20
692.680570
 30
0.0
 10
-647.174122
 20
692.832655
 30
0.0
 10
-646.183342
 20
692.782755
 30
0.0
 10
-645.738150
 20
692.760333
 30
0.0
 11
-650.745880
 21
692.303092
 31
0.0
 11
-648.705903
 21
692.668281
 31
0.0
 11
-647.073712
 21
692.799429
 31
0.0
 11
-645.738150
 21
692.760333
 31
0.0
  0
LWPOLYLINE
  5
1f7
100
AcDbEntity
  8
Layer_1
 62
3
100
AcDbPolyline
 90
2
 70
0
 10
-643.494884
 20
697.315883
 30
0.0
 10
-643.325454
 20
692.715974
 30
0.0
  0
SPLINE
  5
1f8
100
AcDbEntity
  8
Layer_1
 62
3
100
AcDbSpline
 70
0
 71
3
 72
10
 73
6
 74
4
 40
0.000000
 40
0.000000
 40
0.000000
 40
0.000000
 40
1.532861
 40
2.933901
 40
4.284655
 40
4.284655
 40
4.284655
 40
4.284655
 10
-643.325454
 20
692.715974
 30
0.0
 10
-642.821156
 20
692.809649
 30
0.0
 10
-641.855928
 20
692.988944
 30
0.0
 10
-640.417318
 20
692.874434
 30
0.0
 10
-639.526821
 20
692.653873
 30
0.0
 10
-639.089709
 20
692.545608
 30
0.0
 11
-643.325454
 21
692.715974
 31
0.0
 11
-641.807141
 21
692.926654
 31
0.0
 11
-640.409103
 21
692.834980
 31
0.0
 11
-639.089709
 21
692.545608
 31
0.0
  0
LWPOLYLINE
  5
1f9
100
AcDbEntity
  8
Layer_1
 62
5
100
AcDbPolyline
 90
2
 70
1
 10
-612.711624
 20
700.950388
 30
0.0
 10
-611.661992
 20
700.950388
 30
0.0
  0
SPLINE
  5
1fa
100
AcDbEntity
  8
Layer_1
 62
5
100
AcDbSpline
 70
0
 71
3
 72
10
 73
6
 74
4
 40
0.000000
 40
0.000000
 40
0.000000
 40
0.000000
 40
6.593800
 40
12.977457
 40
19.571253
 40
19.571253
 40
19.571253
 40
19.571253
 10
-611.661992
 20
700.950388
 30
0.0
 10
-609.451415
 20
700.606662
 30
0.0
 10
-605.100710
 20
699.930165
 30
0.0
 10
-600.086510
 20
694.915962
 30
0.0
 10
-599.410013
 20
690.565260
 30
0.0
 10
-599.066288
 20
688.354684
 30
0.0
 11
-611.661992
 21
700.950388
 31
0.0
 11
-605.295095
 21
699.235505
 31
0.0
 11
-600.781169
 21
694.721577
 31
0.0
 11
-599.066288
 21
688.354684
 31
0.0
  0
LWPOLYLINE
  5
1fb
100
AcDbEntity
  8
Layer_1
 62
5
100
AcDbPolyline
 90
2
 70
1
 10
-599.066288
 20
688.354684
 30
0.0
 10
-599.066288
 20
687.305044
 30
0.0
  0
SPLINE
  5
1fc
100
AcDbEntity
  8
Layer_1
 62
5
100
AcDbSpline
 70
0
 71
3
 72
10
 73
6
 74
4
 40
0.000000
 40
0.000000
 40
0.000000
 40
0.000000
 40
6.593794
 40
12.977448
 40
19.571248
 40
19.571248
 40
19.571248
 40
19.571248
 10
-599.066288
 20
687.305044
 30
0.0
 10
-599.410013
 20
685.094468
 30
0.0
 10
-600.086509
 20
680.743767
 30
0.0
 10
-605.100712
 20
675.729568
 30
0.0
 10
-609.451415
 20
675.053073
 30
0.0
 10
-611.661992
 20
674.709348
 30
0.0
 11
-599.066288
 21
687.305044
 31
0.0
 11
-600.781169
 21
680.938153
 31
0.0
 11
-605.295095
 21
676.424228
 31
0.0
 11
-611.661992
 21
674.709348
 31
0.0
  0
LWPOLYLINE
  5
1fd
100
AcDbEntity
  8
Layer_1
 62
5
100
AcDbPolyline
 90
2
 70
1
 10
-611.661992
 20
674.709348
 30
0.0
 10
-612.711624
 20
674.709348
 30
0.0
  0
SPLINE
  5
1fe
100
AcDbEntity
  8
Layer_1
 62
5
100
AcDbSpline
 70
0
 71
3
 72
10
 73
6
 74
4
 40
0.000000
 40
0.000000
 40
0.000000
 40
0.000000
 40
6.593796
 40
12.977452
 40
19.571246
 40
19.571246
 40
19.571246
 40
19.571246
 10
-612.711624
 20
674.709348
 30
0.0
 10
-614.922200
 20
675.053073
 30
0.0
 10
-619.272902
 20
675.729569
 30
0.0
 10
-624.287105
 20
680.743766
 30
0.0
 10
-624.963602
 20
685.094468
 30
0.0
 10
-625.307328
 20
687.305044
 30
0.0
 11
-612.711624
 21
674.709348
 31
0.0
 11
-619.078517
 21
676.424228
 31
0.0
 11
-623.592445
 21
680.938153
 31
0.0
 11
-625.307328
 21
687.305044
 31
0.0
  0
LWPOLYLINE
  5
1ff
100
AcDbEntity
  8
Layer_1
 62
5
100
AcDbPolyline
 90
2
 70
1
 10
-625.307328
 20
687.305044
 30
0.0
 10
-625.307328
 20
688.354684
 30
0.0
  0
SPLINE
  5
200
100
AcDbEntity
  8
Layer_1
 62
5
100
AcDbSpline
 70
0
 71
3
 72
10
 73
6
 74
4
 40
0.000000
 40
0.000000
 40
0.000000
 40
0.000000
 40
6.593797
 40
12.977455
 40
19.571251
 40
19.571251
 40
19.571251
 40
19.571251
 10
-625.307328
 20
688.354684
 30
0.0
 10
-624.963602
 20
690.565260
 30
0.0
 10
-624.287104
 20
694.915963
 30
0.0
 10
-619.272903
 20
699.930164
 30
0.0
 10
-614.922200
 20
700.606662
 30
0.0
 10
-612.711624
 20
700.950388
 30
0.0
 11
-625.307328
 21
688.354684
 31
0.0
 11
-623.592445
 21
694.721577
 31
0.0
 11
-619.078517
 21
699.235505
 31
0.0
 11
-612.711624
 21
700.950388
 31
0.0
  0
LWPOLYLINE
  5
201
100
AcDbEntity
  8
Layer_1
 62
5
100
AcDbPolyline
 90
2
 70
1
 10
-612.711624
 20
700.950388
 30
0.0
 10
-612.711624
 20
700.950388
 30
0.0
  0
SPLINE
  5
202
100
AcDbEntity
  8
Layer_1
 62
3
100
AcDbSpline
 70
0
 71
3
 72
10
 73
6
 74
4
 40
0.000000
 40
0.000000
 40
0.000000
 40
0.000000
 40
2.532818
 40
4.775279
 40
6.834089
 40
6.834089
 40
6.834089
 40
6.834089
 10
-619.414964
 20
693.092194
 30
0.0
 10
-618.631602
 20
693.382949
 30
0.0
 10
-617.154681
 20
693.931127
 30
0.0
 10
-614.805037
 20
694.448836
 30
0.0
 10
-613.510625
 20
693.731899
 30
0.0
 10
-612.891053
 20
693.388735
 30
0.0
 11
-619.414964
 21
693.092194
 31
0.0
 11
-617.018493
 21
693.912010
 31
0.0
 11
-614.792021
 21
694.179317
 31
0.0
 11
-612.891053
 21
693.388735
 31
0.0
  0
SPLINE
  5
203
100
AcDbEntity
  8
Layer_1
 62
3
100
AcDbSpline
 70
0
 71
3
 72
10
 73
6
 74
4
 40
0.000000
 40
0.000000
 40
0.000000
 40
0.000000
 40
1.007255
 40
2.130186
 40
3.136380
 40
3.136380
 40
3.136380
 40
3.136380
 10
-612.968426
 20
688.537294
 30
0.0
 10
-612.676500
 20
688.728624
 30
0.0
 10
-612.059122
 20
689.133256
 30
0.0
 10
-610.967888
 20
688.881909
 30
0.0
 10
-610.280306
 20
689.078806
 30
0.0
 10
-609.955364
 20
689.171857
 30
0.0
 11
-612.968426
 21
688.537294
 31
0.0
 11
-612.064973
 21
688.982645
 31
0.0
 11
-610.942070
 21
688.974787
 31
0.0
 11
-609.955364
 21
689.171857
 31
0.0
  0
SPLINE
  5
204
100
AcDbEntity
  8
Layer_1
 62
3
100
AcDbSpline
 70
0
 71
3
 72
10
 73
6
 74
4
 40
0.000000
 40
0.000000
 40
0.000000
 40
0.000000
 40
1.410272
 40
2.851183
 40
4.601143
 40
4.601143
 40
4.601143
 40
4.601143
 10
-609.955364
 20
689.171857
 30
0.0
 10
-610.205743
 20
689.565556
 30
0.0
 10
-610.711940
 20
690.361506
 30
0.0
 10
-611.583617
 20
691.693663
 30
0.0
 10
-611.470431
 20
692.788369
 30
0.0
 10
-611.408357
 20
693.388735
 30
0.0
 11
-609.955364
 21
689.171857
 31
0.0
 11
-610.714807
 21
690.360181
 31
0.0
 11
-611.378718
 21
691.639026
 31
0.0
 11
-611.408357
 21
693.388735
 31
0.0
  0
SPLINE
  5
205
100
AcDbEntity
  8
Layer_1
 62
3
100
AcDbSpline
 70
0
 71
3
 72
10
 73
6
 74
4
 40
0.000000
 40
0.000000
 40
0.000000
 40
0.000000
 40
1.922337
 40
3.720472
 40
5.524911
 40
5.524911
 40
5.524911
 40
5.524911
 10
-611.408357
 20
693.388735
 30
0.0
 10
-610.803752
 20
693.588247
 30
0.0
 10
-609.633605
 20
693.974379
 30
0.0
 10
-607.929906
 20
694.855692
 30
0.0
 10
-606.718554
 20
694.593343
 30
0.0
 10
-606.111819
 20
694.461939
 30
0.0
 11
-611.408357
 21
693.388735
 31
0.0
 11
-609.600650
 21
694.042624
 31
0.0
 11
-607.906828
 21
694.646164
 31
0.0
 11
-606.111819
 21
694.461939
 31
0.0
  0
SPLINE
  5
206
100
AcDbEntity
  8
Layer_1
 62
3
100
AcDbSpline
 70
0
 71
3
 72
10
 73
6
 74
4
 40
0.000000
 40
0.000000
 40
0.000000
 40
0.000000
 40
4.617963
 40
9.068301
 40
13.411801
 40
13.411801
 40
13.411801
 40
13.411801
 10
-618.228791
 20
684.789051
 30
0.0
 10
-616.708441
 20
685.035097
 30
0.0
 10
-613.722927
 20
685.518259
 30
0.0
 10
-609.232656
 20
685.642003
 30
0.0
 10
-606.322071
 20
685.269554
 30
0.0
 10
-604.884459
 20
685.085592
 30
0.0
 11
-618.228791
 21
684.789051
 31
0.0
 11
-613.654630
 21
685.423591
 31
0.0
 11
-609.205490
 21
685.526820
 31
0.0
 11
-604.884459
 21
685.085592
 31
0.0
  0
SPLINE
  5
207
100
AcDbEntity
  8
Layer_1
 62
3
100
AcDbSpline
 70
0
 71
3
 72
10
 73
6
 74
4
 40
0.000000
 40
0.000000
 40
0.000000
 40
0.000000
 40
7.388987
 40
13.183721
 40
17.360495
 40
17.360495
 40
17.360495
 40
17.360495
 10
-604.884459
 20
685.085592
 30
0.0
 10
-606.009381
 20
682.746356
 30
0.0
 10
-608.016509
 20
678.572599
 30
0.0
 10
-614.753289
 20
677.460786
 30
0.0
 10
-617.411773
 20
679.595175
 30
0.0
 10
-618.525334
 20
680.489209
 30
0.0
 11
-604.884459
 21
685.085592
 31
0.0
 11
-609.235769
 21
679.113722
 31
0.0
 11
-614.972179
 21
678.293637
 31
0.0
 11
-618.525334
 21
680.489209
 31
0.0
  0
SPLINE
  5
208
100
AcDbEntity
  8
Layer_1
 62
3
100
AcDbSpline
 70
0
 71
3
 72
10
 73
6
 74
4
 40
0.000000
 40
0.000000
 40
0.000000
 40
0.000000
 40
4.499941
 40
9.588015
 40
15.942265
 40
15.942265
 40
15.942265
 40
15.942265
 10
-618.525334
 20
680.489209
 30
0.0
 10
-619.102883
 20
681.878292
 30
0.0
 10
-620.333465
 20
684.838011
 30
0.0
 10
-620.929487
 20
690.217968
 30
0.0
 10
-620.211262
 20
693.979951
 30
0.0
 10
-619.812411
 20
696.069088
 30
0.0
 11
-618.525334
 21
680.489209
 31
0.0
 11
-620.065878
 21
684.717233
 31
0.0
 11
-620.655545
 21
689.771023
 31
0.0
 11
-619.812411
 21
696.069088
 31
0.0
  0
SPLINE
  5
209
100
AcDbEntity
  8
Layer_1
 62
3
100
AcDbSpline
 70
0
 71
3
 72
10
 73
6
 74
4
 40
0.000000
 40
0.000000
 40
0.000000
 40
0.000000
 40
3.193141
 40
8.120848
 40
12.906540
 40
12.906540
 40
12.906540
 40
12.906540
 10
-619.812411
 20
696.069088
 30
0.0
 10
-618.955160
 20
696.735570
 30
0.0
 10
-616.774983
 20
698.430578
 30
0.0
 10
-612.254796
 20
698.504961
 30
0.0
 10
-609.049363
 20
698.462580
 30
0.0
 10
-607.470080
 20
698.441700
 30
0.0
 11
-619.812411
 21
696.069088
 31
0.0
 11
-617.138005
 21
697.813708
 31
0.0
 11
-612.255615
 21
698.480465
 31
0.0
 11
-607.470080
 21
698.441700
 31
0.0
  0
LWPOLYLINE
  5
20a
100
AcDbEntity
  8
Layer_1
 62
3
100
AcDbPolyline
 90
3
 70
0
 10
-612.891053
 20
693.388735
 30
0.0
 10
-612.594530
 20
691.016410
 30
0.0
 10
-613.424714
 20
688.798522
 30
0.0
  0
SPLINE
  5
20b
100
AcDbEntity
  8
Layer_1
 62
3
100
AcDbSpline
 70
0
 71
3
 72
10
 73
6
 74
4
 40
0.000000
 40
0.000000
 40
0.000000
 40
0.000000
 40
1.822098
 40
3.570755
 40
5.657185
 40
5.657185
 40
5.657185
 40
5.657185
 10
-607.470080
 20
698.441700
 30
0.0
 10
-606.954699
 20
698.121878
 30
0.0
 10
-605.944711
 20
697.495124
 30
0.0
 10
-604.553787
 20
696.151062
 30
0.0
 10
-604.126616
 20
694.926766
 30
0.0
 10
-603.894220
 20
694.260703
 30
0.0
 11
-607.470080
 21
698.441700
 31
0.0
 11
-605.958323
 21
697.424530
 31
0.0
 11
-604.744062
 21
696.166210
 31
0.0
 11
-603.894220
 21
694.260703
 31
0.0
  0
LWPOLYLINE
  5
20c
100
AcDbEntity
  8
Layer_1
 62
3
100
AcDbPolyline
 90
2
 70
0
 10
-603.894220
 20
694.260703
 30
0.0
 10
-604.143107
 20
687.754461
 30
0.0
  0
SPLINE
  5
20d
100
AcDbEntity
  8
Layer_1
 62
3
100
AcDbSpline
 70
0
 71
3
 72
19
 73
15
 74
13
 40
0.000000
 40
0.000000
 40
0.000000
 40
0.000000
 40
0.592103
 40
1.369868
 40
2.336485
 40
3.303095
 40
4.080858
 40
4.672961
 40
5.265064
 40
6.042827
 40
7.009437
 40
7.976053
 40
8.753819
 40
9.345921
 40
9.345921
 40
9.345921
 40
9.345921
 10
-613.312370
 20
692.100800
 30
0.0
 10
-613.414401
 20
691.923183
 30
0.0
 10
-613.650458
 20
691.512256
 30
0.0
 10
-614.477892
 20
691.333595
 30
0.0
 10
-615.372942
 20
691.366375
 30
0.0
 10
-616.244030
 20
691.666044
 30
0.0
 10
-616.892803
 20
692.122577
 30
0.0
 10
-617.147003
 20
692.822609
 30
0.0
 10
-616.655678
 20
693.382308
 30
0.0
 10
-615.885318
 20
693.571712
 30
0.0
 10
-614.964891
 20
693.534156
 30
0.0
 10
-614.119180
 20
693.239264
 30
0.0
 10
-613.413334
 20
692.771988
 30
0.0
 10
-613.342839
 20
692.303357
 30
0.0
 10
-613.312370
 20
692.100800
 30
0.0
 11
-613.312370
 21
692.100800
 31
0.0
 11
-613.664996
 21
691.625152
 31
0.0
 11
-614.402697
 21
691.378746
 31
0.0
 11
-615.368672
 21
691.413955
 31
0.0
 11
-616.281332
 21
691.732369
 31
0.0
 11
-616.878953
 21
692.230130
 31
0.0
 11
-617.034507
 21
692.801434
 31
0.0
 11
-616.681880
 21
693.277081
 31
0.0
 11
-615.944182
 21
693.523488
 31
0.0
 11
-614.978213
 21
693.488279
 31
0.0
 11
-614.065547
 21
693.169864
 31
0.0
 11
-613.467924
 21
692.672104
 31
0.0
 11
-613.312370
 21
692.100800
 31
0.0
  0
LWPOLYLINE
  5
20e
100
AcDbEntity
  8
Layer_1
 62
3
100
AcDbPolyline
 90
2
 70
1
 10
-613.312370
 20
692.100800
 30
0.0
 10
-613.312370
 20
692.100800
 30
0.0
  0
LWPOLYLINE
  5
20f
100
AcDbEntity
  8
Layer_1
 62
3
100
AcDbPolyline
 90
2
 70
1
 10
-607.182131
 20
693.032686
 30
0.0
 10
-607.182131
 20
693.032686
 30
0.0
  0
LWPOLYLINE
  5
210
100
AcDbEntity
  8
Layer_1
 62
3
100
AcDbPolyline
 90
4
 70
0
 10
-660.020006
 20
729.865921
 30
0.0
 10
-653.238150
 20
729.865921
 30
0.0
 10
-655.749950
 20
720.295649
 30
0.0
 10
-648.465742
 20
720.534913
 30
0.0
  0
SPLINE
  5
211
100
AcDbEntity
  8
Layer_1
 62
3
100
AcDbSpline
 70
0
 71
3
 72
19
 73
15
 74
13
 40
0.000000
 40
0.000000
 40
0.000000
 40
0.000000
 40
0.592103
 40
1.369868
 40
2.336485
 40
3.303095
 40
4.080858
 40
4.672961
 40
5.265064
 40
6.042827
 40
7.009437
 40
7.976053
 40
8.753819
 40
9.345921
 40
9.345921
 40
9.345921
 40
9.345921
 10
-607.182131
 20
693.032686
 30
0.0
 10
-607.201538
 20
692.828771
 30
0.0
 10
-607.246438
 20
692.357000
 30
0.0
 10
-607.925824
 20
691.852023
 30
0.0
 10
-608.754244
 20
691.511569
 30
0.0
 10
-609.671266
 20
691.424005
 30
0.0
 10
-610.450787
 20
691.571228
 30
0.0
 10
-610.971827
 20
692.103375
 30
0.0
 10
-610.756079
 20
692.816196
 30
0.0
 10
-610.133099
 20
693.307342
 30
0.0
 10
-609.279599
 20
693.653947
 30
0.0
 10
-608.387657
 20
693.735360
 30
0.0
 10
-607.551731
 20
693.601970
 30
0.0
 10
-607.293673
 20
693.204490
 30
0.0
 10
-607.182131
 20
693.032686
 30
0.0
 11
-607.182131
 21
693.032686
 31
0.0
 11
-607.306381
 21
692.453767
 31
0.0
 11
-607.876046
 21
691.924238
 31
0.0
 11
-608.770042
 21
691.556653
 31
0.0
 11
-609.732666
 21
691.468956
 31
0.0
 11
-610.482675
 21
691.674874
 31
0.0
 11
-610.860650
 21
692.130638
 31
0.0
 11
-610.736400
 21
692.709557
 31
0.0
 11
-610.166738
 21
693.239085
 31
0.0
 11
-609.272748
 21
693.606669
 31
0.0
 11
-608.310118
 21
693.694366
 31
0.0
 11
-607.560106
 21
693.488449
 31
0.0
 11
-607.182131
 21
693.032686
 31
0.0
  0
LWPOLYLINE
  5
212
100
AcDbEntity
  8
Layer_1
 62
3
100
AcDbPolyline
 90
2
 70
0
 10
-648.968102
 20
730.105177
 30
0.0
 10
-643.693318
 20
730.344433
 30
0.0
  0
SPLINE
  5
213
100
AcDbEntity
  8
Layer_1
 62
3
100
AcDbSpline
 70
0
 71
3
 72
10
 73
6
 74
4
 40
0.000000
 40
0.000000
 40
0.000000
 40
0.000000
 40
4.842619
 40
9.764236
 40
15.174998
 40
15.174998
 40
15.174998
 40
15.174998
 10
-659.189702
 20
716.299697
 30
0.0
 10
-657.607705
 20
715.998893
 30
0.0
 10
-654.417903
 20
715.392378
 30
0.0
 10
-649.312785
 20
714.849907
 30
0.0
 10
-645.969231
 20
715.807929
 30
0.0
 10
-644.218310
 20
716.309617
 30
0.0
 11
-659.189702
 21
716.299697
 31
0.0
 11
-654.420332
 21
715.460614
 31
0.0
 11
-649.507388
 21
715.168562
 31
0.0
 11
-644.218310
 21
716.309617
 31
0.0
  0
LWPOLYLINE
  5
214
100
AcDbEntity
  8
Layer_1
 62
5
100
AcDbPolyline
 90
2
 70
1
 10
-652.041006
 20
736.480233
 30
0.0
 10
-650.991366
 20
736.480233
 30
0.0
  0
SPLINE
  5
215
100
AcDbEntity
  8
Layer_1
 62
5
100
AcDbSpline
 70
0
 71
3
 72
10
 73
6
 74
4
 40
0.000000
 40
0.000000
 40
0.000000
 40
0.000000
 40
6.593795
 40
12.977450
 40
19.571246
 40
19.571246
 40
19.571246
 40
19.571246
 10
-650.991366
 20
736.480233
 30
0.0
 10
-648.780791
 20
736.136507
 30
0.0
 10
-644.430089
 20
735.460010
 30
0.0
 10
-639.415892
 20
730.445807
 30
0.0
 10
-638.739396
 20
726.095105
 30
0.0
 10
-638.395670
 20
723.884529
 30
0.0
 11
-650.991366
 21
736.480233
 31
0.0
 11
-644.624475
 21
734.765351
 31
0.0
 11
-640.110551
 21
730.251423
 31
0.0
 11
-638.395670
 21
723.884529
 31
0.0
  0
LWPOLYLINE
  5
216
100
AcDbEntity
  8
Layer_1
 62
5
100
AcDbPolyline
 90
2
 70
1
 10
-638.395670
 20
723.884529
 30
0.0
 10
-638.395670
 20
722.834889
 30
0.0
  0
SPLINE
  5
217
100
AcDbEntity
  8
Layer_1
 62
5
100
AcDbSpline
 70
0
 71
3
 72
10
 73
6
 74
4
 40
0.000000
 40
0.000000
 40
0.000000
 40
0.000000
 40
6.593794
 40
12.977447
 40
19.571241
 40
19.571241
 40
19.571241
 40
19.571241
 10
-638.395670
 20
722.834889
 30
0.0
 10
-638.739396
 20
720.624314
 30
0.0
 10
-639.415892
 20
716.273613
 30
0.0
 10
-644.430090
 20
711.259415
 30
0.0
 10
-648.780791
 20
710.582919
 30
0.0
 10
-650.991366
 20
710.239193
 30
0.0
 11
-638.395670
 21
722.834889
 31
0.0
 11
-640.110551
 21
716.467998
 31
0.0
 11
-644.624475
 21
711.954074
 31
0.0
 11
-650.991366
 21
710.239193
 31
0.0
  0
LWPOLYLINE
  5
218
100
AcDbEntity
  8
Layer_1
 62
5
100
AcDbPolyline
 90
2
 70
1
 10
-650.991366
 20
710.239193
 30
0.0
 10
-652.041006
 20
710.239193
 30
0.0
  0
SPLINE
  5
219
100
AcDbEntity
  8
Layer_1
 62
5
100
AcDbSpline
 70
0
 71
3
 72
10
 73
6
 74
4
 40
0.000000
 40
0.000000
 40
0.000000
 40
0.000000
 40
6.593794
 40
12.977447
 40
19.571241
 40
19.571241
 40
19.571241
 40
19.571241
 10
-652.041006
 20
710.239193
 30
0.0
 10
-654.251582
 20
710.582919
 30
0.0
 10
-658.602282
 20
711.259415
 30
0.0
 10
-663.616481
 20
716.273613
 30
0.0
 10
-664.292977
 20
720.624314
 30
0.0
 10
-664.636702
 20
722.834889
 30
0.0
 11
-652.041006
 21
710.239193
 31
0.0
 11
-658.407898
 21
711.954074
 31
0.0
 11
-662.921822
 21
716.467998
 31
0.0
 11
-664.636702
 21
722.834889
 31
0.0
  0
LWPOLYLINE
  5
21a
100
AcDbEntity
  8
Layer_1
 62
5
100
AcDbPolyline
 90
2
 70
1
 10
-664.636702
 20
722.834889
 30
0.0
 10
-664.636702
 20
723.884529
 30
0.0
  0
LWPOLYLINE
  5
21b
100
AcDbEntity
  8
Layer_1
 62
5
100
AcDbPolyline
 90
2
 70
1
 10
-652.041006
 20
736.480233
 30
0.0
 10
-652.041006
 20
736.480233
 30
0.0
  0
LWPOLYLINE
  5
21c
100
AcDbEntity
  8
Layer_1
 62
5
100
AcDbPolyline
 90
5
 70
1
 10
74.405912
 20
628.579108
 30
0.0
 10
99.822344
 20
628.579108
 30
0.0
 10
99.822344
 20
602.103652
 30
0.0
 10
74.405912
 20
602.103652
 30
0.0
 10
74.405912
 20
628.579108
 30
0.0
  0
LWPOLYLINE
  5
21d
100
AcDbEntity
  8
Layer_1
 62
5
100
AcDbPolyline
 90
5
 70
1
 10
107.235456
 20
661.938164
 30
0.0
 10
132.651888
 20
661.938164
 30
0.0
 10
132.651888
 20
635.462708
 30
0.0
 10
107.235456
 20
635.462708
 30
0.0
 10
107.235456
 20
661.938164
 30
0.0
  0
LWPOLYLINE
  5
21e
100
AcDbEntity
  8
Layer_1
 62
5
100
AcDbPolyline
 90
5
 70
1
 10
107.546976
 20
628.858868
 30
0.0
 10
132.963416
 20
628.858868
 30
0.0
 10
132.963416
 20
602.383412
 30
0.0
 10
107.546976
 20
602.383412
 30
0.0
 10
107.546976
 20
628.858868
 30
0.0
  0
LWPOLYLINE
  5
21f
100
AcDbEntity
  8
Layer_1
 62
5
100
AcDbPolyline
 90
5
 70
1
 10
139.379296
 20
693.271884
 30
0.0
 10
164.795736
 20
693.271884
 30
0.0
 10
164.795736
 20
666.796428
 30
0.0
 10
139.379296
 20
666.796428
 30
0.0
 10
139.379296
 20
693.271884
 30
0.0
  0
LWPOLYLINE
  5
220
100
AcDbEntity
  8
Layer_1
 62
5
100
AcDbPolyline
 90
5
 70
1
 10
139.690872
 20
661.189828
 30
0.0
 10
165.107312
 20
661.189828
 30
0.0
 10
165.107312
 20
634.714372
 30
0.0
 10
139.690872
 20
634.714372
 30
0.0
 10
139.690872
 20
661.189828
 30
0.0
  0
LWPOLYLINE
  5
221
100
AcDbEntity
  8
Layer_1
 62
5
100
AcDbPolyline
 90
5
 70
1
 10
139.629056
 20
629.231332
 30
0.0
 10
165.045496
 20
629.231332
 30
0.0
 10
165.045496
 20
602.755876
 30
0.0
 10
139.629056
 20
602.755876
 30
0.0
 10
139.629056
 20
629.231332
 30
0.0
  0
LWPOLYLINE
  5
222
100
AcDbEntity
  8
Layer_1
 62
5
100
AcDbPolyline
 90
5
 70
1
 10
171.899072
 20
628.796220
 30
0.0
 10
197.315512
 20
628.796220
 30
0.0
 10
197.315512
 20
602.320764
 30
0.0
 10
171.899072
 20
602.320764
 30
0.0
 10
171.899072
 20
628.796220
 30
0.0
  0
LWPOLYLINE
  5
223
100
AcDbEntity
  8
Layer_1
 62
5
100
AcDbPolyline
 90
5
 70
1
 10
171.898200
 20
661.253324
 30
0.0
 10
197.314632
 20
661.253324
 30
0.0
 10
197.314632
 20
634.777868
 30
0.0
 10
171.898200
 20
634.777868
 30
0.0
 10
171.898200
 20
661.253324
 30
0.0
  0
LWPOLYLINE
  5
224
100
AcDbEntity
  8
Layer_1
 62
5
100
AcDbPolyline
 90
5
 70
1
 10
170.963624
 20
693.833132
 30
0.0
 10
196.380064
 20
693.833132
 30
0.0
 10
196.380064
 20
667.357684
 30
0.0
 10
170.963624
 20
667.357684
 30
0.0
 10
170.963624
 20
693.833132
 30
0.0
  0
LWPOLYLINE
  5
225
100
AcDbEntity
  8
Layer_1
 62
5
100
AcDbPolyline
 90
5
 70
1
 10
172.022656
 20
726.104036
 30
0.0
 10
197.439096
 20
726.104036
 30
0.0
 10
197.439096
 20
699.628580
 30
0.0
 10
172.022656
 20
699.628580
 30
0.0
 10
172.022656
 20
726.104036
 30
0.0
  0
LWPOLYLINE
  5
226
100
AcDbEntity
  8
Layer_1
 62
5
100
AcDbPolyline
 90
5
 70
1
 10
203.980280
 20
757.747564
 30
0.0
 10
229.396712
 20
757.747564
 30
0.0
 10
229.396712
 20
731.272108
 30
0.0
 10
203.980280
 20
731.272108
 30
0.0
 10
203.980280
 20
757.747564
 30
0.0
  0
LWPOLYLINE
  5
227
100
AcDbEntity
  8
Layer_1
 62
5
100
AcDbPolyline
 90
5
 70
1
 10
203.668752
 20
726.413852
 30
0.0
 10
229.085192
 20
726.413852
 30
0.0
 10
229.085192
 20
699.938396
 30
0.0
 10
203.668752
 20
699.938396
 30
0.0
 10
203.668752
 20
726.413852
 30
0.0
  0
LWPOLYLINE
  5
228
100
AcDbEntity
  8
Layer_1
 62
5
100
AcDbPolyline
 90
5
 70
1
 10
203.980280
 20
694.206476
 30
0.0
 10
229.396712
 20
694.206476
 30
0.0
 10
229.396712
 20
667.731020
 30
0.0
 10
203.980280
 20
667.731020
 30
0.0
 10
203.980280
 20
694.206476
 30
0.0
  0
LWPOLYLINE
  5
229
100
AcDbEntity
  8
Layer_1
 62
5
100
AcDbPolyline
 90
5
 70
1
 10
204.042944
 20
661.938164
 30
0.0
 10
229.459384
 20
661.938164
 30
0.0
 10
229.459384
 20
635.462708
 30
0.0
 10
204.042944
 20
635.462708
 30
0.0
 10
204.042944
 20
661.938164
 30
0.0
  0
LWPOLYLINE
  5
22a
100
AcDbEntity
  8
Layer_1
 62
5
100
AcDbPolyline
 90
5
 70
1
 10
204.103864
 20
629.107748
 30
0.0
 10
229.520296
 20
629.107748
 30
0.0
 10
229.520296
 20
602.632292
 30
0.0
 10
204.103864
 20
602.632292
 30
0.0
 10
204.103864
 20
629.107748
 30
0.0
  0
LWPOLYLINE
  5
22b
100
AcDbEntity
  8
Layer_1
 62
5
100
AcDbPolyline
 90
5
 70
1
 10
75.091608
 20
597.525148
 30
0.0
 10
100.508040
 20
597.525148
 30
0.0
 10
100.508040
 20
571.049700
 30
0.0
 10
75.091608
 20
571.049700
 30
0.0
 10
75.091608
 20
597.525148
 30
0.0
  0
LWPOLYLINE
  5
22c
100
AcDbEntity
  8
Layer_1
 62
5
100
AcDbPolyline
 90
5
 70
1
 10
75.402248
 20
564.445852
 30
0.0
 10
100.818688
 20
564.445852
 30
0.0
 10
100.818688
 20
537.970404
 30
0.0
 10
75.402248
 20
537.970404
 30
0.0
 10
75.402248
 20
564.445852
 30
0.0
  0
LWPOLYLINE
  5
22d
100
AcDbEntity
  8
Layer_1
 62
5
100
AcDbPolyline
 90
5
 70
1
 10
74.966312
 20
532.053108
 30
0.0
 10
100.382752
 20
532.053108
 30
0.0
 10
100.382752
 20
505.577652
 30
0.0
 10
74.966312
 20
505.577652
 30
0.0
 10
74.966312
 20
532.053108
 30
0.0
  0
LWPOLYLINE
  5
22e
100
AcDbEntity
  8
Layer_1
 62
5
100
AcDbPolyline
 90
5
 70
1
 10
107.111040
 20
597.338068
 30
0.0
 10
132.527472
 20
597.338068
 30
0.0
 10
132.527472
 20
570.862612
 30
0.0
 10
107.111040
 20
570.862612
 30
0.0
 10
107.111040
 20
597.338068
 30
0.0
  0
LWPOLYLINE
  5
22f
100
AcDbEntity
  8
Layer_1
 62
5
100
AcDbPolyline
 90
5
 70
1
 10
107.359864
 20
564.321396
 30
0.0
 10
132.776304
 20
564.321396
 30
0.0
 10
132.776304
 20
537.845940
 30
0.0
 10
107.359864
 20
537.845940
 30
0.0
 10
107.359864
 20
564.321396
 30
0.0
  0
LWPOLYLINE
  5
230
100
AcDbEntity
  8
Layer_1
 62
5
100
AcDbPolyline
 90
5
 70
1
 10
107.422560
 20
532.114044
 30
0.0
 10
132.839000
 20
532.114044
 30
0.0
 10
132.839000
 20
505.638588
 30
0.0
 10
107.422560
 20
505.638588
 30
0.0
 10
107.422560
 20
532.114044
 30
0.0
  0
LWPOLYLINE
  5
231
100
AcDbEntity
  8
Layer_1
 62
5
100
AcDbPolyline
 90
5
 70
1
 10
139.504592
 20
597.399860
 30
0.0
 10
164.921032
 20
597.399860
 30
0.0
 10
164.921032
 20
570.924404
 30
0.0
 10
139.504592
 20
570.924404
 30
0.0
 10
139.504592
 20
597.399860
 30
0.0
  0
LWPOLYLINE
  5
232
100
AcDbEntity
  8
Layer_1
 62
5
100
AcDbPolyline
 90
5
 70
1
 10
140.065040
 20
564.881820
 30
0.0
 10
165.481480
 20
564.881820
 30
0.0
 10
165.481480
 20
538.406364
 30
0.0
 10
140.065040
 20
538.406364
 30
0.0
 10
140.065040
 20
564.881820
 30
0.0
  0
LWPOLYLINE
  5
233
100
AcDbEntity
  8
Layer_1
 62
5
100
AcDbPolyline
 90
5
 70
1
 10
139.939752
 20
532.363772
 30
0.0
 10
165.356184
 20
532.363772
 30
0.0
 10
165.356184
 20
505.888324
 30
0.0
 10
139.939752
 20
505.888324
 30
0.0
 10
139.939752
 20
532.363772
 30
0.0
  0
LWPOLYLINE
  5
234
100
AcDbEntity
  8
Layer_1
 62
5
100
AcDbPolyline
 90
5
 70
1
 10
172.147072
 20
532.301980
 30
0.0
 10
197.563512
 20
532.301980
 30
0.0
 10
197.563512
 20
505.826532
 30
0.0
 10
172.147072
 20
505.826532
 30
0.0
 10
172.147072
 20
532.301980
 30
0.0
  0
LWPOLYLINE
  5
235
100
AcDbEntity
  8
Layer_1
 62
5
100
AcDbPolyline
 90
5
 70
1
 10
171.897368
 20
565.130692
 30
0.0
 10
197.313800
 20
565.130692
 30
0.0
 10
197.313800
 20
538.655236
 30
0.0
 10
171.897368
 20
538.655236
 30
0.0
 10
171.897368
 20
565.130692
 30
0.0
  0
LWPOLYLINE
  5
236
100
AcDbEntity
  8
Layer_1
 62
5
100
AcDbPolyline
 90
5
 70
1
 10
171.586672
 20
597.462508
 30
0.0
 10
197.003112
 20
597.462508
 30
0.0
 10
197.003112
 20
570.987052
 30
0.0
 10
171.586672
 20
570.987052
 30
0.0
 10
171.586672
 20
597.462508
 30
0.0
  0
LWPOLYLINE
  5
237
100
AcDbEntity
  8
Layer_1
 62
5
100
AcDbPolyline
 90
5
 70
1
 10
204.165656
 20
597.150956
 30
0.0
 10
229.582088
 20
597.150956
 30
0.0
 10
229.582088
 20
570.675500
 30
0.0
 10
204.165656
 20
570.675500
 30
0.0
 10
204.165656
 20
597.150956
 30
0.0
  0
LWPOLYLINE
  5
238
100
AcDbEntity
  8
Layer_1
 62
5
100
AcDbPolyline
 90
5
 70
1
 10
204.290944
 20
564.694708
 30
0.0
 10
229.707384
 20
564.694708
 30
0.0
 10
229.707384
 20
538.219252
 30
0.0
 10
204.290944
 20
538.219252
 30
0.0
 10
204.290944
 20
564.694708
 30
0.0
  0
LWPOLYLINE
  5
239
100
AcDbEntity
  8
Layer_1
 62
5
100
AcDbPolyline
 90
5
 70
1
 10
204.229176
 20
531.866020
 30
0.0
 10
229.645616
 20
531.866020
 30
0.0
 10
229.645616
 20
505.390564
 30
0.0
 10
204.229176
 20
505.390564
 30
0.0
 10
204.229176
 20
531.866020
 30
0.0
  0
LWPOLYLINE
  5
23a
100
AcDbEntity
  8
Layer_1
 62
5
100
AcDbPolyline
 90
5
 70
1
 10
74.779200
 20
499.908380
 30
0.0
 10
100.195640
 20
499.908380
 30
0.0
 10
100.195640
 20
473.432924
 30
0.0
 10
74.779200
 20
473.432924
 30
0.0
 10
74.779200
 20
499.908380
 30
0.0
  0
LWPOLYLINE
  5
23b
100
AcDbEntity
  8
Layer_1
 62
5
100
AcDbPolyline
 90
5
 70
1
 10
107.297216
 20
499.783940
 30
0.0
 10
132.713656
 20
499.783940
 30
0.0
 10
132.713656
 20
473.308484
 30
0.0
 10
107.297216
 20
473.308484
 30
0.0
 10
107.297216
 20
499.783940
 30
0.0
  0
LWPOLYLINE
  5
23c
100
AcDbEntity
  8
Layer_1
 62
5
100
AcDbPolyline
 90
5
 70
1
 10
106.735992
 20
468.137820
 30
0.0
 10
132.152424
 20
468.137820
 30
0.0
 10
132.152424
 20
441.662372
 30
0.0
 10
106.735992
 20
441.662372
 30
0.0
 10
106.735992
 20
468.137820
 30
0.0
  0
LWPOLYLINE
  5
23d
100
AcDbEntity
  8
Layer_1
 62
5
100
AcDbPolyline
 90
5
 70
1
 10
139.565528
 20
499.658644
 30
0.0
 10
164.981968
 20
499.658644
 30
0.0
 10
164.981968
 20
473.183196
 30
0.0
 10
139.565528
 20
473.183196
 30
0.0
 10
139.565528
 20
499.658644
 30
0.0
  0
LWPOLYLINE
  5
23e
100
AcDbEntity
  8
Layer_1
 62
5
100
AcDbPolyline
 90
5
 70
1
 10
138.943360
 20
467.576540
 30
0.0
 10
164.359800
 20
467.576540
 30
0.0
 10
164.359800
 20
441.101092
 30
0.0
 10
138.943360
 20
441.101092
 30
0.0
 10
138.943360
 20
467.576540
 30
0.0
  0
LWPOLYLINE
  5
23f
100
AcDbEntity
  8
Layer_1
 62
5
100
AcDbPolyline
 90
5
 70
1
 10
138.570024
 20
435.182940
 30
0.0
 10
163.986456
 20
435.182940
 30
0.0
 10
163.986456
 20
408.707484
 30
0.0
 10
138.570024
 20
408.707484
 30
0.0
 10
138.570024
 20
435.182940
 30
0.0
  0
LWPOLYLINE
  5
240
100
AcDbEntity
  8
Layer_1
 62
5
100
AcDbPolyline
 90
5
 70
1
 10
172.271536
 20
435.245636
 30
0.0
 10
197.687976
 20
435.245636
 30
0.0
 10
197.687976
 20
408.770180
 30
0.0
 10
172.271536
 20
408.770180
 30
0.0
 10
172.271536
 20
435.245636
 30
0.0
  0
LWPOLYLINE
  5
241
100
AcDbEntity
  8
Layer_1
 62
5
100
AcDbPolyline
 90
5
 70
1
 10
171.898200
 20
467.825468
 30
0.0
 10
197.314632
 20
467.825468
 30
0.0
 10
197.314632
 20
441.350012
 30
0.0
 10
171.898200
 20
441.350012
 30
0.0
 10
171.898200
 20
467.825468
 30
0.0
  0
LWPOLYLINE
  5
242
100
AcDbEntity
  8
Layer_1
 62
5
100
AcDbPolyline
 90
5
 70
1
 10
172.209720
 20
499.658644
 30
0.0
 10
197.626160
 20
499.658644
 30
0.0
 10
197.626160
 20
473.183196
 30
0.0
 10
172.209720
 20
473.183196
 30
0.0
 10
172.209720
 20
499.658644
 30
0.0
  0
LWPOLYLINE
  5
243
100
AcDbEntity
  8
Layer_1
 62
5
100
AcDbPolyline
 90
5
 70
1
 10
204.103864
 20
499.471564
 30
0.0
 10
229.520296
 20
499.471564
 30
0.0
 10
229.520296
 20
472.996108
 30
0.0
 10
204.103864
 20
472.996108
 30
0.0
 10
204.103864
 20
499.471564
 30
0.0
  0
LWPOLYLINE
  5
244
100
AcDbEntity
  8
Layer_1
 62
5
100
AcDbPolyline
 90
5
 70
1
 10
204.041216
 20
467.390316
 30
0.0
 10
229.457648
 20
467.390316
 30
0.0
 10
229.457648
 20
440.914860
 30
0.0
 10
204.041216
 20
440.914860
 30
0.0
 10
204.041216
 20
467.390316
 30
0.0
  0
LWPOLYLINE
  5
245
100
AcDbEntity
  8
Layer_1
 62
5
100
AcDbPolyline
 90
5
 70
1
 10
204.353592
 20
435.557156
 30
0.0
 10
229.770032
 20
435.557156
 30
0.0
 10
229.770032
 20
409.081700
 30
0.0
 10
204.353592
 20
409.081700
 30
0.0
 10
204.353592
 20
435.557156
 30
0.0
  0
LWPOLYLINE
  5
246
100
AcDbEntity
  8
Layer_1
 62
5
100
AcDbPolyline
 90
5
 70
1
 10
172.395952
 20
403.038260
 30
0.0
 10
197.812384
 20
403.038260
 30
0.0
 10
197.812384
 20
376.562804
 30
0.0
 10
172.395952
 20
376.562804
 30
0.0
 10
172.395952
 20
403.038260
 30
0.0
  0
LWPOLYLINE
  5
247
100
AcDbEntity
  8
Layer_1
 62
5
100
AcDbPolyline
 90
5
 70
1
 10
204.665112
 20
402.292460
 30
0.0
 10
230.081552
 20
402.292460
 30
0.0
 10
230.081552
 20
375.817004
 30
0.0
 10
204.665112
 20
375.817004
 30
0.0
 10
204.665112
 20
402.292460
 30
0.0
  0
LWPOLYLINE
  5
248
100
AcDbEntity
  8
Layer_1
 62
5
100
AcDbPolyline
 90
5
 70
1
 10
204.478032
 20
371.081428
 30
0.0
 10
229.894464
 20
371.081428
 30
0.0
 10
229.894464
 20
344.605972
 30
0.0
 10
204.478032
 20
344.605972
 30
0.0
 10
204.478032
 20
371.081428
 30
0.0
  0
LWPOLYLINE
  5
249
100
AcDbEntity
  8
Layer_1
 62
5
100
AcDbPolyline
 90
5
 70
1
 10
236.622768
 20
338.500784
 30
0.0
 10
262.039200
 20
338.500784
 30
0.0
 10
262.039200
 20
312.025328
 30
0.0
 10
236.622768
 20
312.025328
 30
0.0
 10
236.622768
 20
338.500784
 30
0.0
  0
LWPOLYLINE
  5
24a
100
AcDbEntity
  8
Layer_1
 62
5
100
AcDbPolyline
 90
5
 70
1
 10
235.813488
 20
370.957040
 30
0.0
 10
261.229928
 20
370.957040
 30
0.0
 10
261.229928
 20
344.481584
 30
0.0
 10
235.813488
 20
344.481584
 30
0.0
 10
235.813488
 20
370.957040
 30
0.0
  0
LWPOLYLINE
  5
24b
100
AcDbEntity
  8
Layer_1
 62
5
100
AcDbPolyline
 90
5
 70
1
 10
236.125008
 20
403.038288
 30
0.0
 10
261.541448
 20
403.038288
 30
0.0
 10
261.541448
 20
376.562832
 30
0.0
 10
236.125008
 20
376.562832
 30
0.0
 10
236.125008
 20
403.038288
 30
0.0
  0
LWPOLYLINE
  5
24c
100
AcDbEntity
  8
Layer_1
 62
5
100
AcDbPolyline
 90
5
 70
1
 10
235.749976
 20
435.493656
 30
0.0
 10
261.166416
 20
435.493656
 30
0.0
 10
261.166416
 20
409.018200
 30
0.0
 10
235.749976
 20
409.018200
 30
0.0
 10
235.749976
 20
435.493656
 30
0.0
  0
LWPOLYLINE
  5
24d
100
AcDbEntity
  8
Layer_1
 62
5
100
AcDbPolyline
 90
5
 70
1
 10
236.373024
 20
467.639216
 30
0.0
 10
261.789456
 20
467.639216
 30
0.0
 10
261.789456
 20
441.163760
 30
0.0
 10
236.373024
 20
441.163760
 30
0.0
 10
236.373024
 20
467.639216
 30
0.0
  0
LWPOLYLINE
  5
24e
100
AcDbEntity
  8
Layer_1
 62
5
100
AcDbPolyline
 90
5
 70
1
 10
235.874416
 20
499.098248
 30
0.0
 10
261.290848
 20
499.098248
 30
0.0
 10
261.290848
 20
472.622792
 30
0.0
 10
235.874416
 20
472.622792
 30
0.0
 10
235.874416
 20
499.098248
 30
0.0
  0
LWPOLYLINE
  5
24f
100
AcDbEntity
  8
Layer_1
 62
5
100
AcDbPolyline
 90
5
 70
1
 10
236.248584
 20
532.301984
 30
0.0
 10
261.665024
 20
532.301984
 30
0.0
 10
261.665024
 20
505.826528
 30
0.0
 10
236.248584
 20
505.826528
 30
0.0
 10
236.248584
 20
532.301984
 30
0.0
  0
LWPOLYLINE
  5
250
100
AcDbEntity
  8
Layer_1
 62
5
100
AcDbPolyline
 90
5
 70
1
 10
236.621912
 20
564.632936
 30
0.0
 10
262.038352
 20
564.632936
 30
0.0
 10
262.038352
 20
538.157488
 30
0.0
 10
236.621912
 20
538.157488
 30
0.0
 10
236.621912
 20
564.632936
 30
0.0
  0
LWPOLYLINE
  5
251
100
AcDbEntity
  8
Layer_1
 62
5
100
AcDbPolyline
 90
5
 70
1
 10
236.746336
 20
597.088336
 30
0.0
 10
262.162776
 20
597.088336
 30
0.0
 10
262.162776
 20
570.612880
 30
0.0
 10
236.746336
 20
570.612880
 30
0.0
 10
236.746336
 20
597.088336
 30
0.0
  0
LWPOLYLINE
  5
252
100
AcDbEntity
  8
Layer_1
 62
5
100
AcDbPolyline
 90
5
 70
1
 10
236.746336
 20
629.045952
 30
0.0
 10
262.162776
 20
629.045952
 30
0.0
 10
262.162776
 20
602.570496
 30
0.0
 10
236.746336
 20
602.570496
 30
0.0
 10
236.746336
 20
629.045952
 30
0.0
  0
LWPOLYLINE
  5
253
100
AcDbEntity
  8
Layer_1
 62
5
100
AcDbPolyline
 90
5
 70
1
 10
236.871632
 20
661.065360
 30
0.0
 10
262.288064
 20
661.065360
 30
0.0
 10
262.288064
 20
634.589904
 30
0.0
 10
236.871632
 20
634.589904
 30
0.0
 10
236.871632
 20
661.065360
 30
0.0
  0
LWPOLYLINE
  5
254
100
AcDbEntity
  8
Layer_1
 62
5
100
AcDbPolyline
 90
5
 70
1
 10
237.307608
 20
694.331776
 30
0.0
 10
262.724040
 20
694.331776
 30
0.0
 10
262.724040
 20
667.856328
 30
0.0
 10
237.307608
 20
667.856328
 30
0.0
 10
237.307608
 20
694.331776
 30
0.0
  0
LWPOLYLINE
  5
255
100
AcDbEntity
  8
Layer_1
 62
5
100
AcDbPolyline
 90
5
 70
1
 10
236.684544
 20
725.915224
 30
0.0
 10
262.100984
 20
725.915224
 30
0.0
 10
262.100984
 20
699.439776
 30
0.0
 10
236.684544
 20
699.439776
 30
0.0
 10
236.684544
 20
725.915224
 30
0.0
  0
LWPOLYLINE
  5
256
100
AcDbEntity
  8
Layer_1
 62
5
100
AcDbPolyline
 90
5
 70
1
 10
236.559256
 20
757.997304
 30
0.0
 10
261.975688
 20
757.997304
 30
0.0
 10
261.975688
 20
731.521856
 30
0.0
 10
236.559256
 20
731.521856
 30
0.0
 10
236.559256
 20
757.997304
 30
0.0
  0
LWPOLYLINE
  5
257
100
AcDbEntity
  8
Layer_1
 62
5
100
AcDbPolyline
 90
5
 70
1
 10
236.185936
 20
789.829640
 30
0.0
 10
261.602376
 20
789.829640
 30
0.0
 10
261.602376
 20
763.354184
 30
0.0
 10
236.185936
 20
763.354184
 30
0.0
 10
236.185936
 20
789.829640
 30
0.0
  0
LWPOLYLINE
  5
258
100
AcDbEntity
  8
Layer_1
 62
5
100
AcDbPolyline
 90
5
 70
1
 10
268.983640
 20
338.540981
 30
0.0
 10
294.400072
 20
338.540981
 30
0.0
 10
294.400072
 20
312.065525
 30
0.0
 10
268.983640
 20
312.065525
 30
0.0
 10
268.983640
 20
338.540981
 30
0.0
  0
LWPOLYLINE
  5
259
100
AcDbEntity
  8
Layer_1
 62
5
100
AcDbPolyline
 90
5
 70
1
 10
268.174360
 20
370.997237
 30
0.0
 10
293.590800
 20
370.997237
 30
0.0
 10
293.590800
 20
344.521781
 30
0.0
 10
268.174360
 20
344.521781
 30
0.0
 10
268.174360
 20
370.997237
 30
0.0
  0
LWPOLYLINE
  5
25a
100
AcDbEntity
  8
Layer_1
 62
5
100
AcDbPolyline
 90
5
 70
1
 10
268.485880
 20
403.078485
 30
0.0
 10
293.902320
 20
403.078485
 30
0.0
 10
293.902320
 20
376.603029
 30
0.0
 10
268.485880
 20
376.603029
 30
0.0
 10
268.485880
 20
403.078485
 30
0.0
  0
LWPOLYLINE
  5
25b
100
AcDbEntity
  8
Layer_1
 62
5
100
AcDbPolyline
 90
5
 70
1
 10
268.110848
 20
435.533853
 30
0.0
 10
293.527288
 20
435.533853
 30
0.0
 10
293.527288
 20
409.058397
 30
0.0
 10
268.110848
 20
409.058397
 30
0.0
 10
268.110848
 20
435.533853
 30
0.0
  0
LWPOLYLINE
  5
25c
100
AcDbEntity
  8
Layer_1
 62
5
100
AcDbPolyline
 90
5
 70
1
 10
268.733896
 20
467.679413
 30
0.0
 10
294.150328
 20
467.679413
 30
0.0
 10
294.150328
 20
441.203957
 30
0.0
 10
268.733896
 20
441.203957
 30
0.0
 10
268.733896
 20
467.679413
 30
0.0
  0
LWPOLYLINE
  5
25d
100
AcDbEntity
  8
Layer_1
 62
5
100
AcDbPolyline
 90
5
 70
1
 10
268.235288
 20
499.138445
 30
0.0
 10
293.651720
 20
499.138445
 30
0.0
 10
293.651720
 20
472.662989
 30
0.0
 10
268.235288
 20
472.662989
 30
0.0
 10
268.235288
 20
499.138445
 30
0.0
  0
LWPOLYLINE
  5
25e
100
AcDbEntity
  8
Layer_1
 62
5
100
AcDbPolyline
 90
5
 70
1
 10
268.609456
 20
532.342181
 30
0.0
 10
294.025896
 20
532.342181
 30
0.0
 10
294.025896
 20
505.866725
 30
0.0
 10
268.609456
 20
505.866725
 30
0.0
 10
268.609456
 20
532.342181
 30
0.0
  0
LWPOLYLINE
  5
25f
100
AcDbEntity
  8
Layer_1
 62
5
100
AcDbPolyline
 90
5
 70
1
 10
268.982784
 20
564.673133
 30
0.0
 10
294.399224
 20
564.673133
 30
0.0
 10
294.399224
 20
538.197685
 30
0.0
 10
268.982784
 20
538.197685
 30
0.0
 10
268.982784
 20
564.673133
 30
0.0
  0
LWPOLYLINE
  5
260
100
AcDbEntity
  8
Layer_1
 62
5
100
AcDbPolyline
 90
5
 70
1
 10
269.107208
 20
597.128533
 30
0.0
 10
294.523648
 20
597.128533
 30
0.0
 10
294.523648
 20
570.653077
 30
0.0
 10
269.107208
 20
570.653077
 30
0.0
 10
269.107208
 20
597.128533
 30
0.0
  0
LWPOLYLINE
  5
261
100
AcDbEntity
  8
Layer_1
 62
5
100
AcDbPolyline
 90
5
 70
1
 10
269.107208
 20
629.086149
 30
0.0
 10
294.523648
 20
629.086149
 30
0.0
 10
294.523648
 20
602.610693
 30
0.0
 10
269.107208
 20
602.610693
 30
0.0
 10
269.107208
 20
629.086149
 30
0.0
  0
LWPOLYLINE
  5
262
100
AcDbEntity
  8
Layer_1
 62
5
100
AcDbPolyline
 90
5
 70
1
 10
269.232504
 20
661.105557
 30
0.0
 10
294.648936
 20
661.105557
 30
0.0
 10
294.648936
 20
634.630101
 30
0.0
 10
269.232504
 20
634.630101
 30
0.0
 10
269.232504
 20
661.105557
 30
0.0
  0
LWPOLYLINE
  5
263
100
AcDbEntity
  8
Layer_1
 62
5
100
AcDbPolyline
 90
5
 70
1
 10
269.668480
 20
694.371973
 30
0.0
 10
295.084912
 20
694.371973
 30
0.0
 10
295.084912
 20
667.896525
 30
0.0
 10
269.668480
 20
667.896525
 30
0.0
 10
269.668480
 20
694.371973
 30
0.0
  0
LWPOLYLINE
  5
264
100
AcDbEntity
  8
Layer_1
 62
5
100
AcDbPolyline
 90
5
 70
1
 10
269.045416
 20
725.955421
 30
0.0
 10
294.461856
 20
725.955421
 30
0.0
 10
294.461856
 20
699.479973
 30
0.0
 10
269.045416
 20
699.479973
 30
0.0
 10
269.045416
 20
725.955421
 30
0.0
  0
LWPOLYLINE
  5
265
100
AcDbEntity
  8
Layer_1
 62
5
100
AcDbPolyline
 90
5
 70
1
 10
268.920128
 20
758.037501
 30
0.0
 10
294.336560
 20
758.037501
 30
0.0
 10
294.336560
 20
731.562053
 30
0.0
 10
268.920128
 20
731.562053
 30
0.0
 10
268.920128
 20
758.037501
 30
0.0
  0
LWPOLYLINE
  5
266
100
AcDbEntity
  8
Layer_1
 62
5
100
AcDbPolyline
 90
5
 70
1
 10
268.546808
 20
789.869837
 30
0.0
 10
293.963248
 20
789.869837
 30
0.0
 10
293.963248
 20
763.394381
 30
0.0
 10
268.546808
 20
763.394381
 30
0.0
 10
268.546808
 20
789.869837
 30
0.0
  0
LWPOLYLINE
  5
267
100
AcDbEntity
  8
Layer_1
 62
5
100
AcDbPolyline
 90
5
 70
1
 10
301.640432
 20
338.540981
 30
0.0
 10
327.056864
 20
338.540981
 30
0.0
 10
327.056864
 20
312.065525
 30
0.0
 10
301.640432
 20
312.065525
 30
0.0
 10
301.640432
 20
338.540981
 30
0.0
  0
LWPOLYLINE
  5
268
100
AcDbEntity
  8
Layer_1
 62
5
100
AcDbPolyline
 90
5
 70
1
 10
300.831152
 20
370.997237
 30
0.0
 10
326.247592
 20
370.997237
 30
0.0
 10
326.247592
 20
344.521781
 30
0.0
 10
300.831152
 20
344.521781
 30
0.0
 10
300.831152
 20
370.997237
 30
0.0
  0
LWPOLYLINE
  5
269
100
AcDbEntity
  8
Layer_1
 62
5
100
AcDbPolyline
 90
5
 70
1
 10
301.142672
 20
403.078485
 30
0.0
 10
326.559112
 20
403.078485
 30
0.0
 10
326.559112
 20
376.603029
 30
0.0
 10
301.142672
 20
376.603029
 30
0.0
 10
301.142672
 20
403.078485
 30
0.0
  0
LWPOLYLINE
  5
26a
100
AcDbEntity
  8
Layer_1
 62
5
100
AcDbPolyline
 90
5
 70
1
 10
300.767640
 20
435.533853
 30
0.0
 10
326.184080
 20
435.533853
 30
0.0
 10
326.184080
 20
409.058397
 30
0.0
 10
300.767640
 20
409.058397
 30
0.0
 10
300.767640
 20
435.533853
 30
0.0
  0
LWPOLYLINE
  5
26b
100
AcDbEntity
  8
Layer_1
 62
5
100
AcDbPolyline
 90
5
 70
1
 10
301.390688
 20
467.679413
 30
0.0
 10
326.807120
 20
467.679413
 30
0.0
 10
326.807120
 20
441.203957
 30
0.0
 10
301.390688
 20
441.203957
 30
0.0
 10
301.390688
 20
467.679413
 30
0.0
  0
LWPOLYLINE
  5
26c
100
AcDbEntity
  8
Layer_1
 62
5
100
AcDbPolyline
 90
5
 70
1
 10
300.892080
 20
499.138445
 30
0.0
 10
326.308512
 20
499.138445
 30
0.0
 10
326.308512
 20
472.662989
 30
0.0
 10
300.892080
 20
472.662989
 30
0.0
 10
300.892080
 20
499.138445
 30
0.0
  0
LWPOLYLINE
  5
26d
100
AcDbEntity
  8
Layer_1
 62
5
100
AcDbPolyline
 90
5
 70
1
 10
301.266248
 20
532.342181
 30
0.0
 10
326.682688
 20
532.342181
 30
0.0
 10
326.682688
 20
505.866725
 30
0.0
 10
301.266248
 20
505.866725
 30
0.0
 10
301.266248
 20
532.342181
 30
0.0
  0
LWPOLYLINE
  5
26e
100
AcDbEntity
  8
Layer_1
 62
5
100
AcDbPolyline
 90
5
 70
1
 10
301.639576
 20
564.673133
 30
0.0
 10
327.056016
 20
564.673133
 30
0.0
 10
327.056016
 20
538.197685
 30
0.0
 10
301.639576
 20
538.197685
 30
0.0
 10
301.639576
 20
564.673133
 30
0.0
  0
LWPOLYLINE
  5
26f
100
AcDbEntity
  8
Layer_1
 62
5
100
AcDbPolyline
 90
5
 70
1
 10
301.764000
 20
597.128533
 30
0.0
 10
327.180440
 20
597.128533
 30
0.0
 10
327.180440
 20
570.653077
 30
0.0
 10
301.764000
 20
570.653077
 30
0.0
 10
301.764000
 20
597.128533
 30
0.0
  0
LWPOLYLINE
  5
270
100
AcDbEntity
  8
Layer_1
 62
5
100
AcDbPolyline
 90
5
 70
1
 10
301.764000
 20
629.086149
 30
0.0
 10
327.180440
 20
629.086149
 30
0.0
 10
327.180440
 20
602.610693
 30
0.0
 10
301.764000
 20
602.610693
 30
0.0
 10
301.764000
 20
629.086149
 30
0.0
  0
LWPOLYLINE
  5
271
100
AcDbEntity
  8
Layer_1
 62
5
100
AcDbPolyline
 90
5
 70
1
 10
301.889296
 20
661.105557
 30
0.0
 10
327.305728
 20
661.105557
 30
0.0
 10
327.305728
 20
634.630101
 30
0.0
 10
301.889296
 20
634.630101
 30
0.0
 10
301.889296
 20
661.105557
 30
0.0
  0
LWPOLYLINE
  5
272
100
AcDbEntity
  8
Layer_1
 62
5
100
AcDbPolyline
 90
5
 70
1
 10
302.325272
 20
694.371973
 30
0.0
 10
327.741704
 20
694.371973
 30
0.0
 10
327.741704
 20
667.896525
 30
0.0
 10
302.325272
 20
667.896525
 30
0.0
 10
302.325272
 20
694.371973
 30
0.0
  0
LWPOLYLINE
  5
273
100
AcDbEntity
  8
Layer_1
 62
5
100
AcDbPolyline
 90
5
 70
1
 10
301.702208
 20
725.955421
 30
0.0
 10
327.118648
 20
725.955421
 30
0.0
 10
327.118648
 20
699.479973
 30
0.0
 10
301.702208
 20
699.479973
 30
0.0
 10
301.702208
 20
725.955421
 30
0.0
  0
LWPOLYLINE
  5
274
100
AcDbEntity
  8
Layer_1
 62
5
100
AcDbPolyline
 90
5
 70
1
 10
301.576920
 20
758.037501
 30
0.0
 10
326.993352
 20
758.037501
 30
0.0
 10
326.993352
 20
731.562053
 30
0.0
 10
301.576920
 20
731.562053
 30
0.0
 10
301.576920
 20
758.037501
 30
0.0
  0
LWPOLYLINE
  5
275
100
AcDbEntity
  8
Layer_1
 62
5
100
AcDbPolyline
 90
5
 70
1
 10
301.203600
 20
789.869837
 30
0.0
 10
326.620040
 20
789.869837
 30
0.0
 10
326.620040
 20
763.394381
 30
0.0
 10
301.203600
 20
763.394381
 30
0.0
 10
301.203600
 20
789.869837
 30
0.0
  0
LWPOLYLINE
  5
276
100
AcDbEntity
  8
Layer_1
 62
5
100
AcDbPolyline
 90
5
 70
1
 10
333.356856
 20
338.146892
 30
0.0
 10
358.773288
 20
338.146892
 30
0.0
 10
358.773288
 20
311.671436
 30
0.0
 10
333.356856
 20
311.671436
 30
0.0
 10
333.356856
 20
338.146892
 30
0.0
  0
LWPOLYLINE
  5
277
100
AcDbEntity
  8
Layer_1
 62
5
100
AcDbPolyline
 90
5
 70
1
 10
332.547576
 20
370.603148
 30
0.0
 10
357.964016
 20
370.603148
 30
0.0
 10
357.964016
 20
344.127692
 30
0.0
 10
332.547576
 20
344.127692
 30
0.0
 10
332.547576
 20
370.603148
 30
0.0
  0
LWPOLYLINE
  5
278
100
AcDbEntity
  8
Layer_1
 62
5
100
AcDbPolyline
 90
5
 70
1
 10
332.859096
 20
402.684396
 30
0.0
 10
358.275536
 20
402.684396
 30
0.0
 10
358.275536
 20
376.208940
 30
0.0
 10
332.859096
 20
376.208940
 30
0.0
 10
332.859096
 20
402.684396
 30
0.0
  0
LWPOLYLINE
  5
279
100
AcDbEntity
  8
Layer_1
 62
5
100
AcDbPolyline
 90
5
 70
1
 10
332.484064
 20
435.139764
 30
0.0
 10
357.900504
 20
435.139764
 30
0.0
 10
357.900504
 20
408.664308
 30
0.0
 10
332.484064
 20
408.664308
 30
0.0
 10
332.484064
 20
435.139764
 30
0.0
  0
LWPOLYLINE
  5
27a
100
AcDbEntity
  8
Layer_1
 62
5
100
AcDbPolyline
 90
5
 70
1
 10
333.107112
 20
467.285324
 30
0.0
 10
358.523544
 20
467.285324
 30
0.0
 10
358.523544
 20
440.809868
 30
0.0
 10
333.107112
 20
440.809868
 30
0.0
 10
333.107112
 20
467.285324
 30
0.0
  0
LWPOLYLINE
  5
27b
100
AcDbEntity
  8
Layer_1
 62
5
100
AcDbPolyline
 90
5
 70
1
 10
332.608504
 20
498.744356
 30
0.0
 10
358.024936
 20
498.744356
 30
0.0
 10
358.024936
 20
472.268900
 30
0.0
 10
332.608504
 20
472.268900
 30
0.0
 10
332.608504
 20
498.744356
 30
0.0
  0
LWPOLYLINE
  5
27c
100
AcDbEntity
  8
Layer_1
 62
5
100
AcDbPolyline
 90
5
 70
1
 10
332.982672
 20
531.948092
 30
0.0
 10
358.399112
 20
531.948092
 30
0.0
 10
358.399112
 20
505.472636
 30
0.0
 10
332.982672
 20
505.472636
 30
0.0
 10
332.982672
 20
531.948092
 30
0.0
  0
LWPOLYLINE
  5
27d
100
AcDbEntity
  8
Layer_1
 62
5
100
AcDbPolyline
 90
5
 70
1
 10
333.356000
 20
564.279044
 30
0.0
 10
358.772440
 20
564.279044
 30
0.0
 10
358.772440
 20
537.803596
 30
0.0
 10
333.356000
 20
537.803596
 30
0.0
 10
333.356000
 20
564.279044
 30
0.0
  0
LWPOLYLINE
  5
27e
100
AcDbEntity
  8
Layer_1
 62
5
100
AcDbPolyline
 90
5
 70
1
 10
333.480424
 20
596.734444
 30
0.0
 10
358.896864
 20
596.734444
 30
0.0
 10
358.896864
 20
570.258988
 30
0.0
 10
333.480424
 20
570.258988
 30
0.0
 10
333.480424
 20
596.734444
 30
0.0
  0
LWPOLYLINE
  5
27f
100
AcDbEntity
  8
Layer_1
 62
5
100
AcDbPolyline
 90
5
 70
1
 10
333.480424
 20
628.692060
 30
0.0
 10
358.896864
 20
628.692060
 30
0.0
 10
358.896864
 20
602.216604
 30
0.0
 10
333.480424
 20
602.216604
 30
0.0
 10
333.480424
 20
628.692060
 30
0.0
  0
LWPOLYLINE
  5
280
100
AcDbEntity
  8
Layer_1
 62
5
100
AcDbPolyline
 90
5
 70
1
 10
333.605720
 20
660.711468
 30
0.0
 10
359.022152
 20
660.711468
 30
0.0
 10
359.022152
 20
634.236012
 30
0.0
 10
333.605720
 20
634.236012
 30
0.0
 10
333.605720
 20
660.711468
 30
0.0
  0
LWPOLYLINE
  5
281
100
AcDbEntity
  8
Layer_1
 62
5
100
AcDbPolyline
 90
5
 70
1
 10
334.041696
 20
693.977884
 30
0.0
 10
359.458128
 20
693.977884
 30
0.0
 10
359.458128
 20
667.502436
 30
0.0
 10
334.041696
 20
667.502436
 30
0.0
 10
334.041696
 20
693.977884
 30
0.0
  0
LWPOLYLINE
  5
282
100
AcDbEntity
  8
Layer_1
 62
5
100
AcDbPolyline
 90
5
 70
1
 10
333.418632
 20
725.561332
 30
0.0
 10
358.835072
 20
725.561332
 30
0.0
 10
358.835072
 20
699.085884
 30
0.0
 10
333.418632
 20
699.085884
 30
0.0
 10
333.418632
 20
725.561332
 30
0.0
  0
LWPOLYLINE
  5
283
100
AcDbEntity
  8
Layer_1
 62
5
100
AcDbPolyline
 90
5
 70
1
 10
333.293344
 20
757.643412
 30
0.0
 10
358.709776
 20
757.643412
 30
0.0
 10
358.709776
 20
731.167964
 30
0.0
 10
333.293344
 20
731.167964
 30
0.0
 10
333.293344
 20
757.643412
 30
0.0
  0
LWPOLYLINE
  5
284
100
AcDbEntity
  8
Layer_1
 62
5
100
AcDbPolyline
 90
5
 70
1
 10
332.920024
 20
789.475748
 30
0.0
 10
358.336464
 20
789.475748
 30
0.0
 10
358.336464
 20
763.000292
 30
0.0
 10
332.920024
 20
763.000292
 30
0.0
 10
332.920024
 20
789.475748
 30
0.0
  0
LWPOLYLINE
  5
285
100
AcDbEntity
  8
Layer_1
 62
5
100
AcDbPolyline
 90
5
 70
1
 10
366.039024
 20
338.490249
 30
0.0
 10
391.455456
 20
338.490249
 30
0.0
 10
391.455456
 20
312.014793
 30
0.0
 10
366.039024
 20
312.014793
 30
0.0
 10
366.039024
 20
338.490249
 30
0.0
  0
LWPOLYLINE
  5
286
100
AcDbEntity
  8
Layer_1
 62
5
100
AcDbPolyline
 90
5
 70
1
 10
365.229744
 20
370.946505
 30
0.0
 10
390.646184
 20
370.946505
 30
0.0
 10
390.646184
 20
344.471049
 30
0.0
 10
365.229744
 20
344.471049
 30
0.0
 10
365.229744
 20
370.946505
 30
0.0
  0
LWPOLYLINE
  5
287
100
AcDbEntity
  8
Layer_1
 62
5
100
AcDbPolyline
 90
5
 70
1
 10
365.541264
 20
403.027753
 30
0.0
 10
390.957704
 20
403.027753
 30
0.0
 10
390.957704
 20
376.552297
 30
0.0
 10
365.541264
 20
376.552297
 30
0.0
 10
365.541264
 20
403.027753
 30
0.0
  0
LWPOLYLINE
  5
288
100
AcDbEntity
  8
Layer_1
 62
5
100
AcDbPolyline
 90
5
 70
1
 10
365.166232
 20
435.483121
 30
0.0
 10
390.582672
 20
435.483121
 30
0.0
 10
390.582672
 20
409.007665
 30
0.0
 10
365.166232
 20
409.007665
 30
0.0
 10
365.166232
 20
435.483121
 30
0.0
  0
LWPOLYLINE
  5
289
100
AcDbEntity
  8
Layer_1
 62
5
100
AcDbPolyline
 90
5
 70
1
 10
365.789280
 20
467.628681
 30
0.0
 10
391.205712
 20
467.628681
 30
0.0
 10
391.205712
 20
441.153225
 30
0.0
 10
365.789280
 20
441.153225
 30
0.0
 10
365.789280
 20
467.628681
 30
0.0
  0
LWPOLYLINE
  5
28a
100
AcDbEntity
  8
Layer_1
 62
5
100
AcDbPolyline
 90
5
 70
1
 10
365.290672
 20
499.087713
 30
0.0
 10
390.707104
 20
499.087713
 30
0.0
 10
390.707104
 20
472.612257
 30
0.0
 10
365.290672
 20
472.612257
 30
0.0
 10
365.290672
 20
499.087713
 30
0.0
  0
LWPOLYLINE
  5
28b
100
AcDbEntity
  8
Layer_1
 62
5
100
AcDbPolyline
 90
5
 70
1
 10
365.664840
 20
532.291449
 30
0.0
 10
391.081280
 20
532.291449
 30
0.0
 10
391.081280
 20
505.815993
 30
0.0
 10
365.664840
 20
505.815993
 30
0.0
 10
365.664840
 20
532.291449
 30
0.0
  0
LWPOLYLINE
  5
28c
100
AcDbEntity
  8
Layer_1
 62
5
100
AcDbPolyline
 90
5
 70
1
 10
366.038168
 20
564.622401
 30
0.0
 10
391.454608
 20
564.622401
 30
0.0
 10
391.454608
 20
538.146953
 30
0.0
 10
366.038168
 20
538.146953
 30
0.0
 10
366.038168
 20
564.622401
 30
0.0
  0
LWPOLYLINE
  5
28d
100
AcDbEntity
  8
Layer_1
 62
5
100
AcDbPolyline
 90
5
 70
1
 10
366.162592
 20
597.077801
 30
0.0
 10
391.579032
 20
597.077801
 30
0.0
 10
391.579032
 20
570.602345
 30
0.0
 10
366.162592
 20
570.602345
 30
0.0
 10
366.162592
 20
597.077801
 30
0.0
  0
LWPOLYLINE
  5
28e
100
AcDbEntity
  8
Layer_1
 62
5
100
AcDbPolyline
 90
5
 70
1
 10
366.162592
 20
629.035417
 30
0.0
 10
391.579032
 20
629.035417
 30
0.0
 10
391.579032
 20
602.559961
 30
0.0
 10
366.162592
 20
602.559961
 30
0.0
 10
366.162592
 20
629.035417
 30
0.0
  0
LWPOLYLINE
  5
28f
100
AcDbEntity
  8
Layer_1
 62
5
100
AcDbPolyline
 90
5
 70
1
 10
366.287888
 20
661.054825
 30
0.0
 10
391.704320
 20
661.054825
 30
0.0
 10
391.704320
 20
634.579369
 30
0.0
 10
366.287888
 20
634.579369
 30
0.0
 10
366.287888
 20
661.054825
 30
0.0
  0
LWPOLYLINE
  5
290
100
AcDbEntity
  8
Layer_1
 62
5
100
AcDbPolyline
 90
5
 70
1
 10
366.723864
 20
694.321241
 30
0.0
 10
392.140296
 20
694.321241
 30
0.0
 10
392.140296
 20
667.845793
 30
0.0
 10
366.723864
 20
667.845793
 30
0.0
 10
366.723864
 20
694.321241
 30
0.0
  0
LWPOLYLINE
  5
291
100
AcDbEntity
  8
Layer_1
 62
5
100
AcDbPolyline
 90
5
 70
1
 10
366.100800
 20
725.904689
 30
0.0
 10
391.517240
 20
725.904689
 30
0.0
 10
391.517240
 20
699.429241
 30
0.0
 10
366.100800
 20
699.429241
 30
0.0
 10
366.100800
 20
725.904689
 30
0.0
  0
LWPOLYLINE
  5
292
100
AcDbEntity
  8
Layer_1
 62
5
100
AcDbPolyline
 90
5
 70
1
 10
365.975512
 20
757.986769
 30
0.0
 10
391.391944
 20
757.986769
 30
0.0
 10
391.391944
 20
731.511321
 30
0.0
 10
365.975512
 20
731.511321
 30
0.0
 10
365.975512
 20
757.986769
 30
0.0
  0
LWPOLYLINE
  5
293
100
AcDbEntity
  8
Layer_1
 62
5
100
AcDbPolyline
 90
5
 70
1
 10
365.602192
 20
789.819105
 30
0.0
 10
391.018632
 20
789.819105
 30
0.0
 10
391.018632
 20
763.343649
 30
0.0
 10
365.602192
 20
763.343649
 30
0.0
 10
365.602192
 20
789.819105
 30
0.0
  0
LWPOLYLINE
  5
294
100
AcDbEntity
  8
Layer_1
 62
5
100
AcDbPolyline
 90
5
 70
1
 10
552.288112
 20
628.319264
 30
0.0
 10
526.871672
 20
628.319264
 30
0.0
 10
526.871672
 20
601.843816
 30
0.0
 10
552.288112
 20
601.843816
 30
0.0
 10
552.288112
 20
628.319264
 30
0.0
  0
LWPOLYLINE
  5
295
100
AcDbEntity
  8
Layer_1
 62
5
100
AcDbPolyline
 90
5
 70
1
 10
551.602416
 20
597.265312
 30
0.0
 10
526.185976
 20
597.265312
 30
0.0
 10
526.185976
 20
570.789856
 30
0.0
 10
551.602416
 20
570.789856
 30
0.0
 10
551.602416
 20
597.265312
 30
0.0
  0
LWPOLYLINE
  5
296
100
AcDbEntity
  8
Layer_1
 62
5
100
AcDbPolyline
 90
5
 70
1
 10
551.291776
 20
564.186016
 30
0.0
 10
525.875336
 20
564.186016
 30
0.0
 10
525.875336
 20
537.710560
 30
0.0
 10
551.291776
 20
537.710560
 30
0.0
 10
551.291776
 20
564.186016
 30
0.0
  0
LWPOLYLINE
  5
297
100
AcDbEntity
  8
Layer_1
 62
5
100
AcDbPolyline
 90
5
 70
1
 10
551.727712
 20
531.793264
 30
0.0
 10
526.311272
 20
531.793264
 30
0.0
 10
526.311272
 20
505.317808
 30
0.0
 10
551.727712
 20
505.317808
 30
0.0
 10
551.727712
 20
531.793264
 30
0.0
  0
LWPOLYLINE
  5
298
100
AcDbEntity
  8
Layer_1
 62
5
100
AcDbPolyline
 90
5
 70
1
 10
551.914816
 20
499.648544
 30
0.0
 10
526.498384
 20
499.648544
 30
0.0
 10
526.498384
 20
473.173088
 30
0.0
 10
551.914816
 20
473.173088
 30
0.0
 10
551.914816
 20
499.648544
 30
0.0
  0
LWPOLYLINE
  5
299
100
AcDbEntity
  8
Layer_1
 62
5
100
AcDbPolyline
 90
5
 70
1
 10
519.458568
 20
660.619320
 30
0.0
 10
494.042136
 20
660.619320
 30
0.0
 10
494.042136
 20
634.143864
 30
0.0
 10
519.458568
 20
634.143864
 30
0.0
 10
519.458568
 20
660.619320
 30
0.0
  0
LWPOLYLINE
  5
29a
100
AcDbEntity
  8
Layer_1
 62
5
100
AcDbPolyline
 90
5
 70
1
 10
519.147048
 20
628.599032
 30
0.0
 10
493.730608
 20
628.599032
 30
0.0
 10
493.730608
 20
602.123576
 30
0.0
 10
519.147048
 20
602.123576
 30
0.0
 10
519.147048
 20
628.599032
 30
0.0
  0
LWPOLYLINE
  5
29b
100
AcDbEntity
  8
Layer_1
 62
5
100
AcDbPolyline
 90
5
 70
1
 10
519.582984
 20
597.078224
 30
0.0
 10
494.166544
 20
597.078224
 30
0.0
 10
494.166544
 20
570.602776
 30
0.0
 10
519.582984
 20
570.602776
 30
0.0
 10
519.582984
 20
597.078224
 30
0.0
  0
LWPOLYLINE
  5
29c
100
AcDbEntity
  8
Layer_1
 62
5
100
AcDbPolyline
 90
5
 70
1
 10
519.334104
 20
564.061552
 30
0.0
 10
493.917672
 20
564.061552
 30
0.0
 10
493.917672
 20
537.586096
 30
0.0
 10
519.334104
 20
537.586096
 30
0.0
 10
519.334104
 20
564.061552
 30
0.0
  0
LWPOLYLINE
  5
29d
100
AcDbEntity
  8
Layer_1
 62
5
100
AcDbPolyline
 90
5
 70
1
 10
519.271456
 20
531.854208
 30
0.0
 10
493.855024
 20
531.854208
 30
0.0
 10
493.855024
 20
505.378752
 30
0.0
 10
519.271456
 20
505.378752
 30
0.0
 10
519.271456
 20
531.854208
 30
0.0
  0
LWPOLYLINE
  5
29e
100
AcDbEntity
  8
Layer_1
 62
5
100
AcDbPolyline
 90
5
 70
1
 10
519.396752
 20
499.524104
 30
0.0
 10
493.980312
 20
499.524104
 30
0.0
 10
493.980312
 20
473.048648
 30
0.0
 10
519.396752
 20
473.048648
 30
0.0
 10
519.396752
 20
499.524104
 30
0.0
  0
LWPOLYLINE
  5
29f
100
AcDbEntity
  8
Layer_1
 62
5
100
AcDbPolyline
 90
5
 70
1
 10
519.958032
 20
467.878008
 30
0.0
 10
494.541592
 20
467.878008
 30
0.0
 10
494.541592
 20
441.402552
 30
0.0
 10
519.958032
 20
441.402552
 30
0.0
 10
519.958032
 20
467.878008
 30
0.0
  0
LWPOLYLINE
  5
2a0
100
AcDbEntity
  8
Layer_1
 62
5
100
AcDbPolyline
 90
5
 70
1
 10
487.314672
 20
693.012064
 30
0.0
 10
461.898232
 20
693.012064
 30
0.0
 10
461.898232
 20
666.536608
 30
0.0
 10
487.314672
 20
666.536608
 30
0.0
 10
487.314672
 20
693.012064
 30
0.0
  0
LWPOLYLINE
  5
2a1
100
AcDbEntity
  8
Layer_1
 62
5
100
AcDbPolyline
 90
5
 70
1
 10
487.003152
 20
660.929984
 30
0.0
 10
461.586712
 20
660.929984
 30
0.0
 10
461.586712
 20
634.454528
 30
0.0
 10
487.003152
 20
634.454528
 30
0.0
 10
487.003152
 20
660.929984
 30
0.0
  0
LWPOLYLINE
  5
2a2
100
AcDbEntity
  8
Layer_1
 62
5
100
AcDbPolyline
 90
5
 70
1
 10
487.064968
 20
628.971488
 30
0.0
 10
461.648528
 20
628.971488
 30
0.0
 10
461.648528
 20
602.496032
 30
0.0
 10
487.064968
 20
602.496032
 30
0.0
 10
487.064968
 20
628.971488
 30
0.0
  0
LWPOLYLINE
  5
2a3
100
AcDbEntity
  8
Layer_1
 62
5
100
AcDbPolyline
 90
5
 70
1
 10
487.189376
 20
597.140016
 30
0.0
 10
461.772944
 20
597.140016
 30
0.0
 10
461.772944
 20
570.664568
 30
0.0
 10
487.189376
 20
570.664568
 30
0.0
 10
487.189376
 20
597.140016
 30
0.0
  0
LWPOLYLINE
  5
2a4
100
AcDbEntity
  8
Layer_1
 62
5
100
AcDbPolyline
 90
5
 70
1
 10
486.628976
 20
564.621976
 30
0.0
 10
461.212544
 20
564.621976
 30
0.0
 10
461.212544
 20
538.146520
 30
0.0
 10
486.628976
 20
538.146520
 30
0.0
 10
486.628976
 20
564.621976
 30
0.0
  0
LWPOLYLINE
  5
2a5
100
AcDbEntity
  8
Layer_1
 62
5
100
AcDbPolyline
 90
5
 70
1
 10
486.754272
 20
532.103936
 30
0.0
 10
461.337832
 20
532.103936
 30
0.0
 10
461.337832
 20
505.628480
 30
0.0
 10
486.754272
 20
505.628480
 30
0.0
 10
486.754272
 20
532.103936
 30
0.0
  0
LWPOLYLINE
  5
2a6
100
AcDbEntity
  8
Layer_1
 62
5
100
AcDbPolyline
 90
5
 70
1
 10
487.128440
 20
499.398808
 30
0.0
 10
461.712008
 20
499.398808
 30
0.0
 10
461.712008
 20
472.923352
 30
0.0
 10
487.128440
 20
472.923352
 30
0.0
 10
487.128440
 20
499.398808
 30
0.0
  0
LWPOLYLINE
  5
2a7
100
AcDbEntity
  8
Layer_1
 62
5
100
AcDbPolyline
 90
5
 70
1
 10
487.750656
 20
467.316728
 30
0.0
 10
462.334224
 20
467.316728
 30
0.0
 10
462.334224
 20
440.841272
 30
0.0
 10
487.750656
 20
440.841272
 30
0.0
 10
487.750656
 20
467.316728
 30
0.0
  0
LWPOLYLINE
  5
2a8
100
AcDbEntity
  8
Layer_1
 62
5
100
AcDbPolyline
 90
5
 70
1
 10
488.124000
 20
434.923152
 30
0.0
 10
462.707560
 20
434.923152
 30
0.0
 10
462.707560
 20
408.447696
 30
0.0
 10
488.124000
 20
408.447696
 30
0.0
 10
488.124000
 20
434.923152
 30
0.0
  0
LWPOLYLINE
  5
2a9
100
AcDbEntity
  8
Layer_1
 62
5
100
AcDbPolyline
 90
5
 70
1
 10
454.298024
 20
402.778472
 30
0.0
 10
428.881584
 20
402.778472
 30
0.0
 10
428.881584
 20
376.303016
 30
0.0
 10
454.298024
 20
376.303016
 30
0.0
 10
454.298024
 20
402.778472
 30
0.0
  0
LWPOLYLINE
  5
2aa
100
AcDbEntity
  8
Layer_1
 62
5
100
AcDbPolyline
 90
5
 70
1
 10
454.422488
 20
434.985848
 30
0.0
 10
429.006048
 20
434.985848
 30
0.0
 10
429.006048
 20
408.510392
 30
0.0
 10
454.422488
 20
408.510392
 30
0.0
 10
454.422488
 20
434.985848
 30
0.0
  0
LWPOLYLINE
  5
2ab
100
AcDbEntity
  8
Layer_1
 62
5
100
AcDbPolyline
 90
5
 70
1
 10
454.795776
 20
467.565632
 30
0.0
 10
429.379336
 20
467.565632
 30
0.0
 10
429.379336
 20
441.090176
 30
0.0
 10
454.795776
 20
441.090176
 30
0.0
 10
454.795776
 20
467.565632
 30
0.0
  0
LWPOLYLINE
  5
2ac
100
AcDbEntity
  8
Layer_1
 62
5
100
AcDbPolyline
 90
5
 70
1
 10
454.484256
 20
499.398808
 30
0.0
 10
429.067816
 20
499.398808
 30
0.0
 10
429.067816
 20
472.923352
 30
0.0
 10
454.484256
 20
472.923352
 30
0.0
 10
454.484256
 20
499.398808
 30
0.0
  0
LWPOLYLINE
  5
2ad
100
AcDbEntity
  8
Layer_1
 62
5
100
AcDbPolyline
 90
5
 70
1
 10
454.546944
 20
532.042144
 30
0.0
 10
429.130512
 20
532.042144
 30
0.0
 10
429.130512
 20
505.566688
 30
0.0
 10
454.546944
 20
505.566688
 30
0.0
 10
454.546944
 20
532.042144
 30
0.0
  0
LWPOLYLINE
  5
2ae
100
AcDbEntity
  8
Layer_1
 62
5
100
AcDbPolyline
 90
5
 70
1
 10
454.796656
 20
564.870856
 30
0.0
 10
429.380216
 20
564.870856
 30
0.0
 10
429.380216
 20
538.395400
 30
0.0
 10
454.796656
 20
538.395400
 30
0.0
 10
454.796656
 20
564.870856
 30
0.0
  0
LWPOLYLINE
  5
2af
100
AcDbEntity
  8
Layer_1
 62
5
100
AcDbPolyline
 90
5
 70
1
 10
455.107296
 20
597.202664
 30
0.0
 10
429.690864
 20
597.202664
 30
0.0
 10
429.690864
 20
570.727208
 30
0.0
 10
455.107296
 20
570.727208
 30
0.0
 10
455.107296
 20
597.202664
 30
0.0
  0
LWPOLYLINE
  5
2b0
100
AcDbEntity
  8
Layer_1
 62
5
100
AcDbPolyline
 90
5
 70
1
 10
454.794944
 20
628.536384
 30
0.0
 10
429.378512
 20
628.536384
 30
0.0
 10
429.378512
 20
602.060928
 30
0.0
 10
454.794944
 20
602.060928
 30
0.0
 10
454.794944
 20
628.536384
 30
0.0
  0
LWPOLYLINE
  5
2b1
100
AcDbEntity
  8
Layer_1
 62
5
100
AcDbPolyline
 90
5
 70
1
 10
454.795776
 20
660.993488
 30
0.0
 10
429.379336
 20
660.993488
 30
0.0
 10
429.379336
 20
634.518032
 30
0.0
 10
454.795776
 20
634.518032
 30
0.0
 10
454.795776
 20
660.993488
 30
0.0
  0
LWPOLYLINE
  5
2b2
100
AcDbEntity
  8
Layer_1
 62
5
100
AcDbPolyline
 90
5
 70
1
 10
455.730392
 20
693.573320
 30
0.0
 10
430.313960
 20
693.573320
 30
0.0
 10
430.313960
 20
667.097864
 30
0.0
 10
455.730392
 20
667.097864
 30
0.0
 10
455.730392
 20
693.573320
 30
0.0
  0
LWPOLYLINE
  5
2b3
100
AcDbEntity
  8
Layer_1
 62
5
100
AcDbPolyline
 90
5
 70
1
 10
454.671360
 20
725.844208
 30
0.0
 10
429.254928
 20
725.844208
 30
0.0
 10
429.254928
 20
699.368752
 30
0.0
 10
454.671360
 20
699.368752
 30
0.0
 10
454.671360
 20
725.844208
 30
0.0
  0
LWPOLYLINE
  5
2b4
100
AcDbEntity
  8
Layer_1
 62
5
100
AcDbPolyline
 90
5
 70
1
 10
422.713720
 20
757.487736
 30
0.0
 10
397.297280
 20
757.487736
 30
0.0
 10
397.297280
 20
731.012280
 30
0.0
 10
422.713720
 20
731.012280
 30
0.0
 10
422.713720
 20
757.487736
 30
0.0
  0
LWPOLYLINE
  5
2b5
100
AcDbEntity
  8
Layer_1
 62
5
100
AcDbPolyline
 90
5
 70
1
 10
423.025240
 20
726.154024
 30
0.0
 10
397.608808
 20
726.154024
 30
0.0
 10
397.608808
 20
699.678568
 30
0.0
 10
423.025240
 20
699.678568
 30
0.0
 10
423.025240
 20
726.154024
 30
0.0
  0
LWPOLYLINE
  5
2b6
100
AcDbEntity
  8
Layer_1
 62
5
100
AcDbPolyline
 90
5
 70
1
 10
422.713720
 20
693.946648
 30
0.0
 10
397.297280
 20
693.946648
 30
0.0
 10
397.297280
 20
667.471192
 30
0.0
 10
422.713720
 20
667.471192
 30
0.0
 10
422.713720
 20
693.946648
 30
0.0
  0
LWPOLYLINE
  5
2b7
100
AcDbEntity
  8
Layer_1
 62
5
100
AcDbPolyline
 90
5
 70
1
 10
422.651072
 20
661.678328
 30
0.0
 10
397.234640
 20
661.678328
 30
0.0
 10
397.234640
 20
635.202872
 30
0.0
 10
422.651072
 20
635.202872
 30
0.0
 10
422.651072
 20
661.678328
 30
0.0
  0
LWPOLYLINE
  5
2b8
100
AcDbEntity
  8
Layer_1
 62
5
100
AcDbPolyline
 90
5
 70
1
 10
422.590136
 20
628.847904
 30
0.0
 10
397.173696
 20
628.847904
 30
0.0
 10
397.173696
 20
602.372448
 30
0.0
 10
422.590136
 20
602.372448
 30
0.0
 10
422.590136
 20
628.847904
 30
0.0
  0
LWPOLYLINE
  5
2b9
100
AcDbEntity
  8
Layer_1
 62
5
100
AcDbPolyline
 90
5
 70
1
 10
422.528368
 20
596.891120
 30
0.0
 10
397.111936
 20
596.891120
 30
0.0
 10
397.111936
 20
570.415664
 30
0.0
 10
422.528368
 20
570.415664
 30
0.0
 10
422.528368
 20
596.891120
 30
0.0
  0
LWPOLYLINE
  5
2ba
100
AcDbEntity
  8
Layer_1
 62
5
100
AcDbPolyline
 90
5
 70
1
 10
422.403048
 20
564.434872
 30
0.0
 10
396.986616
 20
564.434872
 30
0.0
 10
396.986616
 20
537.959416
 30
0.0
 10
422.403048
 20
537.959416
 30
0.0
 10
422.403048
 20
564.434872
 30
0.0
  0
LWPOLYLINE
  5
2bb
100
AcDbEntity
  8
Layer_1
 62
5
100
AcDbPolyline
 90
5
 70
1
 10
422.464840
 20
531.606184
 30
0.0
 10
397.048408
 20
531.606184
 30
0.0
 10
397.048408
 20
505.130728
 30
0.0
 10
422.464840
 20
505.130728
 30
0.0
 10
422.464840
 20
531.606184
 30
0.0
  0
LWPOLYLINE
  5
2bc
100
AcDbEntity
  8
Layer_1
 62
5
100
AcDbPolyline
 90
5
 70
1
 10
422.590136
 20
499.211720
 30
0.0
 10
397.173696
 20
499.211720
 30
0.0
 10
397.173696
 20
472.736272
 30
0.0
 10
422.590136
 20
472.736272
 30
0.0
 10
422.590136
 20
499.211720
 30
0.0
  0
LWPOLYLINE
  5
2bd
100
AcDbEntity
  8
Layer_1
 62
5
100
AcDbPolyline
 90
5
 70
1
 10
422.652808
 20
467.130496
 30
0.0
 10
397.236368
 20
467.130496
 30
0.0
 10
397.236368
 20
440.655040
 30
0.0
 10
422.652808
 20
440.655040
 30
0.0
 10
422.652808
 20
467.130496
 30
0.0
  0
LWPOLYLINE
  5
2be
100
AcDbEntity
  8
Layer_1
 62
5
100
AcDbPolyline
 90
5
 70
1
 10
422.340408
 20
435.297368
 30
0.0
 10
396.923968
 20
435.297368
 30
0.0
 10
396.923968
 20
408.821912
 30
0.0
 10
422.340408
 20
408.821912
 30
0.0
 10
422.340408
 20
435.297368
 30
0.0
  0
LWPOLYLINE
  5
2bf
100
AcDbEntity
  8
Layer_1
 62
5
100
AcDbPolyline
 90
5
 70
1
 10
422.028880
 20
402.032672
 30
0.0
 10
396.612448
 20
402.032672
 30
0.0
 10
396.612448
 20
375.557216
 30
0.0
 10
422.028880
 20
375.557216
 30
0.0
 10
422.028880
 20
402.032672
 30
0.0
  0
LWPOLYLINE
  5
2c0
100
AcDbEntity
  8
Layer_1
 62
5
100
AcDbPolyline
 90
5
 70
1
 10
422.215968
 20
370.821632
 30
0.0
 10
396.799528
 20
370.821632
 30
0.0
 10
396.799528
 20
344.346184
 30
0.0
 10
422.215968
 20
344.346184
 30
0.0
 10
422.215968
 20
370.821632
 30
0.0
  0
LWPOLYLINE
  5
2c1
100
AcDbEntity
  8
Layer_1
 62
3
100
AcDbPolyline
 90
45
 70
1
 10
71.192464
 20
632.256780
 30
0.0
 10
103.260392
 20
631.792524
 30
0.0
 10
103.296792
 20
665.216852
 30
0.0
 10
134.733584
 20
664.919468
 30
0.0
 10
134.864096
 20
697.488020
 30
0.0
 10
167.635896
 20
697.378916
 30
0.0
 10
167.396280
 20
729.258572
 30
0.0
 10
200.429088
 20
729.185852
 30
0.0
 10
200.559600
 20
761.457028
 30
0.0
 10
232.199632
 20
761.681668
 30
0.0
 10
232.054056
 20
794.158676
 30
0.0
 10
393.978848
 20
794.023740
 30
0.0
 10
394.271112
 20
761.523580
 30
0.0
 10
426.045168
 20
761.252172
 30
0.0
 10
426.578704
 20
729.395764
 30
0.0
 10
459.708776
 20
729.500196
 30
0.0
 10
460.185936
 20
697.023788
 30
0.0
 10
491.659096
 20
697.415308
 30
0.0
 10
491.789608
 20
663.933212
 30
0.0
 10
523.596519
 20
664.288364
 30
0.0
 10
524.024399
 20
632.982068
 30
0.0
 10
555.961823
 20
632.851572
 30
0.0
 10
555.998223
 20
470.785412
 30
0.0
 10
524.227671
 20
470.488028
 30
0.0
 10
524.154951
 20
437.752596
 30
0.0
 10
492.087024
 20
438.253228
 30
0.0
 10
491.659136
 20
405.517804
 30
0.0
 10
459.163320
 20
405.554204
 30
0.0
 10
459.257456
 20
373.355772
 30
0.0
 10
427.820664
 20
373.616788
 30
0.0
 10
428.118048
 20
340.526212
 30
0.0
 10
396.180624
 20
340.562612
 30
0.0
 10
395.418992
 20
308.124564
 30
0.0
 10
232.199672
 20
308.755692
 30
0.0
 10
232.460688
 20
340.693116
 30
0.0
 10
200.690136
 20
340.990500
 30
0.0
 10
200.465504
 20
373.058420
 30
0.0
 10
168.528072
 20
374.247948
 30
0.0
 10
168.825456
 20
405.960732
 30
0.0
 10
136.423776
 20
405.663348
 30
0.0
 10
135.437496
 20
437.992292
 30
0.0
 10
103.797456
 20
437.992292
 30
0.0
 10
104.000704
 20
470.785484
 30
0.0
 10
71.228904
 20
470.785484
 30
0.0
 10
71.192464
 20
632.256780
 30
0.0
  0
SPLINE
  5
2c2
100
AcDbEntity
  8
Layer_1
 62
5
100
AcDbSpline
 70
0
 71
3
 72
10
 73
6
 74
4
 40
0.000000
 40
0.000000
 40
0.000000
 40
0.000000
 40
6.593796
 40
12.977452
 40
19.571246
 40
19.571246
 40
19.571246
 40
19.571246
 10
-664.636702
 20
723.884529
 30
0.0
 10
-664.292977
 20
726.095105
 30
0.0
 10
-663.616481
 20
730.445807
 30
0.0
 10
-658.602284
 20
735.460010
 30
0.0
 10
-654.251582
 20
736.136507
 30
0.0
 10
-652.041006
 20
736.480233
 30
0.0
 11
-664.636702
 21
723.884529
 31
0.0
 11
-662.921822
 21
730.251423
 31
0.0
 11
-658.407898
 21
734.765351
 31
0.0
 11
-652.041006
 21
736.480233
 31
0.0
  0
LWPOLYLINE
  5
2c3
100
AcDbEntity
  8
Layer_1
 62
5
100
AcDbPolyline
 90
4
 70
1
 10
50.661624
 20
812.040020
 30
0.0
 10
50.661624
 20
287.990020
 30
0.0
 10
560.011624
 20
287.990020
 30
0.0
 10
535.086624
 20
312.915020
 30
0.0
  0
SPLINE
  5
2c4
100
AcDbEntity
  8
Layer_1
 62
5
100
AcDbSpline
 70
0
 71
3
 72
13
 73
9
 74
7
 40
0.000000
 40
0.000000
 40
0.000000
 40
0.000000
 40
5.080218
 40
9.999129
 40
15.079348
 40
20.159567
 40
25.078480
 40
30.158699
 40
30.158699
 40
30.158699
 40
30.158699
 10
535.086624
 20
312.915020
 30
0.0
 10
534.062487
 20
314.313859
 30
0.0
 10
532.046730
 20
317.067121
 30
0.0
 10
532.151611
 20
322.425805
 30
0.0
 10
534.761665
 20
326.964979
 30
0.0
 10
539.300838
 20
329.575037
 30
0.0
 10
544.659524
 20
329.679917
 30
0.0
 10
547.412785
 20
327.664158
 30
0.0
 10
548.811624
 20
326.640020
 30
0.0
 11
535.086624
 21
312.915020
 31
0.0
 11
532.552493
 21
317.318064
 31
0.0
 11
532.552493
 21
322.236975
 31
0.0
 11
535.086624
 21
326.640020
 31
0.0
 11
539.489668
 21
329.174153
 31
0.0
 11
544.408580
 21
329.174153
 31
0.0
 11
548.811624
 21
326.640020
 31
0.0
  0
LWPOLYLINE
  5
2c5
100
AcDbEntity
  8
Layer_1
 62
5
100
AcDbPolyline
 90
4
 70
1
 10
548.811624
 20
326.640020
 30
0.0
 10
574.711624
 20
300.740020
 30
0.0
 10
574.711624
 20
799.190020
 30
0.0
 10
549.211624
 20
773.690020
 30
0.0
  0
SPLINE
  5
2c6
100
AcDbEntity
  8
Layer_1
 62
5
100
AcDbSpline
 70
0
 71
3
 72
13
 73
9
 74
7
 40
0.000000
 40
0.000000
 40
0.000000
 40
0.000000
 40
5.080219
 40
9.999132
 40
15.079351
 40
20.153953
 40
25.060827
 40
30.135429
 40
30.135429
 40
30.135429
 40
30.135429
 10
549.211624
 20
773.690020
 30
0.0
 10
547.812805
 20
772.665892
 30
0.0
 10
545.059583
 20
770.650153
 30
0.0
 10
539.700606
 20
770.754885
 30
0.0
 10
535.164257
 20
773.364548
 30
0.0
 10
532.551982
 20
777.895197
 30
0.0
 10
532.447764
 20
783.246614
 30
0.0
 10
534.462386
 20
785.993499
 30
0.0
 10
535.486624
 20
787.390020
 30
0.0
 11
549.211624
 21
773.690020
 31
0.0
 11
544.808580
 21
771.155886
 31
0.0
 11
539.889668
 21
771.155886
 31
0.0
 11
535.486624
 21
773.690020
 31
0.0
 11
532.952493
 21
778.086583
 31
0.0
 11
532.952493
 21
782.993457
 31
0.0
 11
535.486624
 21
787.390020
 31
0.0
  0
LWPOLYLINE
  5
2c7
100
AcDbEntity
  8
Layer_1
 62
5
100
AcDbPolyline
 90
4
 70
1
 10
535.486624
 20
787.390020
 30
0.0
 10
560.136624
 20
812.040020
 30
0.0
 10
50.661624
 20
812.040020
 30
0.0
 10
50.661624
 20
812.040020
 30
0.0
  0
SPLINE
  5
2c8
100
AcDbEntity
  8
Layer_1
 62
5
100
AcDbSpline
 70
0
 71
3
 72
19
 73
15
 74
13
 40
0.000000
 40
0.000000
 40
0.000000
 40
0.000000
 40
2.924259
 40
5.761784
 40
8.686041
 40
11.610298
 40
14.447824
 40
17.372083
 40
20.296340
 40
23.133865
 40
26.058123
 40
28.982380
 40
31.819904
 40
34.744161
 40
34.744161
 40
34.744161
 40
34.744161
 10
98.020032
 20
770.297736
 30
0.0
 10
97.866314
 20
769.311814
 30
0.0
 10
97.563438
 20
767.369211
 30
0.0
 10
95.336843
 20
765.230565
 30
0.0
 10
92.432345
 20
764.438132
 30
0.0
 10
89.497352
 20
765.230565
 30
0.0
 10
87.360429
 20
767.369211
 30
0.0
 10
86.567410
 20
770.297736
 30
0.0
 10
87.360430
 20
773.226260
 30
0.0
 10
89.497353
 20
775.364905
 30
0.0
 10
92.432345
 20
776.157338
 30
0.0
 10
95.336843
 20
775.364905
 30
0.0
 10
97.563438
 20
773.226260
 30
0.0
 10
97.866314
 20
771.283658
 30
0.0
 10
98.020032
 20
770.297736
 30
0.0
 11
98.020032
 21
770.297736
 31
0.0
 11
97.256448
 21
767.474931
 31
0.0
 11
95.250015
 21
765.468498
 31
0.0
 11
92.427212
 21
764.704914
 31
0.0
 11
89.604408
 21
765.468498
 31
0.0
 11
87.597974
 21
767.474931
 31
0.0
 11
86.834389
 21
770.297736
 31
0.0
 11
87.597974
 21
773.120540
 31
0.0
 11
89.604408
 21
775.126972
 31
0.0
 11
92.427212
 21
775.890556
 31
0.0
 11
95.250015
 21
775.126972
 31
0.0
 11
97.256448
 21
773.120540
 31
0.0
 11
98.020032
 21
770.297736
 31
0.0
  0
LWPOLYLINE
  5
2c9
100
AcDbEntity
  8
Layer_1
 62
5
100
AcDbPolyline
 90
2
 70
1
 10
98.020032
 20
770.297736
 30
0.0
 10
98.020032
 20
770.297736
 30
0.0
  0
SPLINE
  5
2ca
100
AcDbEntity
  8
Layer_1
 62
5
100
AcDbSpline
 70
0
 71
3
 72
19
 73
15
 74
13
 40
0.000000
 40
0.000000
 40
0.000000
 40
0.000000
 40
2.924259
 40
5.761784
 40
8.686041
 40
11.610298
 40
14.447824
 40
17.372083
 40
20.296340
 40
23.133865
 40
26.058123
 40
28.982380
 40
31.819904
 40
34.744161
 40
34.744161
 40
34.744161
 40
34.744161
 10
98.840096
 20
329.639231
 30
0.0
 10
98.686378
 20
330.625154
 30
0.0
 10
98.383502
 20
332.567756
 30
0.0
 10
96.156907
 20
334.706403
 30
0.0
 10
93.252409
 20
335.498835
 30
0.0
 10
90.317416
 20
334.706403
 30
0.0
 10
88.180493
 20
332.567757
 30
0.0
 10
87.387474
 20
329.639232
 30
0.0
 10
88.180494
 20
326.710707
 30
0.0
 10
90.317417
 20
324.572062
 30
0.0
 10
93.252409
 20
323.779630
 30
0.0
 10
96.156907
 20
324.572062
 30
0.0
 10
98.383502
 20
326.710708
 30
0.0
 10
98.686378
 20
328.653309
 30
0.0
 10
98.840096
 20
329.639231
 30
0.0
 11
98.840096
 21
329.639231
 31
0.0
 11
98.076512
 21
332.462036
 31
0.0
 11
96.070079
 21
334.468470
 31
0.0
 11
93.247276
 21
335.232054
 31
0.0
 11
90.424472
 21
334.468470
 31
0.0
 11
88.418038
 21
332.462036
 31
0.0
 11
87.654453
 21
329.639231
 31
0.0
 11
88.418038
 21
326.816428
 31
0.0
 11
90.424472
 21
324.809995
 31
0.0
 11
93.247276
 21
324.046411
 31
0.0
 11
96.070079
 21
324.809995
 31
0.0
 11
98.076512
 21
326.816428
 31
0.0
 11
98.840096
 21
329.639231
 31
0.0
  0
SPLINE
  5
2cb
100
AcDbEntity
  8
Layer_1
 62
3
100
AcDbSpline
 70
0
 71
3
 72
10
 73
6
 74
4
 40
0.000000
 40
0.000000
 40
0.000000
 40
0.000000
 40
24.870215
 40
48.553747
 40
80.552501
 40
80.552501
 40
80.552501
 40
80.552501
 10
-299.289003
 20
116.282205
 30
0.0
 10
-307.579022
 20
112.905273
 30
0.0
 10
-323.763503
 20
106.312540
 30
0.0
 10
-348.091254
 20
131.373234
 30
0.0
 10
-335.799730
 20
148.671691
 30
0.0
 10
-328.736201
 20
158.612538
 30
0.0
 11
-299.289003
 21
116.282205
 31
0.0
 11
-323.760074
 21
111.844383
 31
0.0
 11
-340.314047
 21
128.781786
 31
0.0
 11
-328.736201
 21
158.612538
 31
0.0
  0
LWPOLYLINE
  5
2cc
100
AcDbEntity
  8
Layer_1
 62
5
100
AcDbPolyline
 90
2
 70
1
 10
98.840096
 20
329.639231
 30
0.0
 10
98.840096
 20
329.639231
 30
0.0
  0
SPLINE
  5
2cd
100
AcDbEntity
  8
Layer_1
 62
3
100
AcDbSpline
 70
0
 71
3
 72
10
 73
6
 74
4
 40
0.000000
 40
0.000000
 40
0.000000
 40
0.000000
 40
22.218443
 40
40.573821
 40
62.187844
 40
62.187844
 40
62.187844
 40
62.187844
 10
-328.736201
 20
158.612538
 30
0.0
 10
-330.525078
 20
151.167977
 30
0.0
 10
-333.791803
 20
137.573221
 30
0.0
 10
-320.838146
 20
117.720935
 30
0.0
 10
-306.852136
 20
116.787158
 30
0.0
 10
-299.289003
 20
116.282205
 30
0.0
 11
-328.736201
 21
158.612538
 31
0.0
 11
-330.588873
 21
136.471472
 31
0.0
 11
-320.323148
 21
121.255205
 31
0.0
 11
-299.289003
 21
116.282205
 31
0.0
  0
LWPOLYLINE
  5
2ce
100
AcDbEntity
  8
Layer_1
 62
3
100
AcDbPolyline
 90
2
 70
1
 10
-299.289003
 20
116.282205
 30
0.0
 10
-299.289003
 20
116.282205
 30
0.0
  0
SPLINE
  5
2cf
100
AcDbEntity
  8
Layer_1
 62
3
100
AcDbSpline
 70
0
 71
3
 72
10
 73
6
 74
4
 40
0.000000
 40
0.000000
 40
0.000000
 40
0.000000
 40
24.716900
 40
48.807700
 40
69.491542
 40
69.491542
 40
69.491542
 40
69.491542
 10
-296.235468
 20
171.015138
 30
0.0
 10
-303.767742
 20
169.549239
 30
0.0
 10
-318.641492
 20
166.654573
 30
0.0
 10
-350.915405
 20
173.371706
 30
0.0
 10
-345.393749
 20
155.028279
 30
0.0
 10
-342.842996
 20
146.554453
 30
0.0
 11
-296.235468
 21
171.015138
 31
0.0
 11
-320.831097
 21
168.569698
 31
0.0
 11
-344.879305
 21
167.137815
 31
0.0
 11
-342.842996
 21
146.554453
 31
0.0
  0
LWPOLYLINE
  5
2d0
100
AcDbEntity
  8
Layer_1
 62
3
100
AcDbPolyline
 90
2
 70
1
 10
-342.842996
 20
146.554453
 30
0.0
 10
-338.545851
 20
152.834901
 30
0.0
  0
LWPOLYLINE
  5
2d1
100
AcDbEntity
  8
Layer_1
 62
3
100
AcDbPolyline
 90
2
 70
1
 10
-296.235468
 20
171.015138
 30
0.0
 10
-296.235468
 20
171.015138
 30
0.0
  0
SPLINE
  5
2d2
100
AcDbEntity
  8
Layer_1
 62
3
100
AcDbSpline
 70
0
 71
3
 72
13
 73
9
 74
7
 40
0.000000
 40
0.000000
 40
0.000000
 40
0.000000
 40
8.071871
 40
13.187213
 40
18.304743
 40
34.480223
 40
52.934039
 40
68.307717
 40
68.307717
 40
68.307717
 40
68.307717
 10
-338.545851
 20
152.834901
 30
0.0
 10
-341.224192
 20
154.103042
 30
0.0
 10
-345.599864
 20
156.174836
 30
0.0
 10
-345.106996
 20
163.823315
 30
0.0
 10
-335.341008
 20
166.469123
 30
0.0
 10
-324.034357
 20
160.274811
 30
0.0
 10
-304.530752
 20
154.660155
 30
0.0
 10
-298.827459
 20
165.904767
 30
0.0
 10
-296.235468
 20
171.015138
 30
0.0
 11
-338.545851
 21
152.834901
 31
0.0
 11
-344.808433
 21
157.927559
 31
0.0
 11
-344.230265
 21
163.010123
 31
0.0
 11
-339.535276
 21
165.046341
 31
0.0
 11
-323.884728
 21
160.958983
 31
0.0
 11
-305.558693
 21
158.791086
 31
0.0
 11
-296.235468
 21
171.015138
 31
0.0
  0
LWPOLYLINE
  5
2d3
100
AcDbEntity
  8
Layer_1
 62
3
100
AcDbPolyline
 90
3
 70
1
 10
-261.527727
 20
112.177261
 30
0.0
 10
-261.527727
 20
108.210665
 30
0.0
 10
-281.030170
 20
108.210676
 30
0.0
  0
SPLINE
  5
2d4
100
AcDbEntity
  8
Layer_1
 62
3
100
AcDbSpline
 70
0
 71
3
 72
10
 73
6
 74
4
 40
0.000000
 40
0.000000
 40
0.000000
 40
0.000000
 40
21.093801
 40
42.213526
 40
64.482038
 40
64.482038
 40
64.482038
 40
64.482038
 10
-281.030170
 20
108.210676
 30
0.0
 10
-279.330971
 20
115.208312
 30
0.0
 10
-275.930486
 20
129.212185
 30
0.0
 10
-288.845145
 20
150.556393
 30
0.0
 10
-278.438215
 20
162.765607
 30
0.0
 10
-273.096978
 20
169.031845
 30
0.0
 11
-281.030170
 21
108.210676
 31
0.0
 11
-278.892720
 21
129.195903
 31
0.0
 11
-284.090314
 21
149.666071
 31
0.0
 11
-273.096978
 21
169.031845
 31
0.0
  0
SPLINE
  5
2d5
100
AcDbEntity
  8
Layer_1
 62
3
100
AcDbSpline
 70
0
 71
3
 72
10
 73
6
 74
4
 40
0.000000
 40
0.000000
 40
0.000000
 40
0.000000
 40
7.833396
 40
16.101511
 40
27.670307
 40
27.670307
 40
27.670307
 40
27.670307
 10
-244.669686
 20
168.370737
 30
0.0
 10
-246.121714
 20
165.782990
 30
0.0
 10
-249.106352
 20
160.463889
 30
0.0
 10
-259.327710
 20
164.256065
 30
0.0
 10
-265.519410
 20
165.602317
 30
0.0
 10
-269.130382
 20
166.387444
 30
0.0
 11
-244.669686
 21
168.370737
 31
0.0
 11
-249.727117
 21
162.388724
 31
0.0
 11
-257.911089
 21
163.565295
 31
0.0
 11
-269.130382
 21
166.387444
 31
0.0
  0
SPLINE
  5
2d6
100
AcDbEntity
  8
Layer_1
 62
3
100
AcDbSpline
 70
0
 71
3
 72
10
 73
6
 74
4
 40
0.000000
 40
0.000000
 40
0.000000
 40
0.000000
 40
7.429531
 40
12.857002
 40
18.324888
 40
18.324888
 40
18.324888
 40
18.324888
 10
-269.130382
 20
166.387444
 30
0.0
 10
-271.916364
 20
164.954454
 30
0.0
 10
-276.737580
 20
162.474627
 30
0.0
 10
-271.964371
 20
156.596435
 30
0.0
 10
-270.517565
 20
153.431554
 30
0.0
 10
-269.791479
 20
151.843244
 30
0.0
 11
-269.130382
 21
166.387444
 31
0.0
 11
-274.760140
 21
161.539377
 31
0.0
 11
-272.320119
 21
156.691312
 31
0.0
 11
-269.791479
 21
151.843244
 31
0.0
  0
SPLINE
  5
2d7
100
AcDbEntity
  8
Layer_1
 62
3
100
AcDbSpline
 70
0
 71
3
 72
10
 73
6
 74
4
 40
0.000000
 40
0.000000
 40
0.000000
 40
0.000000
 40
24.137266
 40
37.540651
 40
48.767722
 40
48.767722
 40
48.767722
 40
48.767722
 10
-269.791479
 20
151.843244
 30
0.0
 10
-261.828976
 20
155.523793
 30
0.0
 10
-249.444907
 20
161.248145
 30
0.0
 10
-234.418246
 20
150.618882
 30
0.0
 10
-232.150726
 20
142.604788
 30
0.0
 10
-231.117143
 20
138.951799
 30
0.0
 11
-269.791479
 21
151.843244
 31
0.0
 11
-246.241625
 21
157.135877
 31
0.0
 11
-235.323614
 21
149.361061
 31
0.0
 11
-231.117143
 21
138.951799
 31
0.0
  0
SPLINE
  5
2d8
100
AcDbEntity
  8
Layer_1
 62
3
100
AcDbSpline
 70
0
 71
3
 72
10
 73
6
 74
4
 40
0.000000
 40
0.000000
 40
0.000000
 40
0.000000
 40
21.790432
 40
36.935231
 40
54.890312
 40
54.890312
 40
54.890312
 40
54.890312
 10
-231.117143
 20
138.951799
 30
0.0
 10
-230.654307
 20
130.887601
 30
0.0
 10
-229.869790
 20
117.218619
 30
0.0
 10
-247.693998
 20
108.082893
 30
0.0
 10
-256.876963
 20
102.379584
 30
0.0
 10
-261.858276
 20
99.285816
 30
0.0
 11
-231.117143
 21
138.951799
 31
0.0
 11
-234.176200
 21
117.377158
 31
0.0
 11
-246.453722
 21
108.509949
 31
0.0
 11
-261.858276
 21
99.285816
 31
0.0
  0
SPLINE
  5
2d9
100
AcDbEntity
  8
Layer_1
 62
3
100
AcDbSpline
 70
0
 71
3
 72
10
 73
6
 74
4
 40
0.000000
 40
0.000000
 40
0.000000
 40
0.000000
 40
13.902723
 40
27.747409
 40
43.881274
 40
43.881274
 40
43.881274
 40
43.881274
 10
-261.858276
 20
99.285816
 30
0.0
 10
-258.528713
 20
102.464850
 30
0.0
 10
-251.883486
 20
108.809647
 30
0.0
 10
-242.477862
 20
120.801353
 30
0.0
 10
-242.398536
 20
131.097028
 30
0.0
 10
-242.355844
 20
136.637957
 30
0.0
 11
-261.858276
 21
99.285816
 31
0.0
 11
-252.044761
 21
109.133691
 31
0.0
 11
-244.322064
 21
120.624351
 31
0.0
 11
-242.355844
 21
136.637957
 31
0.0
  0
SPLINE
  5
2da
100
AcDbEntity
  8
Layer_1
 62
3
100
AcDbSpline
 70
0
 71
3
 72
10
 73
6
 74
4
 40
0.000000
 40
0.000000
 40
0.000000
 40
0.000000
 40
16.562696
 40
26.453107
 40
38.869422
 40
38.869422
 40
38.869422
 40
38.869422
 10
-242.355844
 20
136.637957
 30
0.0
 10
-243.290725
 20
143.047522
 30
0.0
 10
-244.783869
 20
153.284557
 30
0.0
 10
-259.880147
 20
153.748935
 30
0.0
 10
-266.247371
 20
149.976469
 30
0.0
 10
-269.791479
 20
147.876648
 30
0.0
 11
-242.355844
 21
136.637957
 31
0.0
 11
-248.602751
 21
151.977418
 31
0.0
 11
-258.447688
 21
152.924745
 31
0.0
 11
-269.791479
 21
147.876648
 31
0.0
  0
LWPOLYLINE
  5
2db
100
AcDbEntity
  8
Layer_1
 62
3
100
AcDbPolyline
 90
2
 70
1
 10
-273.096978
 20
169.031845
 30
0.0
 10
-244.669686
 20
168.370737
 30
0.0
  0
SPLINE
  5
2dc
100
AcDbEntity
  8
Layer_1
 62
3
100
AcDbSpline
 70
0
 71
3
 72
10
 73
6
 74
4
 40
0.000000
 40
0.000000
 40
0.000000
 40
0.000000
 40
18.204446
 40
28.550192
 40
36.520025
 40
36.520025
 40
36.520025
 40
36.520025
 10
-269.791479
 20
147.876648
 30
0.0
 10
-268.759470
 20
141.843893
 30
0.0
 10
-267.140961
 20
132.382670
 30
0.0
 10
-269.854186
 20
120.161192
 30
0.0
 10
-273.265377
 20
115.058676
 30
0.0
 10
-274.749722
 20
112.838370
 30
0.0
 11
-269.791479
 21
147.876648
 31
0.0
 11
-268.215875
 21
129.740514
 31
0.0
 11
-270.684934
 21
119.693714
 31
0.0
 11
-274.749722
 21
112.838370
 31
0.0
  0
LWPOLYLINE
  5
2dd
100
AcDbEntity
  8
Layer_1
 62
3
100
AcDbPolyline
 90
2
 70
1
 10
-274.749722
 20
112.838370
 30
0.0
 10
-261.527727
 20
112.177261
 30
0.0
  0
SPLINE
  5
2de
100
AcDbEntity
  8
Layer_1
 62
3
100
AcDbSpline
 70
0
 71
3
 72
10
 73
6
 74
4
 40
0.000000
 40
0.000000
 40
0.000000
 40
0.000000
 40
8.254239
 40
15.066655
 40
23.855252
 40
23.855252
 40
23.855252
 40
23.855252
 10
-221.200679
 20
167.379101
 30
0.0
 10
-218.529789
 20
167.494940
 30
0.0
 10
-213.654551
 20
167.706384
 30
0.0
 10
-204.661312
 20
166.319767
 30
0.0
 10
-204.034579
 20
160.442766
 30
0.0
 10
-203.681519
 20
157.132046
 30
0.0
 11
-221.200679
 21
167.379101
 31
0.0
 11
-212.946468
 21
167.400305
 31
0.0
 11
-206.408268
 21
165.486941
 31
0.0
 11
-203.681519
 21
157.132046
 31
0.0
  0
SPLINE
  5
2df
100
AcDbEntity
  8
Layer_1
 62
3
100
AcDbSpline
 70
0
 71
3
 72
10
 73
6
 74
4
 40
0.000000
 40
0.000000
 40
0.000000
 40
0.000000
 40
14.557957
 40
27.382778
 40
38.599070
 40
38.599070
 40
38.599070
 40
38.599070
 10
-204.012057
 20
126.721461
 30
0.0
 10
-201.939971
 20
121.754922
 30
0.0
 10
-198.042482
 20
112.413115
 30
0.0
 10
-182.166046
 20
113.898053
 30
0.0
 10
-177.227633
 20
120.388070
 30
0.0
 10
-174.923636
 20
123.415963
 30
0.0
 11
-204.012057
 21
126.721461
 31
0.0
 11
-195.713955
 21
114.760039
 31
0.0
 11
-182.913094
 21
115.543621
 31
0.0
 11
-174.923636
 21
123.415963
 31
0.0
  0
SPLINE
  5
2e0
100
AcDbEntity
  8
Layer_1
 62
3
100
AcDbSpline
 70
0
 71
3
 72
10
 73
6
 74
4
 40
0.000000
 40
0.000000
 40
0.000000
 40
0.000000
 40
17.690543
 40
28.820061
 40
44.428016
 40
44.428016
 40
44.428016
 40
44.428016
 10
-174.923636
 20
123.415963
 30
0.0
 10
-173.582952
 20
129.432199
 30
0.0
 10
-171.398815
 20
139.233384
 30
0.0
 10
-180.222462
 20
152.751392
 30
0.0
 10
-176.459299
 20
161.570092
 30
0.0
 10
-174.262559
 20
166.717993
 30
0.0
 11
-174.923636
 21
123.415963
 31
0.0
 11
-173.881179
 21
141.075765
 31
0.0
 11
-177.760918
 21
151.507149
 31
0.0
 11
-174.262559
 21
166.717993
 31
0.0
  0
SPLINE
  5
2e1
100
AcDbEntity
  8
Layer_1
 62
3
100
AcDbSpline
 70
0
 71
3
 72
10
 73
6
 74
4
 40
0.000000
 40
0.000000
 40
0.000000
 40
0.000000
 40
9.319246
 40
14.933396
 40
21.463381
 40
21.463381
 40
21.463381
 40
21.463381
 10
-174.262559
 20
166.717993
 30
0.0
 10
-177.244811
 20
166.938579
 30
0.0
 10
-182.023646
 20
167.292052
 30
0.0
 10
-190.232863
 20
163.829109
 30
0.0
 10
-188.015647
 20
159.473882
 30
0.0
 10
-186.823435
 20
157.132046
 30
0.0
 11
-174.262559
 21
166.717993
 31
0.0
 11
-183.572595
 21
166.303775
 31
0.0
 11
-188.416056
 21
163.464838
 31
0.0
 11
-186.823435
 21
157.132046
 31
0.0
  0
LWPOLYLINE
  5
2e2
100
AcDbEntity
  8
Layer_1
 62
3
100
AcDbPolyline
 90
2
 70
1
 10
-203.681519
 20
157.132046
 30
0.0
 10
-204.012057
 20
126.721461
 30
0.0
  0
SPLINE
  5
2e3
100
AcDbEntity
  8
Layer_1
 62
3
100
AcDbSpline
 70
0
 71
3
 72
10
 73
6
 74
4
 40
0.000000
 40
0.000000
 40
0.000000
 40
0.000000
 40
6.287215
 40
12.268285
 40
20.899241
 40
20.899241
 40
20.899241
 40
20.899241
 10
-186.823435
 20
157.132046
 30
0.0
 10
-189.102270
 20
156.785009
 30
0.0
 10
-193.548976
 20
156.107833
 30
0.0
 10
-197.453080
 20
164.674149
 30
0.0
 10
-192.225253
 20
167.205865
 30
0.0
 10
-189.137308
 20
168.701286
 30
0.0
 11
-186.823435
 21
157.132046
 31
0.0
 11
-193.093988
 21
157.589459
 31
0.0
 11
-195.624819
 21
163.008693
 31
0.0
 11
-189.137308
 21
168.701286
 31
0.0
  0
SPLINE
  5
2e4
100
AcDbEntity
  8
Layer_1
 62
3
100
AcDbSpline
 70
0
 71
3
 72
10
 73
6
 74
4
 40
0.000000
 40
0.000000
 40
0.000000
 40
0.000000
 40
11.657564
 40
24.691041
 40
36.534215
 40
36.534215
 40
36.534215
 40
36.534215
 10
-167.651583
 20
138.951799
 30
0.0
 10
-168.184767
 20
135.120993
 30
0.0
 10
-169.314063
 20
127.007240
 30
0.0
 10
-174.980400
 20
115.297783
 30
0.0
 10
-182.734431
 20
111.781114
 30
0.0
 10
-186.425939
 20
110.106913
 30
0.0
 11
-167.651583
 21
138.951799
 31
0.0
 11
-169.853045
 21
127.503988
 31
0.0
 11
-176.234381
 21
116.139566
 31
0.0
 11
-186.425939
 21
110.106913
 31
0.0
  0
LWPOLYLINE
  5
2e5
100
AcDbEntity
  8
Layer_1
 62
3
100
AcDbPolyline
 90
3
 70
1
 10
-189.137308
 20
168.701286
 30
0.0
 10
-167.982122
 20
169.362394
 30
0.0
 10
-167.651583
 20
138.951799
 30
0.0
  0
SPLINE
  5
2e6
100
AcDbEntity
  8
Layer_1
 62
3
100
AcDbSpline
 70
0
 71
3
 72
10
 73
6
 74
4
 40
0.000000
 40
0.000000
 40
0.000000
 40
0.000000
 40
13.134028
 40
26.725451
 40
41.916753
 40
41.916753
 40
41.916753
 40
41.916753
 10
-186.425939
 20
110.106913
 30
0.0
 10
-190.768203
 20
110.249120
 30
0.0
 10
-199.603951
 20
110.538487
 30
0.0
 10
-213.726915
 20
116.791505
 30
0.0
 10
-215.806095
 20
126.752772
 30
0.0
 10
-216.903470
 20
132.010253
 30
0.0
 11
-186.425939
 21
110.106913
 31
0.0
 11
-199.493505
 21
111.426529
 31
0.0
 11
-211.489084
 21
117.816589
 31
0.0
 11
-216.903470
 21
132.010253
 31
0.0
  0
LWPOLYLINE
  5
2e7
100
AcDbEntity
  8
Layer_1
 62
3
100
AcDbPolyline
 90
2
 70
1
 10
-216.903470
 20
132.010253
 30
0.0
 10
-216.903577
 20
158.784801
 30
0.0
  0
SPLINE
  5
2e8
100
AcDbEntity
  8
Layer_1
 62
3
100
AcDbSpline
 70
0
 71
3
 72
10
 73
6
 74
4
 40
0.000000
 40
0.000000
 40
0.000000
 40
0.000000
 40
4.660402
 40
7.386822
 40
10.192584
 40
10.192584
 40
10.192584
 40
10.192584
 10
-216.903577
 20
158.784801
 30
0.0
 10
-216.945704
 20
160.360317
 30
0.0
 10
-217.012477
 20
162.857538
 30
0.0
 10
-218.782322
 20
165.934840
 30
0.0
 10
-220.386889
 20
166.893100
 30
0.0
 10
-221.200679
 20
167.379101
 30
0.0
 11
-216.903577
 21
158.784801
 31
0.0
 11
-217.513933
 21
163.405062
 31
0.0
 11
-218.924949
 21
165.737956
 31
0.0
 11
-221.200679
 21
167.379101
 31
0.0
  0
SPLINE
  5
2e9
100
AcDbEntity
  8
Layer_1
 62
3
100
AcDbSpline
 70
0
 71
3
 72
10
 73
6
 74
4
 40
0.000000
 40
0.000000
 40
0.000000
 40
0.000000
 40
12.368561
 40
22.297578
 40
31.283245
 40
31.283245
 40
31.283245
 40
31.283245
 10
-133.536750
 20
159.544709
 30
0.0
 10
-133.588325
 20
155.398818
 30
0.0
 10
-133.681304
 20
147.924762
 30
0.0
 10
-130.826470
 20
137.799968
 30
0.0
 10
-130.510645
 20
131.488049
 30
0.0
 10
-130.360608
 20
128.489490
 30
0.0
 11
-133.536750
 21
159.544709
 31
0.0
 11
-133.036758
 21
147.186258
 31
0.0
 11
-131.128998
 21
137.442243
 31
0.0
 11
-130.360608
 21
128.489490
 31
0.0
  0
SPLINE
  5
2ea
100
AcDbEntity
  8
Layer_1
 62
3
100
AcDbSpline
 70
0
 71
3
 72
10
 73
6
 74
4
 40
0.000000
 40
0.000000
 40
0.000000
 40
0.000000
 40
4.672075
 40
8.859216
 40
14.070994
 40
14.070994
 40
14.070994
 40
14.070994
 10
-130.360608
 20
128.489490
 30
0.0
 10
-130.790119
 20
126.995731
 30
0.0
 10
-131.604561
 20
124.163256
 30
0.0
 10
-132.521422
 20
119.504546
 30
0.0
 10
-134.309658
 20
116.884833
 30
0.0
 10
-135.301250
 20
115.432180
 30
0.0
 11
-130.360608
 21
128.489490
 31
0.0
 11
-131.583178
 21
123.980210
 31
0.0
 11
-132.688011
 21
119.941460
 31
0.0
 11
-135.301250
 21
115.432180
 31
0.0
  0
SPLINE
  5
2eb
100
AcDbEntity
  8
Layer_1
 62
3
100
AcDbSpline
 70
0
 71
3
 72
10
 73
6
 74
4
 40
0.000000
 40
0.000000
 40
0.000000
 40
0.000000
 40
15.574861
 40
26.024436
 40
35.782339
 40
35.782339
 40
35.782339
 40
35.782339
 10
-135.301250
 20
115.432180
 30
0.0
 10
-130.186034
 20
113.923096
 30
0.0
 10
-121.638887
 20
111.401528
 30
0.0
 10
-109.750756
 20
115.913039
 30
0.0
 10
-105.443587
 20
121.181349
 30
0.0
 10
-103.363717
 20
123.725340
 30
0.0
 11
-135.301250
 21
115.432180
 31
0.0
 11
-119.920117
 21
112.983293
 31
0.0
 11
-110.164462
 21
116.727730
 31
0.0
 11
-103.363717
 21
123.725340
 31
0.0
  0
SPLINE
  5
2ec
100
AcDbEntity
  8
Layer_1
 62
3
100
AcDbSpline
 70
0
 71
3
 72
10
 73
6
 74
4
 40
0.000000
 40
0.000000
 40
0.000000
 40
0.000000
 40
19.673245
 40
35.516822
 40
51.698330
 40
51.698330
 40
51.698330
 40
51.698330
 10
-103.363717
 20
123.725340
 30
0.0
 10
-101.801099
 20
130.303423
 30
0.0
 10
-98.980048
 20
142.179074
 30
0.0
 10
-108.243925
 20
158.753467
 30
0.0
 10
-118.365067
 20
162.795743
 30
0.0
 10
-123.479037
 20
164.838209
 30
0.0
 11
-103.363717
 21
123.725340
 31
0.0
 11
-101.494112
 21
143.309547
 31
0.0
 11
-109.256004
 21
157.121569
 31
0.0
 11
-123.479037
 21
164.838209
 31
0.0
  0
SPLINE
  5
2ed
100
AcDbEntity
  8
Layer_1
 62
3
100
AcDbSpline
 70
0
 71
3
 72
10
 73
6
 74
4
 40
0.000000
 40
0.000000
 40
0.000000
 40
0.000000
 40
8.804506
 40
18.428951
 40
27.420941
 40
27.420941
 40
27.420941
 40
27.420941
 10
-123.479037
 20
164.838209
 30
0.0
 10
-126.470436
 20
164.636572
 30
0.0
 10
-132.731814
 20
164.214521
 30
0.0
 10
-140.215640
 20
158.426944
 30
0.0
 10
-146.063339
 20
156.325112
 30
0.0
 10
-148.887856
 20
155.309899
 30
0.0
 11
-123.479037
 21
164.838209
 31
0.0
 11
-132.172104
 21
163.441814
 31
0.0
 11
-140.593206
 21
158.781882
 31
0.0
 11
-148.887856
 21
155.309899
 31
0.0
  0
SPLINE
  5
2ee
100
AcDbEntity
  8
Layer_1
 62
3
100
AcDbSpline
 70
0
 71
3
 72
10
 73
6
 74
4
 40
0.000000
 40
0.000000
 40
0.000000
 40
0.000000
 40
7.245526
 40
13.429524
 40
19.140417
 40
19.140417
 40
19.140417
 40
19.140417
 10
-148.887856
 20
155.309899
 30
0.0
 10
-151.528313
 20
156.354617
 30
0.0
 10
-156.422379
 20
158.290995
 30
0.0
 10
-153.861492
 20
165.780978
 30
0.0
 10
-151.097253
 20
168.482008
 30
0.0
 10
-149.770106
 20
169.778808
 30
0.0
 11
-148.887856
 21
155.309899
 31
0.0
 11
-154.861622
 21
159.410114
 31
0.0
 11
-153.481215
 21
165.438075
 31
0.0
 11
-149.770106
 21
169.778808
 31
0.0
  0
SPLINE
  5
2ef
100
AcDbEntity
  8
Layer_1
 62
3
100
AcDbSpline
 70
0
 71
3
 72
10
 73
6
 74
4
 40
0.000000
 40
0.000000
 40
0.000000
 40
0.000000
 40
3.997048
 40
6.933797
 40
10.755125
 40
10.755125
 40
10.755125
 40
10.755125
 10
-149.770106
 20
169.778808
 30
0.0
 10
-150.030028
 20
168.295129
 30
0.0
 10
-150.480921
 20
165.721348
 30
0.0
 10
-146.608796
 20
163.871500
 30
0.0
 10
-144.457782
 20
164.714460
 30
0.0
 10
-143.241499
 20
165.191109
 30
0.0
 11
-149.770106
 21
169.778808
 31
0.0
 11
-149.570488
 21
165.786748
 31
0.0
 11
-146.980533
 21
164.402326
 31
0.0
 11
-143.241499
 21
165.191109
 31
0.0
  0
SPLINE
  5
2f0
100
AcDbEntity
  8
Layer_1
 62
3
100
AcDbSpline
 70
0
 71
3
 72
10
 73
6
 74
4
 40
0.000000
 40
0.000000
 40
0.000000
 40
0.000000
 40
26.441643
 40
43.059694
 40
55.574915
 40
55.574915
 40
55.574915
 40
55.574915
 10
-143.241499
 20
165.191109
 30
0.0
 10
-134.501237
 20
167.156889
 30
0.0
 10
-120.267892
 20
170.358123
 30
0.0
 10
-101.603594
 20
163.436482
 30
0.0
 10
-96.046299
 20
155.283359
 30
0.0
 10
-93.658968
 20
151.780899
 30
0.0
 11
-143.241499
 21
165.191109
 31
0.0
 11
-116.934799
 21
167.859067
 31
0.0
 11
-101.600997
 21
161.453280
 31
0.0
 11
-93.658968
 21
151.780899
 31
0.0
  0
SPLINE
  5
2f1
100
AcDbEntity
  8
Layer_1
 62
3
100
AcDbSpline
 70
0
 71
3
 72
10
 73
6
 74
4
 40
0.000000
 40
0.000000
 40
0.000000
 40
0.000000
 40
23.999933
 40
40.179569
 40
48.439840
 40
48.439840
 40
48.439840
 40
48.439840
 10
-93.658968
 20
151.780899
 30
0.0
 10
-91.531031
 20
143.644055
 30
0.0
 10
-87.968538
 20
130.021730
 30
0.0
 10
-98.142957
 20
115.297830
 30
0.0
 10
-105.473722
 20
111.705669
 30
0.0
 10
-107.951396
 20
110.491581
 30
0.0
 11
-93.658968
 21
151.780899
 31
0.0
 11
-91.557285
 21
127.873166
 31
0.0
 11
-100.769384
 21
114.572118
 31
0.0
 11
-107.951396
 21
110.491581
 31
0.0
  0
SPLINE
  5
2f2
100
AcDbEntity
  8
Layer_1
 62
3
100
AcDbSpline
 70
0
 71
3
 72
10
 73
6
 74
4
 40
0.000000
 40
0.000000
 40
0.000000
 40
0.000000
 40
9.688231
 40
20.726303
 40
32.499042
 40
32.499042
 40
32.499042
 40
32.499042
 10
-107.951396
 20
110.491581
 30
0.0
 10
-111.093839
 20
109.780913
 30
0.0
 10
-117.816554
 20
108.260563
 30
0.0
 10
-128.941711
 20
107.853634
 30
0.0
 10
-135.929528
 20
111.106576
 30
0.0
 10
-139.535965
 20
112.785430
 30
0.0
 11
-107.951396
 21
110.491581
 31
0.0
 11
-117.460085
 21
108.635066
 31
0.0
 11
-128.498013
 21
108.691408
 31
0.0
 11
-139.535965
 21
112.785430
 31
0.0
  0
SPLINE
  5
2f3
100
AcDbEntity
  8
Layer_1
 62
3
100
AcDbSpline
 70
0
 71
3
 72
10
 73
6
 74
4
 40
0.000000
 40
0.000000
 40
0.000000
 40
0.000000
 40
3.860755
 40
7.646524
 40
12.438034
 40
12.438034
 40
12.438034
 40
12.438034
 10
-139.535965
 20
112.785430
 30
0.0
 10
-140.438412
 20
111.869431
 30
0.0
 10
-142.225778
 20
110.055222
 30
0.0
 10
-146.242509
 20
108.240933
 30
0.0
 10
-149.071822
 20
109.118883
 30
0.0
 10
-150.652356
 20
109.609331
 30
0.0
 11
-139.535965
 21
112.785430
 31
0.0
 11
-142.417165
 21
110.215584
 31
0.0
 11
-145.929282
 21
108.802402
 31
0.0
 11
-150.652356
 21
109.609331
 31
0.0
  0
SPLINE
  5
2f4
100
AcDbEntity
  8
Layer_1
 62
3
100
AcDbSpline
 70
0
 71
3
 72
10
 73
6
 74
4
 40
0.000000
 40
0.000000
 40
0.000000
 40
0.000000
 40
5.036724
 40
9.180767
 40
12.596002
 40
12.596002
 40
12.596002
 40
12.596002
 10
-150.652356
 20
109.609331
 30
0.0
 10
-149.362069
 20
110.659397
 30
0.0
 10
-147.010177
 20
112.573421
 30
0.0
 10
-143.861759
 20
115.623035
 30
0.0
 10
-143.434449
 20
118.165438
 30
0.0
 10
-143.241393
 20
119.314080
 30
0.0
 11
-150.652356
 21
109.609331
 31
0.0
 11
-146.798688
 21
112.852450
 31
0.0
 11
-144.119014
 21
116.013533
 31
0.0
 11
-143.241393
 21
119.314080
 31
0.0
  0
SPLINE
  5
2f5
100
AcDbEntity
  8
Layer_1
 62
3
100
AcDbSpline
 70
0
 71
3
 72
10
 73
6
 74
4
 40
0.000000
 40
0.000000
 40
0.000000
 40
0.000000
 40
10.621999
 40
20.286962
 40
30.745407
 40
30.745407
 40
30.745407
 40
30.745407
 10
-143.241393
 20
119.314080
 30
0.0
 10
-143.003975
 20
122.882379
 30
0.0
 10
-142.550530
 20
129.697474
 30
0.0
 10
-146.065693
 20
139.567056
 30
0.0
 10
-145.600652
 20
146.326804
 30
0.0
 10
-145.358963
 20
149.839949
 30
0.0
 11
-143.241393
 21
119.314080
 31
0.0
 11
-143.289307
 21
129.935971
 31
0.0
 11
-145.336982
 21
139.381527
 31
0.0
 11
-145.358963
 21
149.839949
 31
0.0
  0
LWPOLYLINE
  5
2f6
100
AcDbEntity
  8
Layer_1
 62
3
100
AcDbPolyline
 90
2
 70
1
 10
-221.200679
 20
167.379101
 30
0.0
 10
-221.200679
 20
167.379101
 30
0.0
  0
LWPOLYLINE
  5
2f7
100
AcDbEntity
  8
Layer_1
 62
3
100
AcDbPolyline
 90
2
 70
1
 10
-133.536750
 20
159.544709
 30
0.0
 10
-133.536750
 20
159.544709
 30
0.0
  0
LWPOLYLINE
  5
2f8
100
AcDbEntity
  8
Layer_1
 62
3
100
AcDbPolyline
 90
2
 70
0
 10
-280.707833
 20
211.873783
 30
0.0
 10
-288.819045
 20
183.484541
 30
0.0
  0
LWPOLYLINE
  5
2f9
100
AcDbEntity
  8
Layer_1
 62
3
100
AcDbPolyline
 90
2
 70
0
 10
-279.355964
 20
211.873783
 30
0.0
 10
-287.467176
 20
183.484541
 30
0.0
  0
LWPOLYLINE
  5
2fa
100
AcDbEntity
  8
Layer_1
 62
3
100
AcDbPolyline
 90
6
 70
0
 10
-288.819045
 20
211.873783
 30
0.0
 10
-292.874651
 20
203.762571
 30
0.0
 10
-290.170914
 20
211.873783
 30
0.0
 10
-269.892884
 20
211.873783
 30
0.0
 10
-271.244752
 20
203.762571
 30
0.0
 10
-271.244752
 20
211.873783
 30
0.0
  0
LWPOLYLINE
  5
2fb
100
AcDbEntity
  8
Layer_1
 62
3
100
AcDbPolyline
 90
2
 70
0
 10
-292.874651
 20
183.484541
 30
0.0
 10
-283.411570
 20
183.484541
 30
0.0
  0
LWPOLYLINE
  5
2fc
100
AcDbEntity
  8
Layer_1
 62
3
100
AcDbPolyline
 90
8
 70
0
 10
-268.541015
 20
197.003228
 30
0.0
 10
-267.189146
 20
199.706965
 30
0.0
 10
-264.485409
 20
202.410702
 30
0.0
 10
-260.429803
 20
202.410702
 30
0.0
 10
-259.077934
 20
201.058834
 30
0.0
 10
-259.077934
 20
198.355096
 30
0.0
 10
-260.429803
 20
192.947621
 30
0.0
 10
-263.133540
 20
183.484541
 30
0.0
  0
LWPOLYLINE
  5
2fd
100
AcDbEntity
  8
Layer_1
 62
3
100
AcDbPolyline
 90
5
 70
0
 10
-261.781672
 20
202.410702
 30
0.0
 10
-260.429803
 20
201.058834
 30
0.0
 10
-260.429803
 20
198.355096
 30
0.0
 10
-261.781672
 20
192.947621
 30
0.0
 10
-264.485409
 20
183.484541
 30
0.0
  0
LWPOLYLINE
  5
2fe
100
AcDbEntity
  8
Layer_1
 62
3
100
AcDbPolyline
 90
10
 70
0
 10
-260.429803
 20
192.947621
 30
0.0
 10
-257.726066
 20
198.355096
 30
0.0
 10
-255.022328
 20
201.058834
 30
0.0
 10
-252.318591
 20
202.410702
 30
0.0
 10
-249.614854
 20
202.410702
 30
0.0
 10
-248.262985
 20
201.058834
 30
0.0
 10
-248.262985
 20
199.706965
 30
0.0
 10
-249.614854
 20
198.355096
 30
0.0
 10
-250.966722
 20
199.706965
 30
0.0
 10
-249.614854
 20
201.058834
 30
0.0
  0
LWPOLYLINE
  5
2ff
100
AcDbEntity
  8
Layer_1
 62
3
100
AcDbPolyline
 90
8
 70
0
 10
-225.281217
 20
202.410702
 30
0.0
 10
-227.984955
 20
192.947621
 30
0.0
 10
-229.336823
 20
187.540147
 30
0.0
 10
-229.336823
 20
184.836409
 30
0.0
 10
-227.984955
 20
183.484541
 30
0.0
 10
-223.929349
 20
183.484541
 30
0.0
 10
-221.225611
 20
186.188278
 30
0.0
 10
-219.873743
 20
188.892015
 30
0.0
  0
LWPOLYLINE
  5
300
100
AcDbEntity
  8
Layer_1
 62
3
100
AcDbPolyline
 90
5
 70
0
 10
-223.929349
 20
202.410702
 30
0.0
 10
-226.633086
 20
192.947621
 30
0.0
 10
-227.984955
 20
187.540147
 30
0.0
 10
-227.984955
 20
184.836409
 30
0.0
 10
-226.633086
 20
183.484541
 30
0.0
  0
LWPOLYLINE
  5
301
100
AcDbEntity
  8
Layer_1
 62
3
100
AcDbPolyline
 90
16
 70
0
 10
-227.984955
 20
192.947621
 30
0.0
 10
-227.984955
 20
197.003228
 30
0.0
 10
-229.336823
 20
201.058834
 30
0.0
 10
-232.040561
 20
202.410702
 30
0.0
 10
-234.744298
 20
202.410702
 30
0.0
 10
-238.799904
 20
201.058834
 30
0.0
 10
-241.503641
 20
197.003228
 30
0.0
 10
-242.855510
 20
192.947621
 30
0.0
 10
-242.855510
 20
188.892015
 30
0.0
 10
-241.503641
 20
186.188278
 30
0.0
 10
-240.151773
 20
184.836409
 30
0.0
 10
-237.448035
 20
183.484541
 30
0.0
 10
-234.744298
 20
183.484541
 30
0.0
 10
-232.040561
 20
184.836409
 30
0.0
 10
-229.336823
 20
188.892015
 30
0.0
 10
-227.984955
 20
192.947621
 30
0.0
  0
LWPOLYLINE
  5
302
100
AcDbEntity
  8
Layer_1
 62
3
100
AcDbPolyline
 90
6
 70
0
 10
-234.744298
 20
202.410702
 30
0.0
 10
-237.448035
 20
201.058834
 30
0.0
 10
-240.151773
 20
197.003228
 30
0.0
 10
-241.503641
 20
192.947621
 30
0.0
 10
-241.503641
 20
187.540147
 30
0.0
 10
-240.151773
 20
184.836409
 30
0.0
  0
LWPOLYLINE
  5
303
100
AcDbEntity
  8
Layer_1
 62
3
100
AcDbPolyline
 90
9
 70
0
 10
-217.170005
 20
197.003228
 30
0.0
 10
-215.818137
 20
199.706965
 30
0.0
 10
-213.114399
 20
202.410702
 30
0.0
 10
-209.058793
 20
202.410702
 30
0.0
 10
-207.706925
 20
201.058834
 30
0.0
 10
-207.706925
 20
197.003228
 30
0.0
 10
-210.410662
 20
188.892015
 30
0.0
 10
-210.410662
 20
186.188278
 30
0.0
 10
-207.706925
 20
183.484541
 30
0.0
  0
LWPOLYLINE
  5
304
100
AcDbEntity
  8
Layer_1
 62
3
100
AcDbPolyline
 90
15
 70
0
 10
-210.410662
 20
202.410702
 30
0.0
 10
-209.058793
 20
201.058834
 30
0.0
 10
-209.058793
 20
197.003228
 30
0.0
 10
-211.762531
 20
188.892015
 30
0.0
 10
-211.762531
 20
186.188278
 30
0.0
 10
-210.410662
 20
184.836409
 30
0.0
 10
-207.706925
 20
183.484541
 30
0.0
 10
-206.355056
 20
183.484541
 30
0.0
 10
-202.299450
 20
184.836409
 30
0.0
 10
-199.595712
 20
187.540147
 30
0.0
 10
-196.891975
 20
191.595753
 30
0.0
 10
-195.540106
 20
197.003228
 30
0.0
 10
-195.540106
 20
202.410702
 30
0.0
 10
-196.891975
 20
202.410702
 30
0.0
 10
-195.540106
 20
199.706965
 30
0.0
  0
LWPOLYLINE
  5
305
100
AcDbEntity
  8
Layer_1
 62
3
100
AcDbPolyline
 90
18
 70
0
 10
-186.077026
 20
190.243884
 30
0.0
 10
-180.669551
 20
191.595753
 30
0.0
 10
-176.613945
 20
192.947621
 30
0.0
 10
-172.558339
 20
195.651359
 30
0.0
 10
-171.206470
 20
198.355096
 30
0.0
 10
-172.558339
 20
201.058834
 30
0.0
 10
-175.262076
 20
202.410702
 30
0.0
 10
-179.317682
 20
202.410702
 30
0.0
 10
-183.373288
 20
201.058834
 30
0.0
 10
-186.077026
 20
197.003228
 30
0.0
 10
-187.428894
 20
192.947621
 30
0.0
 10
-187.428894
 20
188.892015
 30
0.0
 10
-186.077026
 20
186.188278
 30
0.0
 10
-184.725157
 20
184.836409
 30
0.0
 10
-182.021420
 20
183.484541
 30
0.0
 10
-179.317682
 20
183.484541
 30
0.0
 10
-175.262076
 20
184.836409
 30
0.0
 10
-172.558339
 20
187.540147
 30
0.0
  0
LWPOLYLINE
  5
306
100
AcDbEntity
  8
Layer_1
 62
3
100
AcDbPolyline
 90
6
 70
0
 10
-179.317682
 20
202.410702
 30
0.0
 10
-182.021420
 20
201.058834
 30
0.0
 10
-184.725157
 20
197.003228
 30
0.0
 10
-186.077026
 20
192.947621
 30
0.0
 10
-186.077026
 20
187.540147
 30
0.0
 10
-184.725157
 20
184.836409
 30
0.0
  0
LWPOLYLINE
  5
307
100
AcDbEntity
  8
Layer_1
 62
3
100
AcDbPolyline
 90
8
 70
0
 10
-156.335915
 20
211.873783
 30
0.0
 10
-161.743390
 20
192.947621
 30
0.0
 10
-163.095258
 20
187.540147
 30
0.0
 10
-163.095258
 20
184.836409
 30
0.0
 10
-161.743390
 20
183.484541
 30
0.0
 10
-157.687784
 20
183.484541
 30
0.0
 10
-154.984046
 20
186.188278
 30
0.0
 10
-153.632177
 20
188.892015
 30
0.0
  0
LWPOLYLINE
  5
308
100
AcDbEntity
  8
Layer_1
 62
3
100
AcDbPolyline
 90
5
 70
0
 10
-154.984046
 20
211.873783
 30
0.0
 10
-160.391521
 20
192.947621
 30
0.0
 10
-161.743390
 20
187.540147
 30
0.0
 10
-161.743390
 20
184.836409
 30
0.0
 10
-160.391521
 20
183.484541
 30
0.0
  0
LWPOLYLINE
  5
309
100
AcDbEntity
  8
Layer_1
 62
3
100
AcDbPolyline
 90
2
 70
0
 10
-160.391521
 20
211.873783
 30
0.0
 10
-154.984046
 20
211.873783
 30
0.0
  0
SPLINE
  5
30a
100
AcDbEntity
  8
Layer_1
 62
3
100
AcDbSpline
 70
0
 71
3
 72
10
 73
6
 74
4
 40
0.000000
 40
0.000000
 40
0.000000
 40
0.000000
 40
5.496751
 40
10.556650
 40
15.589089
 40
15.589089
 40
15.589089
 40
15.589089
 10
-145.358963
 20
149.839949
 30
0.0
 10
-144.369023
 20
151.405251
 30
0.0
 10
-142.467819
 20
154.411454
 30
0.0
 10
-138.077000
 20
157.376875
 30
0.0
 10
-135.047419
 20
158.823409
 30
0.0
 10
-133.536750
 20
159.544709
 30
0.0
 11
-145.358963
 21
149.839949
 31
0.0
 11
-142.098456
 21
154.265259
 31
0.0
 11
-138.022267
 21
157.263135
 31
0.0
 11
-133.536750
 21
159.544709
 31
0.0
  0
LWPOLYLINE
  5
30b
100
AcDbEntity
  8
Layer_1
 62
5
100
AcDbPolyline
 90
4
 70
1
 10
-484.906825
 20
280.611129
 30
0.0
 10
-484.906825
 20
-243.438911
 30
0.0
 10
24.443175
 20
-243.438911
 30
0.0
 10
-0.481825
 20
-218.513871
 30
0.0
  0
SPLINE
  5
30c
100
AcDbEntity
  8
Layer_1
 62
5
100
AcDbSpline
 70
0
 71
3
 72
13
 73
9
 74
7
 40
0.000000
 40
0.000000
 40
0.000000
 40
0.000000
 40
5.080209
 40
9.999101
 40
15.079311
 40
20.159530
 40
25.078442
 40
30.158661
 40
30.158661
 40
30.158661
 40
30.158661
 10
-0.481825
 20
-218.513871
 30
0.0
 10
-1.505963
 20
-217.115035
 30
0.0
 10
-3.521717
 20
-214.361783
 30
0.0
 10
-3.416838
 20
-209.003111
 30
0.0
 10
-0.806780
 20
-204.463951
 30
0.0
 10
3.732388
 20
-201.853894
 30
0.0
 10
9.091075
 20
-201.749014
 30
0.0
 10
11.844336
 20
-203.764772
 30
0.0
 10
13.243175
 20
-204.788911
 30
0.0
 11
-0.481825
 21
-218.513871
 31
0.0
 11
-3.015956
 21
-214.110837
 31
0.0
 11
-3.015956
 21
-209.191945
 31
0.0
 11
-0.481825
 21
-204.788911
 31
0.0
 11
3.921219
 21
-202.254777
 31
0.0
 11
8.840131
 21
-202.254777
 31
0.0
 11
13.243175
 21
-204.788911
 31
0.0
  0
LWPOLYLINE
  5
30d
100
AcDbEntity
  8
Layer_1
 62
5
100
AcDbPolyline
 90
4
 70
1
 10
13.243175
 20
-204.788911
 30
0.0
 10
39.143175
 20
-230.688911
 30
0.0
 10
39.143175
 20
267.761129
 30
0.0
 10
13.643175
 20
242.261129
 30
0.0
  0
SPLINE
  5
30e
100
AcDbEntity
  8
Layer_1
 62
5
100
AcDbSpline
 70
0
 71
3
 72
13
 73
9
 74
7
 40
0.000000
 40
0.000000
 40
0.000000
 40
0.000000
 40
5.080219
 40
9.999132
 40
15.079351
 40
20.153953
 40
25.060827
 40
30.135429
 40
30.135429
 40
30.135429
 40
30.135429
 10
13.643175
 20
242.261129
 30
0.0
 10
12.244356
 20
241.237001
 30
0.0
 10
9.491134
 20
239.221263
 30
0.0
 10
4.132157
 20
239.325994
 30
0.0
 10
-0.404192
 20
241.935658
 30
0.0
 10
-3.016467
 20
246.466306
 30
0.0
 10
-3.120685
 20
251.817724
 30
0.0
 10
-1.106063
 20
254.564608
 30
0.0
 10
-0.081825
 20
255.961129
 30
0.0
 11
13.643175
 21
242.261129
 31
0.0
 11
9.240131
 21
239.726996
 31
0.0
 11
4.321219
 21
239.726996
 31
0.0
 11
-0.081825
 21
242.261129
 31
0.0
 11
-2.615956
 21
246.657692
 31
0.0
 11
-2.615956
 21
251.564566
 31
0.0
 11
-0.081825
 21
255.961129
 31
0.0
  0
LWPOLYLINE
  5
30f
100
AcDbEntity
  8
Layer_1
 62
5
100
AcDbPolyline
 90
4
 70
1
 10
-0.081825
 20
255.961129
 30
0.0
 10
24.568175
 20
280.611129
 30
0.0
 10
-484.906825
 20
280.611129
 30
0.0
 10
-484.906825
 20
280.611129
 30
0.0
  0
SPLINE
  5
310
100
AcDbEntity
  8
Layer_1
 62
5
100
AcDbSpline
 70
0
 71
3
 72
19
 73
15
 74
13
 40
0.000000
 40
0.000000
 40
0.000000
 40
0.000000
 40
2.924259
 40
5.761784
 40
8.686041
 40
11.610298
 40
14.447824
 40
17.372083
 40
20.296340
 40
23.133865
 40
26.058123
 40
28.982380
 40
31.819904
 40
34.744161
 40
34.744161
 40
34.744161
 40
34.744161
 10
-437.548417
 20
238.868846
 30
0.0
 10
-437.702135
 20
237.882924
 30
0.0
 10
-438.005011
 20
235.940321
 30
0.0
 10
-440.231606
 20
233.801674
 30
0.0
 10
-443.136104
 20
233.009242
 30
0.0
 10
-446.071097
 20
233.801674
 30
0.0
 10
-448.208020
 20
235.940321
 30
0.0
 10
-449.001039
 20
238.868845
 30
0.0
 10
-448.208019
 20
241.797370
 30
0.0
 10
-446.071096
 20
243.936015
 30
0.0
 10
-443.136104
 20
244.728447
 30
0.0
 10
-440.231607
 20
243.936015
 30
0.0
 10
-438.005011
 20
241.797369
 30
0.0
 10
-437.702135
 20
239.854768
 30
0.0
 10
-437.548417
 20
238.868846
 30
0.0
 11
-437.548417
 21
238.868846
 31
0.0
 11
-438.312001
 21
236.046041
 31
0.0
 11
-440.318434
 21
234.039607
 31
0.0
 11
-443.141237
 21
233.276023
 31
0.0
 11
-445.964041
 21
234.039607
 31
0.0
 11
-447.970475
 21
236.046041
 31
0.0
 11
-448.734060
 21
238.868846
 31
0.0
 11
-447.970475
 21
241.691649
 31
0.0
 11
-445.964041
 21
243.698082
 31
0.0
 11
-443.141237
 21
244.461666
 31
0.0
 11
-440.318434
 21
243.698082
 31
0.0
 11
-438.312001
 21
241.691649
 31
0.0
 11
-437.548417
 21
238.868846
 31
0.0
  0
LWPOLYLINE
  5
311
100
AcDbEntity
  8
Layer_1
 62
5
100
AcDbPolyline
 90
2
 70
1
 10
-437.548417
 20
238.868846
 30
0.0
 10
-437.548417
 20
238.868846
 30
0.0
  0
LWPOLYLINE
  5
312
100
AcDbEntity
  8
Layer_1
 62
5
100
AcDbPolyline
 90
2
 70
1
 10
-436.728353
 20
-201.789683
 30
0.0
 10
-436.728353
 20
-201.789683
 30
0.0
  0
SPLINE
  5
313
100
AcDbEntity
  8
Layer_1
 62
5
100
AcDbSpline
 70
0
 71
3
 72
19
 73
15
 74
13
 40
0.000000
 40
0.000000
 40
0.000000
 40
0.000000
 40
2.924259
 40
5.761784
 40
8.686041
 40
11.610298
 40
14.447824
 40
17.372083
 40
20.296340
 40
23.133865
 40
26.058123
 40
28.982380
 40
31.819904
 40
34.744161
 40
34.744161
 40
34.744161
 40
34.744161
 10
-436.728353
 20
-201.789683
 30
0.0
 10
-436.882071
 20
-200.803761
 30
0.0
 10
-437.184947
 20
-198.861158
 30
0.0
 10
-439.411542
 20
-196.722511
 30
0.0
 10
-442.316040
 20
-195.930079
 30
0.0
 10
-445.251033
 20
-196.722512
 30
0.0
 10
-447.387956
 20
-198.861158
 30
0.0
 10
-448.180975
 20
-201.789683
 30
0.0
 10
-447.387955
 20
-204.718207
 30
0.0
 10
-445.251032
 20
-206.856852
 30
0.0
 10
-442.316040
 20
-207.649285
 30
0.0
 10
-439.411543
 20
-206.856852
 30
0.0
 10
-437.184947
 20
-204.718207
 30
0.0
 10
-436.882071
 20
-202.775605
 30
0.0
 10
-436.728353
 20
-201.789683
 30
0.0
 11
-436.728353
 21
-201.789683
 31
0.0
 11
-437.491937
 21
-198.966878
 31
0.0
 11
-439.498370
 21
-196.960445
 31
0.0
 11
-442.321173
 21
-196.196861
 31
0.0
 11
-445.143977
 21
-196.960445
 31
0.0
 11
-447.150411
 21
-198.966878
 31
0.0
 11
-447.913996
 21
-201.789683
 31
0.0
 11
-447.150411
 21
-204.612487
 31
0.0
 11
-445.143977
 21
-206.618919
 31
0.0
 11
-442.321173
 21
-207.382503
 31
0.0
 11
-439.498370
 21
-206.618919
 31
0.0
 11
-437.491937
 21
-204.612487
 31
0.0
 11
-436.728353
 21
-201.789683
 31
0.0
  0
LWPOLYLINE
  5
314
100
AcDbEntity
  8
Layer_1
 62
5
100
AcDbPolyline
 90
4
 70
1
 10
50.692362
 20
279.786387
 30
0.0
 10
50.692362
 20
-244.263653
 30
0.0
 10
560.042362
 20
-244.263653
 30
0.0
 10
535.117362
 20
-219.338613
 30
0.0
  0
SPLINE
  5
315
100
AcDbEntity
  8
Layer_1
 62
5
100
AcDbSpline
 70
0
 71
3
 72
13
 73
9
 74
7
 40
0.000000
 40
0.000000
 40
0.000000
 40
0.000000
 40
5.080211
 40
9.999103
 40
15.079313
 40
20.159530
 40
25.078443
 40
30.158664
 40
30.158664
 40
30.158664
 40
30.158664
 10
535.117362
 20
-219.338613
 30
0.0
 10
534.093223
 20
-217.939778
 30
0.0
 10
532.077467
 20
-215.186526
 30
0.0
 10
532.182346
 20
-209.827852
 30
0.0
 10
534.792407
 20
-205.288695
 30
0.0
 10
539.331573
 20
-202.678635
 30
0.0
 10
544.690259
 20
-202.573757
 30
0.0
 10
547.443522
 20
-204.589515
 30
0.0
 10
548.842362
 20
-205.613653
 30
0.0
 11
535.117362
 21
-219.338613
 31
0.0
 11
532.583228
 21
-214.935579
 31
0.0
 11
532.583228
 21
-210.016687
 31
0.0
 11
535.117362
 21
-205.613653
 31
0.0
 11
539.520402
 21
-203.079520
 31
0.0
 11
544.439315
 21
-203.079520
 31
0.0
 11
548.842362
 21
-205.613653
 31
0.0
  0
LWPOLYLINE
  5
316
100
AcDbEntity
  8
Layer_1
 62
5
100
AcDbPolyline
 90
4
 70
1
 10
548.842362
 20
-205.613653
 30
0.0
 10
574.742362
 20
-231.513653
 30
0.0
 10
574.742362
 20
266.936387
 30
0.0
 10
549.242362
 20
241.436387
 30
0.0
  0
SPLINE
  5
317
100
AcDbEntity
  8
Layer_1
 62
5
100
AcDbSpline
 70
0
 71
3
 72
13
 73
9
 74
7
 40
0.000000
 40
0.000000
 40
0.000000
 40
0.000000
 40
5.080221
 40
9.999134
 40
15.079351
 40
20.153954
 40
25.060828
 40
30.135431
 40
30.135431
 40
30.135431
 40
30.135431
 10
549.242362
 20
241.436387
 30
0.0
 10
547.843542
 20
240.412259
 30
0.0
 10
545.090319
 20
238.396521
 30
0.0
 10
539.731342
 20
238.501251
 30
0.0
 10
535.194995
 20
241.110917
 30
0.0
 10
532.582716
 20
245.641563
 30
0.0
 10
532.478499
 20
250.992983
 30
0.0
 10
534.493123
 20
253.739866
 30
0.0
 10
535.517362
 20
255.136387
 30
0.0
 11
549.242362
 21
241.436387
 31
0.0
 11
544.839315
 21
238.902254
 31
0.0
 11
539.920402
 21
238.902254
 31
0.0
 11
535.517362
 21
241.436387
 31
0.0
 11
532.983228
 21
245.832950
 31
0.0
 11
532.983228
 21
250.739824
 31
0.0
 11
535.517362
 21
255.136387
 31
0.0
  0
LWPOLYLINE
  5
318
100
AcDbEntity
  8
Layer_1
 62
5
100
AcDbPolyline
 90
4
 70
1
 10
535.517362
 20
255.136387
 30
0.0
 10
560.167362
 20
279.786387
 30
0.0
 10
50.692362
 20
279.786387
 30
0.0
 10
50.692362
 20
279.786387
 30
0.0
  0
SPLINE
  5
319
100
AcDbEntity
  8
Layer_1
 62
5
100
AcDbSpline
 70
0
 71
3
 72
19
 73
15
 74
13
 40
0.000000
 40
0.000000
 40
0.000000
 40
0.000000
 40
2.924259
 40
5.761784
 40
8.686041
 40
11.610298
 40
14.447824
 40
17.372083
 40
20.296340
 40
23.133865
 40
26.058123
 40
28.982380
 40
31.819904
 40
34.744161
 40
34.744161
 40
34.744161
 40
34.744161
 10
98.050769
 20
238.044104
 30
0.0
 10
97.897052
 20
237.058181
 30
0.0
 10
97.594176
 20
235.115579
 30
0.0
 10
95.367580
 20
232.976932
 30
0.0
 10
92.463082
 20
232.184499
 30
0.0
 10
89.528090
 20
232.976932
 30
0.0
 10
87.391167
 20
235.115578
 30
0.0
 10
86.598148
 20
238.044103
 30
0.0
 10
87.391167
 20
240.972627
 30
0.0
 10
89.528090
 20
243.111272
 30
0.0
 10
92.463082
 20
243.903705
 30
0.0
 10
95.367580
 20
243.111273
 30
0.0
 10
97.594176
 20
240.972627
 30
0.0
 10
97.897052
 20
239.030026
 30
0.0
 10
98.050769
 20
238.044104
 30
0.0
 11
98.050769
 21
238.044104
 31
0.0
 11
97.287185
 21
235.221298
 31
0.0
 11
95.280753
 21
233.214865
 31
0.0
 11
92.457950
 21
232.451281
 31
0.0
 11
89.635146
 21
233.214865
 31
0.0
 11
87.628712
 21
235.221298
 31
0.0
 11
86.865127
 21
238.044104
 31
0.0
 11
87.628712
 21
240.866907
 31
0.0
 11
89.635146
 21
242.873339
 31
0.0
 11
92.457950
 21
243.636923
 31
0.0
 11
95.280753
 21
242.873339
 31
0.0
 11
97.287185
 21
240.866907
 31
0.0
 11
98.050769
 21
238.044104
 31
0.0
  0
LWPOLYLINE
  5
31a
100
AcDbEntity
  8
Layer_1
 62
5
100
AcDbPolyline
 90
2
 70
1
 10
98.050769
 20
238.044104
 30
0.0
 10
98.050769
 20
238.044104
 30
0.0
  0
SPLINE
  5
31b
100
AcDbEntity
  8
Layer_1
 62
5
100
AcDbSpline
 70
0
 71
3
 72
19
 73
15
 74
13
 40
0.000000
 40
0.000000
 40
0.000000
 40
0.000000
 40
2.924259
 40
5.761784
 40
8.686041
 40
11.610298
 40
14.447824
 40
17.372083
 40
20.296340
 40
23.133865
 40
26.058123
 40
28.982380
 40
31.819904
 40
34.744161
 40
34.744161
 40
34.744161
 40
34.744161
 10
98.870833
 20
-202.614426
 30
0.0
 10
98.717116
 20
-201.628503
 30
0.0
 10
98.414240
 20
-199.685901
 30
0.0
 10
96.187644
 20
-197.547254
 30
0.0
 10
93.283146
 20
-196.754821
 30
0.0
 10
90.348154
 20
-197.547254
 30
0.0
 10
88.211231
 20
-199.685900
 30
0.0
 10
87.418212
 20
-202.614425
 30
0.0
 10
88.211231
 20
-205.542950
 30
0.0
 10
90.348154
 20
-207.681595
 30
0.0
 10
93.283146
 20
-208.474027
 30
0.0
 10
96.187644
 20
-207.681595
 30
0.0
 10
98.414240
 20
-205.542949
 30
0.0
 10
98.717116
 20
-203.600348
 30
0.0
 10
98.870833
 20
-202.614426
 30
0.0
 11
98.870833
 21
-202.614426
 31
0.0
 11
98.107249
 21
-199.791620
 31
0.0
 11
96.100817
 21
-197.785187
 31
0.0
 11
93.278014
 21
-197.021603
 31
0.0
 11
90.455210
 21
-197.785187
 31
0.0
 11
88.448776
 21
-199.791620
 31
0.0
 11
87.685191
 21
-202.614426
 31
0.0
 11
88.448776
 21
-205.437229
 31
0.0
 11
90.455210
 21
-207.443662
 31
0.0
 11
93.278014
 21
-208.207245
 31
0.0
 11
96.100817
 21
-207.443662
 31
0.0
 11
98.107249
 21
-205.437229
 31
0.0
 11
98.870833
 21
-202.614426
 31
0.0
  0
SPLINE
  5
31c
100
AcDbEntity
  8
Layer_1
 62
7
100
AcDbSpline
 70
0
 71
3
 72
10
 73
6
 74
4
 40
0.000000
 40
0.000000
 40
0.000000
 40
0.000000
 40
1.107020
 40
2.171032
 40
3.300604
 40
3.300604
 40
3.300604
 40
3.300604
 10
-630.534616
 20
625.337788
 30
0.0
 10
-630.562972
 20
624.967498
 30
0.0
 10
-630.618583
 20
624.241305
 30
0.0
 10
-631.123460
 20
623.225171
 30
0.0
 10
-631.667150
 20
622.730178
 30
0.0
 10
-631.947120
 20
622.475284
 30
0.0
 11
-630.534616
 21
625.337788
 31
0.0
 11
-630.691571
 21
624.241950
 31
0.0
 11
-631.162405
 21
623.287782
 31
0.0
 11
-631.947120
 21
622.475284
 31
0.0
  0
LWPOLYLINE
  5
31d
100
AcDbEntity
  8
Layer_1
 62
5
100
AcDbPolyline
 90
2
 70
1
 10
98.870833
 20
-202.614426
 30
0.0
 10
98.870833
 20
-202.614426
 30
0.0
  0
SPLINE
  5
31e
100
AcDbEntity
  8
Layer_1
 62
7
100
AcDbSpline
 70
0
 71
3
 72
13
 73
9
 74
7
 40
0.000000
 40
0.000000
 40
0.000000
 40
0.000000
 40
1.148114
 40
2.328804
 40
3.603853
 40
4.748459
 40
5.834970
 40
6.892559
 40
6.892559
 40
6.892559
 40
6.892559
 10
-631.947120
 20
622.475284
 30
0.0
 10
-632.265085
 20
622.258836
 30
0.0
 10
-632.910036
 20
621.819798
 30
0.0
 10
-634.077868
 20
621.472246
 30
0.0
 10
-635.278727
 20
621.368470
 30
0.0
 10
-636.447573
 20
621.453043
 30
0.0
 10
-637.526277
 20
621.687975
 30
0.0
 10
-638.176429
 20
621.989204
 30
0.0
 10
-638.497120
 20
622.137788
 30
0.0
 11
-631.947120
 21
622.475284
 31
0.0
 11
-632.927677
 21
621.878063
 31
0.0
 11
-634.052677
 21
621.519729
 31
0.0
 11
-635.322120
 21
621.400284
 31
0.0
 11
-636.463789
 21
621.482228
 31
0.0
 11
-637.522123
 21
621.728062
 31
0.0
 11
-638.497120
 21
622.137788
 31
0.0
  0
SPLINE
  5
31f
100
AcDbEntity
  8
Layer_1
 62
7
100
AcDbSpline
 70
0
 71
3
 72
13
 73
9
 74
7
 40
0.000000
 40
0.000000
 40
0.000000
 40
0.000000
 40
1.080879
 40
1.939109
 40
2.582433
 40
3.079785
 40
3.532575
 40
3.958698
 40
3.958698
 40
3.958698
 40
3.958698
 10
-637.734616
 20
624.512788
 30
0.0
 10
-637.391116
 20
624.403623
 30
0.0
 10
-636.774872
 20
624.207781
 30
0.0
 10
-635.936108
 20
624.011210
 30
0.0
 10
-635.270950
 20
623.932126
 30
0.0
 10
-634.739580
 20
623.974191
 30
0.0
 10
-634.288943
 20
624.083498
 30
0.0
 10
-634.033475
 20
624.229498
 30
0.0
 10
-633.909616
 20
624.300284
 30
0.0
 11
-637.734616
 21
624.512788
 31
0.0
 11
-636.699898
 21
624.200283
 31
0.0
 11
-635.862400
 21
624.012783
 31
0.0
 11
-635.222120
 21
623.950284
 31
0.0
 11
-634.726291
 21
623.989172
 31
0.0
 11
-634.288789
 21
624.105838
 31
0.0
 11
-633.909616
 21
624.300284
 31
0.0
  0
SPLINE
  5
320
100
AcDbEntity
  8
Layer_1
 62
7
100
AcDbSpline
 70
0
 71
3
 72
13
 73
9
 74
7
 40
0.000000
 40
0.000000
 40
0.000000
 40
0.000000
 40
0.429486
 40
0.819687
 40
1.220872
 40
1.676851
 40
2.119244
 40
2.604773
 40
2.604773
 40
2.604773
 40
2.604773
 10
-633.909616
 20
624.300284
 30
0.0
 10
-633.793407
 20
624.385971
 30
0.0
 10
-633.571618
 20
624.549508
 30
0.0
 10
-633.361971
 20
624.913005
 30
0.0
 10
-633.300432
 20
625.331169
 30
0.0
 10
-633.367712
 20
625.766746
 30
0.0
 10
-633.602725
 20
626.179677
 30
0.0
 10
-633.853434
 20
626.365538
 30
0.0
 10
-633.984616
 20
626.462788
 30
0.0
 11
-633.909616
 21
624.300284
 31
0.0
 11
-633.583235
 21
624.579450
 31
0.0
 11
-633.387403
 21
624.916950
 31
0.0
 11
-633.322120
 21
625.312788
 31
0.0
 11
-633.395736
 21
625.762785
 31
0.0
 11
-633.616568
 21
626.146119
 31
0.0
 11
-633.984616
 21
626.462788
 31
0.0
  0
LWPOLYLINE
  5
321
100
AcDbEntity
  8
Layer_1
 62
7
100
AcDbPolyline
 90
2
 70
1
 10
-638.497120
 20
622.137788
 30
0.0
 10
-637.734616
 20
624.512788
 30
0.0
  0
SPLINE
  5
322
100
AcDbEntity
  8
Layer_1
 62
7
100
AcDbSpline
 70
0
 71
3
 72
13
 73
9
 74
7
 40
0.000000
 40
0.000000
 40
0.000000
 40
0.000000
 40
0.465301
 40
0.953531
 40
1.484443
 40
1.781718
 40
2.023959
 40
2.212132
 40
2.212132
 40
2.212132
 40
2.212132
 10
-633.984616
 20
626.462788
 30
0.0
 10
-634.119294
 20
626.540958
 30
0.0
 10
-634.395287
 20
626.701150
 30
0.0
 10
-634.880339
 20
626.824775
 30
0.0
 10
-635.319292
 20
626.855654
 30
0.0
 10
-635.675978
 20
626.846637
 30
0.0
 10
-635.918577
 20
626.834114
 30
0.0
 10
-636.060203
 20
626.810575
 30
0.0
 10
-636.122120
 20
626.800284
 30
0.0
 11
-633.984616
 21
626.462788
 31
0.0
 11
-634.397123
 21
626.678062
 31
0.0
 11
-634.867957
 21
626.807228
 31
0.0
 11
-635.397120
 21
626.850284
 31
0.0
 11
-635.694343
 21
626.844734
 31
0.0
 11
-635.936011
 21
626.828073
 31
0.0
 11
-636.122120
 21
626.800284
 31
0.0
  0
SPLINE
  5
323
100
AcDbEntity
  8
Layer_1
 62
7
100
AcDbSpline
 70
0
 71
3
 72
13
 73
9
 74
7
 40
0.000000
 40
0.000000
 40
0.000000
 40
0.000000
 40
1.280145
 40
2.171949
 40
2.983610
 40
3.332563
 40
3.685060
 40
4.089846
 40
4.089846
 40
4.089846
 40
4.089846
 10
-636.122120
 20
628.637788
 30
0.0
 10
-635.695060
 20
628.651678
 30
0.0
 10
-634.970491
 20
628.675245
 30
0.0
 10
-634.016084
 20
629.152439
 30
0.0
 10
-633.791860
 20
629.872778
 30
0.0
 10
-633.875280
 20
630.377468
 30
0.0
 10
-634.085544
 20
630.695795
 30
0.0
 10
-634.296731
 20
630.837202
 30
0.0
 10
-634.409616
 20
630.912788
 30
0.0
 11
-636.122120
 21
628.637788
 31
0.0
 11
-634.851291
 21
628.791948
 31
0.0
 11
-634.088789
 21
629.254446
 31
0.0
 11
-633.834616
 21
630.025284
 31
0.0
 11
-633.898510
 21
630.368337
 31
0.0
 11
-634.090176
 21
630.664171
 31
0.0
 11
-634.409616
 21
630.912788
 31
0.0
  0
SPLINE
  5
324
100
AcDbEntity
  8
Layer_1
 62
7
100
AcDbSpline
 70
0
 71
3
 72
10
 73
6
 74
4
 40
0.000000
 40
0.000000
 40
0.000000
 40
0.000000
 40
0.393275
 40
0.806615
 40
1.252874
 40
1.252874
 40
1.252874
 40
1.252874
 10
-634.409616
 20
630.912788
 30
0.0
 10
-634.526201
 20
630.973450
 30
0.0
 10
-634.765320
 20
631.097868
 30
0.0
 10
-635.174675
 20
631.200057
 30
0.0
 10
-635.460981
 20
631.216663
 30
0.0
 10
-635.609616
 20
631.225284
 30
0.0
 11
-634.409616
 21
630.912788
 31
0.0
 11
-634.765179
 21
631.080836
 31
0.0
 11
-635.165179
 21
631.185001
 31
0.0
 11
-635.609616
 21
631.225284
 31
0.0
  0
LWPOLYLINE
  5
325
100
AcDbEntity
  8
Layer_1
 62
7
100
AcDbPolyline
 90
2
 70
1
 10
-636.122120
 20
626.800284
 30
0.0
 10
-636.122120
 20
628.637788
 30
0.0
  0
SPLINE
  5
326
100
AcDbEntity
  8
Layer_1
 62
7
100
AcDbSpline
 70
0
 71
3
 72
10
 73
6
 74
4
 40
0.000000
 40
0.000000
 40
0.000000
 40
0.000000
 40
0.684323
 40
1.372846
 40
2.090252
 40
2.090252
 40
2.090252
 40
2.090252
 10
-635.609616
 20
631.225284
 30
0.0
 10
-635.838035
 20
631.215217
 30
0.0
 10
-636.296274
 20
631.195022
 30
0.0
 10
-636.973709
 20
631.000343
 30
0.0
 10
-637.386490
 20
630.776837
 30
0.0
 10
-637.597120
 20
630.662788
 30
0.0
 11
-635.609616
 21
631.225284
 31
0.0
 11
-636.291565
 21
631.168331
 31
0.0
 11
-636.954067
 21
630.980833
 31
0.0
 11
-637.597120
 21
630.662788
 31
0.0
  0
SPLINE
  5
327
100
AcDbEntity
  8
Layer_1
 62
7
100
AcDbSpline
 70
0
 71
3
 72
13
 73
9
 74
7
 40
0.000000
 40
0.000000
 40
0.000000
 40
0.000000
 40
0.849860
 40
1.715253
 40
2.611341
 40
3.596581
 40
4.508359
 40
5.383008
 40
5.383008
 40
5.383008
 40
5.383008
 10
-637.597120
 20
633.175284
 30
0.0
 10
-637.330879
 20
633.273417
 30
0.0
 10
-636.793532
 20
633.471478
 30
0.0
 10
-635.933104
 20
633.626819
 30
0.0
 10
-635.017414
 20
633.684379
 30
0.0
 10
-634.086157
 20
633.613842
 30
0.0
 10
-633.181086
 20
633.382624
 30
0.0
 10
-632.663185
 20
633.083998
 30
0.0
 10
-632.409616
 20
632.937788
 30
0.0
 11
-637.597120
 21
633.175284
 31
0.0
 11
-636.791568
 21
633.446111
 31
0.0
 11
-635.941568
 21
633.608611
 31
0.0
 11
-635.047120
 21
633.662788
 31
0.0
 11
-634.065179
 21
633.582222
 31
0.0
 11
-633.186011
 21
633.340556
 31
0.0
 11
-632.409616
 21
632.937788
 31
0.0
  0
SPLINE
  5
328
100
AcDbEntity
  8
Layer_1
 62
7
100
AcDbSpline
 70
0
 71
3
 72
13
 73
9
 74
7
 40
0.000000
 40
0.000000
 40
0.000000
 40
0.000000
 40
0.992741
 40
1.930498
 40
2.933232
 40
3.906310
 40
4.774038
 40
5.673784
 40
5.673784
 40
5.673784
 40
5.673784
 10
-632.409616
 20
632.937788
 30
0.0
 10
-632.143454
 20
632.735535
 30
0.0
 10
-631.625871
 20
632.342232
 30
0.0
 10
-631.157981
 20
631.448249
 30
0.0
 10
-631.030053
 20
630.472786
 30
0.0
 10
-631.147534
 20
629.520380
 30
0.0
 10
-631.597982
 20
628.683394
 30
0.0
 10
-632.102690
 20
628.363254
 30
0.0
 10
-632.359616
 20
628.200284
 30
0.0
 11
-632.409616
 21
632.937788
 31
0.0
 11
-631.666568
 21
632.279446
 31
0.0
 11
-631.220736
 21
631.454447
 31
0.0
 11
-631.072120
 21
630.462788
 31
0.0
 11
-631.215181
 21
629.500284
 31
0.0
 11
-631.644347
 21
628.746116
 31
0.0
 11
-632.359616
 21
628.200284
 31
0.0
  0
LWPOLYLINE
  5
329
100
AcDbEntity
  8
Layer_1
 62
7
100
AcDbPolyline
 90
2
 70
1
 10
-637.597120
 20
630.662788
 30
0.0
 10
-637.597120
 20
633.175284
 30
0.0
  0
LWPOLYLINE
  5
32a
100
AcDbEntity
  8
Layer_1
 62
7
100
AcDbPolyline
 90
2
 70
1
 10
-630.534616
 20
625.337788
 30
0.0
 10
-630.534616
 20
625.337788
 30
0.0
  0
SPLINE
  5
32b
100
AcDbEntity
  8
Layer_1
 62
7
100
AcDbSpline
 70
0
 71
3
 72
13
 73
9
 74
7
 40
0.000000
 40
0.000000
 40
0.000000
 40
0.000000
 40
0.589520
 40
1.174338
 40
1.778296
 40
2.385795
 40
2.980460
 40
3.584408
 40
3.584408
 40
3.584408
 40
3.584408
 10
-632.359616
 20
628.200284
 30
0.0
 10
-632.183727
 20
628.111135
 30
0.0
 10
-631.833352
 20
627.933548
 30
0.0
 10
-631.385608
 20
627.535769
 30
0.0
 10
-631.018501
 20
627.059110
 30
0.0
 10
-630.741705
 20
626.521256
 30
0.0
 10
-630.565571
 20
625.939706
 30
0.0
 10
-630.544988
 20
625.539461
 30
0.0
 10
-630.534616
 20
625.337788
 30
0.0
 11
-632.359616
 21
628.200284
 31
0.0
 11
-631.845733
 21
627.911393
 31
0.0
 11
-631.404067
 21
627.528060
 31
0.0
 11
-631.034616
 21
627.050284
 31
0.0
 11
-630.756848
 21
626.510006
 31
0.0
 11
-630.590182
 21
625.939174
 31
0.0
 11
-630.534616
 21
625.337788
 31
0.0
  0
SPLINE
  5
32c
100
AcDbEntity
  8
Layer_1
 62
7
100
AcDbSpline
 70
0
 71
3
 72
13
 73
9
 74
7
 40
0.000000
 40
0.000000
 40
0.000000
 40
0.000000
 40
0.882983
 40
1.647439
 40
2.329211
 40
2.920828
 40
3.468677
 40
4.034376
 40
4.034376
 40
4.034376
 40
4.034376
 10
-624.234616
 20
627.125284
 30
0.0
 10
-624.065023
 20
627.366620
 30
0.0
 10
-623.748603
 20
627.816897
 30
0.0
 10
-623.447007
 20
628.540406
 30
0.0
 10
-623.342789
 20
629.219768
 30
0.0
 10
-623.418999
 20
629.829219
 30
0.0
 10
-623.667158
 20
630.358334
 30
0.0
 10
-623.952276
 20
630.601667
 30
0.0
 10
-624.097120
 20
630.725284
 30
0.0
 11
-624.234616
 21
627.125284
 31
0.0
 11
-623.755456
 21
627.866947
 31
0.0
 11
-623.467958
 21
628.575281
 31
0.0
 11
-623.372120
 21
629.250284
 31
0.0
 11
-623.452680
 21
629.836391
 31
0.0
 11
-623.694346
 21
630.328057
 31
0.0
 11
-624.097120
 21
630.725284
 31
0.0
  0
LWPOLYLINE
  5
32d
100
AcDbEntity
  8
Layer_1
 62
7
100
AcDbPolyline
 90
5
 70
1
 10
-619.634616
 20
624.362788
 30
0.0
 10
-620.834616
 20
621.650284
 30
0.0
 10
-628.309616
 20
621.650284
 30
0.0
 10
-628.309616
 20
621.800284
 30
0.0
 10
-624.234616
 20
627.125284
 30
0.0
  0
SPLINE
  5
32e
100
AcDbEntity
  8
Layer_1
 62
7
100
AcDbSpline
 70
0
 71
3
 72
13
 73
9
 74
7
 40
0.000000
 40
0.000000
 40
0.000000
 40
0.000000
 40
0.562292
 40
1.168967
 40
1.849017
 40
2.346486
 40
2.913670
 40
3.558424
 40
3.558424
 40
3.558424
 40
3.558424
 10
-624.097120
 20
630.725284
 30
0.0
 10
-624.256060
 20
630.826586
 30
0.0
 10
-624.586486
 20
631.037187
 30
0.0
 10
-625.191657
 20
631.191650
 30
0.0
 10
-625.786227
 20
631.242164
 30
0.0
 10
-626.367856
 20
631.193610
 30
0.0
 10
-626.925513
 20
631.068460
 30
0.0
 10
-627.306781
 20
630.934210
 30
0.0
 10
-627.509616
 20
630.862788
 30
0.0
 11
-624.097120
 21
630.725284
 31
0.0
 11
-624.586011
 21
631.003057
 31
0.0
 11
-625.169343
 21
631.169723
 31
0.0
 11
-625.847120
 21
631.225284
 31
0.0
 11
-626.342955
 21
631.185001
 31
0.0
 11
-626.897119
 21
631.064169
 31
0.0
 11
-627.509616
 21
630.862788
 31
0.0
  0
LWPOLYLINE
  5
32f
100
AcDbEntity
  8
Layer_1
 62
7
100
AcDbPolyline
 90
2
 70
1
 10
-627.509616
 20
630.862788
 30
0.0
 10
-627.509616
 20
633.375284
 30
0.0
  0
SPLINE
  5
330
100
AcDbEntity
  8
Layer_1
 62
7
100
AcDbSpline
 70
0
 71
3
 72
19
 73
15
 74
13
 40
0.000000
 40
0.000000
 40
0.000000
 40
0.000000
 40
0.796724
 40
1.594171
 40
2.397588
 40
3.684259
 40
4.849788
 40
5.959405
 40
7.012709
 40
8.020206
 40
9.078429
 40
10.094251
 40
11.144392
 40
12.272598
 40
12.272598
 40
12.272598
 40
12.272598
 10
-627.509616
 20
633.375284
 30
0.0
 10
-627.250251
 20
633.433062
 30
0.0
 10
-626.731284
 20
633.548671
 30
0.0
 10
-625.935991
 20
633.640536
 30
0.0
 10
-624.974007
 20
633.682305
 30
0.0
 10
-623.885314
 20
633.597345
 30
0.0
 10
-622.739439
 20
633.243448
 30
0.0
 10
-621.788524
 20
632.648865
 30
0.0
 10
-621.055032
 20
631.867969
 30
0.0
 10
-620.606499
 20
630.909714
 30
0.0
 10
-620.481255
 20
629.875758
 30
0.0
 10
-620.600705
 20
628.834765
 30
0.0
 10
-620.939267
 20
627.814331
 30
0.0
 10
-621.323249
 20
627.195690
 30
0.0
 10
-621.522120
 20
626.875284
 30
0.0
 11
-627.509616
 21
633.375284
 31
0.0
 11
-626.729065
 21
633.534999
 31
0.0
 11
-625.937397
 21
633.630833
 31
0.0
 11
-625.134616
 21
633.662788
 31
0.0
 11
-623.853373
 21
633.544723
 31
0.0
 11
-622.742957
 21
633.190557
 31
0.0
 11
-621.803368
 21
632.600284
 31
0.0
 11
-621.091568
 21
631.823889
 31
0.0
 11
-620.664486
 21
630.911391
 31
0.0
 11
-620.522120
 21
629.862788
 31
0.0
 11
-620.633237
 21
628.853062
 31
0.0
 11
-620.966571
 21
627.857228
 31
0.0
 11
-621.522120
 21
626.875284
 31
0.0
  0
SPLINE
  5
331
100
AcDbEntity
  8
Layer_1
 62
7
100
AcDbSpline
 70
0
 71
3
 72
13
 73
9
 74
7
 40
0.000000
 40
0.000000
 40
0.000000
 40
0.000000
 40
1.740432
 40
3.469185
 40
5.263114
 40
7.055442
 40
8.779276
 40
10.511765
 40
10.511765
 40
10.511765
 40
10.511765
 10
-594.909616
 20
630.187788
 30
0.0
 10
-594.943175
 20
629.606384
 30
0.0
 10
-595.010067
 20
628.447478
 30
0.0
 10
-595.580560
 20
626.767391
 30
0.0
 10
-596.470078
 20
625.224767
 30
0.0
 10
-597.628169
 20
623.874336
 30
0.0
 10
-599.019387
 20
622.780702
 30
0.0
 10
-600.086984
 20
622.335797
 30
0.0
 10
-600.622120
 20
622.112788
 30
0.0
 11
-594.909616
 21
630.187788
 31
0.0
 11
-595.088101
 21
628.456532
 31
0.0
 11
-595.623521
 21
626.812782
 31
0.0
 11
-596.515872
 21
625.256540
 31
0.0
 11
-597.686019
 21
623.898897
 31
0.0
 11
-599.054767
 21
622.850979
 31
0.0
 11
-600.622120
 21
622.112788
 31
0.0
  0
LWPOLYLINE
  5
332
100
AcDbEntity
  8
Layer_1
 62
7
100
AcDbPolyline
 90
3
 70
1
 10
-621.522120
 20
626.875284
 30
0.0
 10
-623.234616
 20
624.362788
 30
0.0
 10
-619.634616
 20
624.362788
 30
0.0
  0
SPLINE
  5
333
100
AcDbEntity
  8
Layer_1
 62
7
100
AcDbSpline
 70
0
 71
3
 72
10
 73
6
 74
4
 40
0.000000
 40
0.000000
 40
0.000000
 40
0.000000
 40
0.925288
 40
1.838397
 40
2.750949
 40
2.750949
 40
2.750949
 40
2.750949
 10
-600.622120
 20
622.112788
 30
0.0
 10
-600.916616
 20
622.020459
 30
0.0
 10
-601.501732
 20
621.837017
 30
0.0
 10
-602.409233
 20
621.680890
 30
0.0
 10
-603.017886
 20
621.660484
 30
0.0
 10
-603.322120
 20
621.650284
 30
0.0
 11
-600.622120
 21
622.112788
 31
0.0
 11
-601.511016
 21
621.855841
 31
0.0
 11
-602.411016
 21
621.701673
 31
0.0
 11
-603.322120
 21
621.650284
 31
0.0
  0
SPLINE
  5
334
100
AcDbEntity
  8
Layer_1
 62
7
100
AcDbSpline
 70
0
 71
3
 72
10
 73
6
 74
4
 40
0.000000
 40
0.000000
 40
0.000000
 40
0.000000
 40
1.568163
 40
3.117047
 40
4.706931
 40
4.706931
 40
4.706931
 40
4.706931
 10
-603.322120
 20
638.712788
 30
0.0
 10
-602.798998
 20
638.684087
 30
0.0
 10
-601.759186
 20
638.627038
 30
0.0
 10
-600.238293
 20
638.167889
 30
0.0
 10
-599.331459
 20
637.641776
 30
0.0
 10
-598.872120
 20
637.375284
 30
0.0
 11
-603.322120
 21
638.712788
 31
0.0
 11
-601.761015
 21
638.564166
 31
0.0
 11
-600.277683
 21
638.118332
 31
0.0
 11
-598.872120
 21
637.375284
 31
0.0
  0
SPLINE
  5
335
100
AcDbEntity
  8
Layer_1
 62
7
100
AcDbSpline
 70
0
 71
3
 72
10
 73
6
 74
4
 40
0.000000
 40
0.000000
 40
0.000000
 40
0.000000
 40
1.568592
 40
3.118081
 40
4.700415
 40
4.700415
 40
4.700415
 40
4.700415
 10
-598.872120
 20
637.375284
 30
0.0
 10
-598.447187
 20
637.068909
 30
0.0
 10
-597.602497
 20
636.459890
 30
0.0
 10
-596.551374
 20
635.275123
 30
0.0
 10
-596.041983
 20
634.361756
 30
0.0
 10
-595.784616
 20
633.900284
 30
0.0
 11
-598.872120
 21
637.375284
 31
0.0
 11
-597.634628
 21
636.411387
 31
0.0
 11
-596.605462
 21
635.253055
 31
0.0
 11
-595.784616
 21
633.900284
 31
0.0
  0
LWPOLYLINE
  5
336
100
AcDbEntity
  8
Layer_1
 62
7
100
AcDbPolyline
 90
4
 70
1
 10
-603.322120
 20
621.650284
 30
0.0
 10
-609.872120
 20
621.650284
 30
0.0
 10
-609.872120
 20
638.712788
 30
0.0
 10
-603.322120
 20
638.712788
 30
0.0
  0
SPLINE
  5
337
100
AcDbEntity
  8
Layer_1
 62
7
100
AcDbSpline
 70
0
 71
3
 72
10
 73
6
 74
4
 40
0.000000
 40
0.000000
 40
0.000000
 40
0.000000
 40
1.306315
 40
2.577720
 40
3.843952
 40
3.843952
 40
3.843952
 40
3.843952
 10
-595.784616
 20
633.900284
 30
0.0
 10
-595.610297
 20
633.500726
 30
0.0
 10
-595.266317
 20
632.712288
 30
0.0
 10
-594.967391
 20
631.456243
 30
0.0
 10
-594.928848
 20
630.610031
 30
0.0
 10
-594.909616
 20
630.187788
 30
0.0
 11
-595.784616
 21
633.900284
 31
0.0
 11
-595.298518
 21
632.687779
 31
0.0
 11
-595.006850
 21
631.450281
 31
0.0
 11
-594.909616
 21
630.187788
 31
0.0
  0
SPLINE
  5
338
100
AcDbEntity
  8
Layer_1
 62
7
100
AcDbSpline
 70
0
 71
3
 72
10
 73
6
 74
4
 40
0.000000
 40
0.000000
 40
0.000000
 40
0.000000
 40
1.130331
 40
2.206887
 40
3.282343
 40
3.282343
 40
3.282343
 40
3.282343
 10
-599.522120
 20
630.187788
 30
0.0
 10
-599.542504
 20
630.564857
 30
0.0
 10
-599.582303
 20
631.301055
 30
0.0
 10
-599.916895
 20
632.360788
 30
0.0
 10
-600.312110
 20
632.962223
 30
0.0
 10
-600.509616
 20
633.262788
 30
0.0
 11
-599.522120
 21
630.187788
 31
0.0
 11
-599.631848
 21
631.312781
 31
0.0
 11
-599.961014
 21
632.337779
 31
0.0
 11
-600.509616
 21
633.262788
 31
0.0
  0
LWPOLYLINE
  5
339
100
AcDbEntity
  8
Layer_1
 62
7
100
AcDbPolyline
 90
2
 70
1
 10
-594.909616
 20
630.187788
 30
0.0
 10
-594.909616
 20
630.187788
 30
0.0
  0
SPLINE
  5
33a
100
AcDbEntity
  8
Layer_1
 62
7
100
AcDbSpline
 70
0
 71
3
 72
10
 73
6
 74
4
 40
0.000000
 40
0.000000
 40
0.000000
 40
0.000000
 40
1.402926
 40
2.829909
 40
4.431858
 40
4.431858
 40
4.431858
 40
4.431858
 10
-600.509616
 20
633.262788
 30
0.0
 10
-600.828058
 20
633.611034
 30
0.0
 10
-601.470402
 20
634.313499
 30
0.0
 10
-602.876154
 20
634.907212
 30
0.0
 10
-603.887328
 20
634.968088
 30
0.0
 10
-604.422120
 20
635.000284
 30
0.0
 11
-600.509616
 21
633.262788
 31
0.0
 11
-601.527681
 21
634.228057
 31
0.0
 11
-602.831847
 21
634.807223
 31
0.0
 11
-604.422120
 21
635.000284
 31
0.0
  0
SPLINE
  5
33b
100
AcDbEntity
  8
Layer_1
 62
7
100
AcDbSpline
 70
0
 71
3
 72
10
 73
6
 74
4
 40
0.000000
 40
0.000000
 40
0.000000
 40
0.000000
 40
1.607461
 40
3.034447
 40
4.433353
 40
4.433353
 40
4.433353
 40
4.433353
 10
-604.422120
 20
625.362788
 30
0.0
 10
-603.885528
 20
625.394846
 30
0.0
 10
-602.872588
 20
625.455363
 30
0.0
 10
-601.465306
 20
626.048146
 30
0.0
 10
-600.826062
 20
626.751902
 30
0.0
 10
-600.509616
 20
627.100284
 30
0.0
 11
-604.422120
 21
625.362788
 31
0.0
 11
-602.826293
 21
625.555838
 31
0.0
 11
-601.522125
 21
626.135004
 31
0.0
 11
-600.509616
 21
627.100284
 31
0.0
  0
LWPOLYLINE
  5
33c
100
AcDbEntity
  8
Layer_1
 62
7
100
AcDbPolyline
 90
4
 70
1
 10
-604.422120
 20
635.000284
 30
0.0
 10
-605.434616
 20
635.000284
 30
0.0
 10
-605.434616
 20
625.362788
 30
0.0
 10
-604.422120
 20
625.362788
 30
0.0
  0
LWPOLYLINE
  5
33d
100
AcDbEntity
  8
Layer_1
 62
7
100
AcDbPolyline
 90
2
 70
1
 10
-599.522120
 20
630.187788
 30
0.0
 10
-599.522120
 20
630.187788
 30
0.0
  0
LWPOLYLINE
  5
33e
100
AcDbEntity
  8
Layer_1
 62
7
100
AcDbPolyline
 90
14
 70
1
 10
-570.647120
 20
633.250284
 30
0.0
 10
-576.722120
 20
621.650284
 30
0.0
 10
-579.459616
 20
621.650284
 30
0.0
 10
-582.359616
 20
628.012788
 30
0.0
 10
-585.134616
 20
621.650284
 30
0.0
 10
-587.897120
 20
621.650284
 30
0.0
 10
-593.859616
 20
633.250284
 30
0.0
 10
-589.284616
 20
633.250284
 30
0.0
 10
-586.509616
 20
627.137788
 30
0.0
 10
-583.597120
 20
633.250284
 30
0.0
 10
-581.022120
 20
633.250284
 30
0.0
 10
-578.122120
 20
626.962788
 30
0.0
 10
-575.209616
 20
633.250284
 30
0.0
 10
-570.647120
 20
633.250284
 30
0.0
  0
SPLINE
  5
33f
100
AcDbEntity
  8
Layer_1
 62
7
100
AcDbSpline
 70
0
 71
3
 72
10
 73
6
 74
4
 40
0.000000
 40
0.000000
 40
0.000000
 40
0.000000
 40
1.081425
 40
2.161951
 40
3.293677
 40
3.293677
 40
3.293677
 40
3.293677
 10
-600.509616
 20
627.100284
 30
0.0
 10
-600.312160
 20
627.403227
 30
0.0
 10
-599.917411
 20
628.008860
 30
0.0
 10
-599.582510
 20
629.072260
 30
0.0
 10
-599.542558
 20
629.810252
 30
0.0
 10
-599.522120
 20
630.187788
 30
0.0
 11
-600.509616
 21
627.100284
 31
0.0
 11
-599.961014
 21
628.032225
 31
0.0
 11
-599.631848
 21
629.061393
 31
0.0
 11
-599.522120
 21
630.187788
 31
0.0
  0
SPLINE
  5
340
100
AcDbEntity
  8
Layer_1
 62
7
100
AcDbSpline
 70
0
 71
3
 72
22
 73
18
 74
16
 40
0.000000
 40
0.000000
 40
0.000000
 40
0.000000
 40
0.595407
 40
1.129342
 40
1.610472
 40
2.411897
 40
3.231470
 40
4.093659
 40
5.492351
 40
6.868141
 40
8.306916
 40
10.030011
 40
11.734259
 40
13.570155
 40
15.434286
 40
17.160439
 40
18.905883
 40
18.905883
 40
18.905883
 40
18.905883
 10
-560.284616
 20
622.937788
 30
0.0
 10
-560.412215
 20
622.785582
 30
0.0
 10
-560.654240
 20
622.496885
 30
0.0
 10
-561.052045
 20
622.133384
 30
0.0
 10
-561.555234
 20
621.793014
 30
0.0
 10
-562.202900
 20
621.512770
 30
0.0
 10
-563.010340
 20
621.314625
 30
0.0
 10
-564.038357
 20
621.242634
 30
0.0
 10
-565.255337
 20
621.380093
 30
0.0
 10
-566.578673
 20
621.895487
 30
0.0
 10
-567.821400
 20
622.778580
 30
0.0
 10
-568.901986
 20
624.019486
 30
0.0
 10
-569.593842
 20
625.663030
 30
0.0
 10
-569.790264
 20
627.473399
 30
0.0
 10
-569.587685
 20
629.284240
 30
0.0
 10
-568.894652
 20
630.968383
 30
0.0
 10
-568.072817
 20
631.796452
 30
0.0
 10
-567.659616
 20
632.212788
 30
0.0
 11
-560.284616
 21
622.937788
 31
0.0
 11
-560.677680
 21
622.490563
 31
0.0
 11
-561.073514
 21
622.132231
 31
0.0
 11
-561.472120
 21
621.862788
 31
0.0
 11
-562.204069
 21
621.536395
 31
0.0
 11
-562.999901
 21
621.340561
 31
0.0
 11
-563.859616
 21
621.275284
 31
0.0
 11
-565.248509
 21
621.440561
 31
0.0
 11
-566.531843
 21
621.936395
 31
0.0
 11
-567.709616
 21
622.762788
 31
0.0
 11
-568.827675
 21
624.073895
 31
0.0
 11
-569.498509
 21
625.640561
 31
0.0
 11
-569.722120
 21
627.462788
 31
0.0
 11
-569.492954
 21
629.312779
 31
0.0
 11
-568.805454
 21
630.896113
 31
0.0
 11
-567.659616
 21
632.212788
 31
0.0
  0
LWPOLYLINE
  5
341
100
AcDbEntity
  8
Layer_1
 62
7
100
AcDbPolyline
 90
3
 70
1
 10
-556.184616
 20
621.650284
 30
0.0
 10
-560.284616
 20
621.650284
 30
0.0
 10
-560.284616
 20
622.937788
 30
0.0
  0
SPLINE
  5
342
100
AcDbEntity
  8
Layer_1
 62
7
100
AcDbSpline
 70
0
 71
3
 72
16
 73
12
 74
10
 40
0.000000
 40
0.000000
 40
0.000000
 40
0.000000
 40
1.388775
 40
2.728407
 40
4.099921
 40
4.910351
 40
5.704864
 40
6.501823
 40
6.987800
 40
7.528665
 40
8.131875
 40
8.131875
 40
8.131875
 40
8.131875
 10
-567.659616
 20
632.212788
 30
0.0
 10
-567.289837
 20
632.494980
 30
0.0
 10
-566.563365
 20
633.049378
 30
0.0
 10
-565.260069
 20
633.523671
 30
0.0
 10
-564.084333
 20
633.656283
 30
0.0
 10
-563.090987
 20
633.588391
 30
0.0
 10
-562.307686
 20
633.409862
 30
0.0
 10
-561.657996
 20
633.160655
 30
0.0
 10
-561.129548
 20
632.856901
 30
0.0
 10
-560.698637
 20
632.522908
 30
0.0
 10
-560.427547
 20
632.254372
 30
0.0
 10
-560.284616
 20
632.112788
 30
0.0
 11
-567.659616
 21
632.212788
 31
0.0
 11
-566.513790
 21
632.997502
 31
0.0
 11
-565.259624
 21
633.468334
 31
0.0
 11
-563.897120
 21
633.625284
 31
0.0
 11
-563.088792
 21
633.566945
 31
0.0
 11
-562.313792
 21
633.391945
 31
0.0
 11
-561.572120
 21
633.100284
 31
0.0
 11
-561.151293
 21
632.857223
 31
0.0
 11
-560.722125
 21
632.528057
 31
0.0
 11
-560.284616
 21
632.112788
 31
0.0
  0
SPLINE
  5
343
100
AcDbEntity
  8
Layer_1
 62
7
100
AcDbSpline
 70
0
 71
3
 72
22
 73
18
 74
16
 40
0.000000
 40
0.000000
 40
0.000000
 40
0.000000
 40
0.701829
 40
1.376190
 40
2.074123
 40
2.772672
 40
3.448164
 40
4.150591
 40
4.925502
 40
5.663803
 40
6.433932
 40
7.066080
 40
7.675183
 40
8.297282
 40
8.919385
 40
9.528487
 40
10.160626
 40
10.160626
 40
10.160626
 40
10.160626
 10
-560.159616
 20
627.450284
 30
0.0
 10
-560.175007
 20
627.685118
 30
0.0
 10
-560.205187
 20
628.145596
 30
0.0
 10
-560.482166
 20
628.793370
 30
0.0
 10
-560.915249
 20
629.338379
 30
0.0
 10
-561.464375
 20
629.769746
 30
0.0
 10
-562.113604
 20
630.035816
 30
0.0
 10
-562.833646
 20
630.116644
 30
0.0
 10
-563.576108
 20
630.026451
 30
0.0
 10
-564.279712
 20
629.703593
 30
0.0
 10
-564.812616
 20
629.214780
 30
0.0
 10
-565.195194
 20
628.658058
 30
0.0
 10
-565.414837
 20
628.069912
 30
0.0
 10
-565.482514
 20
627.450023
 30
0.0
 10
-565.413758
 20
626.831677
 30
0.0
 10
-565.199476
 20
626.238945
 30
0.0
 10
-564.949452
 20
625.906894
 30
0.0
 10
-564.822120
 20
625.737788
 30
0.0
 11
-560.159616
 21
627.450284
 31
0.0
 11
-560.245737
 21
628.146809
 31
0.0
 11
-560.504069
 21
628.769727
 31
0.0
 11
-560.934616
 21
629.319036
 31
0.0
 11
-561.487403
 21
629.746116
 31
0.0
 11
-562.112403
 21
630.002366
 31
0.0
 11
-562.809616
 21
630.087788
 31
0.0
 11
-563.577680
 21
629.985004
 31
0.0
 11
-564.248514
 21
629.676670
 31
0.0
 11
-564.822120
 21
629.162788
 31
0.0
 11
-565.176291
 21
628.639171
 31
0.0
 11
-565.388789
 21
628.068337
 31
0.0
 11
-565.459616
 21
627.450284
 31
0.0
 11
-565.388789
 21
626.832225
 31
0.0
 11
-565.176291
 21
626.261393
 31
0.0
 11
-564.822120
 21
625.737788
 31
0.0
  0
LWPOLYLINE
  5
344
100
AcDbEntity
  8
Layer_1
 62
7
100
AcDbPolyline
 90
4
 70
1
 10
-560.284616
 20
632.112788
 30
0.0
 10
-560.284616
 20
633.250284
 30
0.0
 10
-556.184616
 20
633.250284
 30
0.0
 10
-556.184616
 20
621.650284
 30
0.0
  0
SPLINE
  5
345
100
AcDbEntity
  8
Layer_1
 62
7
100
AcDbSpline
 70
0
 71
3
 72
16
 73
12
 74
10
 40
0.000000
 40
0.000000
 40
0.000000
 40
0.000000
 40
0.766010
 40
1.504311
 40
2.284724
 40
2.993271
 40
3.669904
 40
4.364685
 40
5.058832
 40
5.734324
 40
6.442279
 40
6.442279
 40
6.442279
 40
6.442279
 10
-564.822120
 20
625.737788
 30
0.0
 10
-564.642933
 20
625.553103
 30
0.0
 10
-564.291041
 20
625.190414
 30
0.0
 10
-563.577983
 20
624.874809
 30
0.0
 10
-562.833872
 20
624.783930
 30
0.0
 10
-562.109059
 20
624.863874
 30
0.0
 10
-561.457520
 20
625.126898
 30
0.0
 10
-560.908651
 20
625.555575
 30
0.0
 10
-560.478203
 20
626.100303
 30
0.0
 10
-560.204341
 20
626.750535
 30
0.0
 10
-560.174756
 20
627.213414
 30
0.0
 10
-560.159616
 20
627.450284
 30
0.0
 11
-564.822120
 21
625.737788
 31
0.0
 11
-564.254066
 21
625.223895
 31
0.0
 11
-563.583232
 21
624.915561
 31
0.0
 11
-562.809616
 21
624.812788
 31
0.0
 11
-562.106152
 21
624.897505
 31
0.0
 11
-561.479070
 21
625.151671
 31
0.0
 11
-560.928368
 21
625.575284
 31
0.0
 11
-560.501293
 21
626.122502
 31
0.0
 11
-560.245043
 21
626.747502
 31
0.0
 11
-560.159616
 21
627.450284
 31
0.0
  0
SPLINE
  5
346
100
AcDbEntity
  8
Layer_1
 62
7
100
AcDbSpline
 70
0
 71
3
 72
13
 73
9
 74
7
 40
0.000000
 40
0.000000
 40
0.000000
 40
0.000000
 40
0.621573
 40
1.220891
 40
1.811553
 40
3.017245
 40
4.050747
 40
5.124058
 40
5.124058
 40
5.124058
 40
5.124058
 10
-544.659616
 20
629.462788
 30
0.0
 10
-544.850071
 20
629.545158
 30
0.0
 10
-545.224162
 20
629.706950
 30
0.0
 10
-545.816001
 20
629.844254
 30
0.0
 10
-546.613804
 20
629.903092
 30
0.0
 10
-547.565353
 20
629.787497
 30
0.0
 10
-548.567120
 20
629.200532
 30
0.0
 10
-548.876833
 20
628.554436
 30
0.0
 10
-549.034616
 20
628.225284
 30
0.0
 11
-544.659616
 21
629.462788
 31
0.0
 11
-545.237403
 21
629.691948
 31
0.0
 11
-545.820735
 21
629.829446
 31
0.0
 11
-546.409616
 21
629.875284
 31
0.0
 11
-547.601288
 21
629.691945
 31
0.0
 11
-548.476288
 21
629.141945
 31
0.0
 11
-549.034616
 21
628.225284
 31
0.0
  0
LWPOLYLINE
  5
347
100
AcDbEntity
  8
Layer_1
 62
7
100
AcDbPolyline
 90
2
 70
1
 10
-560.159616
 20
627.450284
 30
0.0
 10
-560.159616
 20
627.450284
 30
0.0
  0
SPLINE
  5
348
100
AcDbEntity
  8
Layer_1
 62
7
100
AcDbSpline
 70
0
 71
3
 72
10
 73
6
 74
4
 40
0.000000
 40
0.000000
 40
0.000000
 40
0.000000
 40
0.463027
 40
1.005735
 40
1.635393
 40
1.635393
 40
1.635393
 40
1.635393
 10
-549.034616
 20
628.225284
 30
0.0
 10
-549.080414
 20
628.077639
 30
0.0
 10
-549.179892
 20
627.756941
 30
0.0
 10
-549.246602
 20
627.213226
 30
0.0
 10
-549.255069
 20
626.822591
 30
0.0
 10
-549.259616
 20
626.612788
 30
0.0
 11
-549.034616
 21
628.225284
 31
0.0
 11
-549.159621
 21
627.779450
 31
0.0
 11
-549.234621
 21
627.241950
 31
0.0
 11
-549.259616
 21
626.612788
 31
0.0
  0
SPLINE
  5
349
100
AcDbEntity
  8
Layer_1
 62
7
100
AcDbSpline
 70
0
 71
3
 72
10
 73
6
 74
4
 40
0.000000
 40
0.000000
 40
0.000000
 40
0.000000
 40
0.756754
 40
1.431612
 40
2.040242
 40
2.040242
 40
2.040242
 40
2.040242
 10
-549.259616
 20
631.350284
 30
0.0
 10
-549.116787
 20
631.558263
 30
0.0
 10
-548.846586
 20
631.951714
 30
0.0
 10
-548.380145
 20
632.454068
 30
0.0
 10
-548.027052
 20
632.697400
 30
0.0
 10
-547.859616
 20
632.812788
 30
0.0
 11
-549.259616
 21
631.350284
 31
0.0
 11
-548.815176
 21
631.962778
 31
0.0
 11
-548.348510
 21
632.450278
 31
0.0
 11
-547.859616
 21
632.812788
 31
0.0
  0
LWPOLYLINE
  5
34a
100
AcDbEntity
  8
Layer_1
 62
7
100
AcDbPolyline
 90
6
 70
1
 10
-549.259616
 20
626.612788
 30
0.0
 10
-549.259616
 20
621.650284
 30
0.0
 10
-553.359616
 20
621.650284
 30
0.0
 10
-553.359616
 20
633.250284
 30
0.0
 10
-549.259616
 20
633.250284
 30
0.0
 10
-549.259616
 20
631.350284
 30
0.0
  0
LWPOLYLINE
  5
34b
100
AcDbEntity
  8
Layer_1
 62
7
100
AcDbPolyline
 90
2
 70
1
 10
-544.659616
 20
633.375268
 30
0.0
 10
-544.659616
 20
629.462788
 30
0.0
  0
LWPOLYLINE
  5
34c
100
AcDbEntity
  8
Layer_1
 62
7
100
AcDbPolyline
 90
8
 70
1
 10
-529.447120
 20
633.250284
 30
0.0
 10
-535.484616
 20
621.650284
 30
0.0
 10
-538.222120
 20
621.650284
 30
0.0
 10
-544.209616
 20
633.250284
 30
0.0
 10
-539.597120
 20
633.250284
 30
0.0
 10
-536.822120
 20
627.300284
 30
0.0
 10
-534.034616
 20
633.250284
 30
0.0
 10
-529.447120
 20
633.250284
 30
0.0
  0
SPLINE
  5
34d
100
AcDbEntity
  8
Layer_1
 62
7
100
AcDbSpline
 70
0
 71
3
 72
13
 73
9
 74
7
 40
0.000000
 40
0.000000
 40
0.000000
 40
0.000000
 40
0.790384
 40
1.615006
 40
2.500857
 40
2.734220
 40
3.001179
 40
3.301911
 40
3.301911
 40
3.301911
 40
3.301911
 10
-547.859616
 20
632.812788
 30
0.0
 10
-547.624637
 20
632.933842
 30
0.0
 10
-547.144500
 20
633.181194
 30
0.0
 10
-546.325204
 20
633.371297
 30
0.0
 10
-545.677102
 20
633.418665
 30
0.0
 10
-545.215057
 20
633.409390
 30
0.0
 10
-544.948306
 20
633.396692
 30
0.0
 10
-544.759589
 20
633.382687
 30
0.0
 10
-544.659616
 20
633.375268
 30
0.0
 11
-547.859616
 21
632.812788
 31
0.0
 11
-547.142955
 21
633.146110
 31
0.0
 11
-546.342955
 21
633.346110
 31
0.0
 11
-545.459616
 21
633.412788
 31
0.0
 11
-545.226290
 21
633.408618
 31
0.0
 11
-544.959624
 21
633.396121
 31
0.0
 11
-544.659616
 21
633.375268
 31
0.0
  0
LWPOLYLINE
  5
34e
100
AcDbEntity
  8
Layer_1
 62
7
100
AcDbPolyline
 90
2
 70
1
 10
-515.747120
 20
626.700284
 30
0.0
 10
-524.372120
 20
626.700284
 30
0.0
  0
SPLINE
  5
34f
100
AcDbEntity
  8
Layer_1
 62
7
100
AcDbSpline
 70
0
 71
3
 72
13
 73
9
 74
7
 40
0.000000
 40
0.000000
 40
0.000000
 40
0.000000
 40
1.478253
 40
2.689349
 40
4.121848
 40
4.922889
 40
5.676445
 40
6.482105
 40
6.482105
 40
6.482105
 40
6.482105
 10
-524.372120
 20
626.700284
 30
0.0
 10
-524.341158
 20
626.194011
 30
0.0
 10
-524.284830
 20
625.272962
 30
0.0
 10
-523.246521
 20
624.203370
 30
0.0
 10
-522.053528
 20
624.037399
 30
0.0
 10
-521.058945
 20
624.156223
 30
0.0
 10
-520.343545
 20
624.546879
 30
0.0
 10
-520.032724
 20
624.969444
 30
0.0
 10
-519.872120
 20
625.187788
 30
0.0
 11
-524.372120
 21
626.700284
 31
0.0
 11
-524.091569
 21
625.248897
 31
0.0
 11
-523.249901
 21
624.378065
 31
0.0
 11
-521.847120
 21
624.087788
 31
0.0
 11
-521.055458
 21
624.210009
 31
0.0
 11
-520.397126
 21
624.576675
 31
0.0
 11
-519.872120
 21
625.187788
 31
0.0
  0
SPLINE
  5
350
100
AcDbEntity
  8
Layer_1
 62
7
100
AcDbSpline
 70
0
 71
3
 72
16
 73
12
 74
10
 40
0.000000
 40
0.000000
 40
0.000000
 40
0.000000
 40
1.037776
 40
1.974758
 40
2.840224
 40
4.356378
 40
5.940293
 40
7.697496
 40
9.896925
 40
11.829719
 40
13.676960
 40
13.676960
 40
13.676960
 40
13.676960
 10
-515.909616
 20
625.187788
 30
0.0
 10
-516.021218
 20
624.859788
 30
0.0
 10
-516.233582
 20
624.235645
 30
0.0
 10
-516.705000
 20
623.406505
 30
0.0
 10
-517.433580
 20
622.565951
 30
0.0
 10
-518.542386
 20
621.807692
 30
0.0
 10
-520.092074
 20
621.282317
 30
0.0
 10
-521.946289
 20
621.128255
 30
0.0
 10
-523.908415
 20
621.320967
 30
0.0
 10
-525.828952
 20
622.026185
 30
0.0
 10
-526.731204
 20
622.924027
 30
0.0
 10
-527.172120
 20
623.362788
 30
0.0
 11
-515.909616
 21
625.187788
 31
0.0
 11
-516.276293
 21
624.216950
 31
0.0
 11
-516.742961
 21
623.404450
 31
0.0
 11
-517.309616
 21
622.750284
 31
0.0
 11
-518.552680
 21
621.882230
 31
0.0
 11
-520.048514
 21
621.361398
 31
0.0
 11
-521.797120
 21
621.187788
 31
0.0
 11
-523.983232
 21
621.429454
 31
0.0
 11
-525.774898
 21
622.154454
 31
0.0
 11
-527.172120
 21
623.362788
 31
0.0
  0
SPLINE
  5
351
100
AcDbEntity
  8
Layer_1
 62
7
100
AcDbSpline
 70
0
 71
3
 72
19
 73
15
 74
13
 40
0.000000
 40
0.000000
 40
0.000000
 40
0.000000
 40
1.383437
 40
2.778821
 40
4.265575
 40
6.010396
 40
7.616300
 40
9.197761
 40
10.800258
 40
12.490105
 40
14.395747
 40
16.700805
 40
18.724488
 40
20.745891
 40
20.745891
 40
20.745891
 40
20.745891
 10
-527.172120
 20
623.362788
 30
0.0
 10
-527.443275
 20
623.738707
 30
0.0
 10
-527.987926
 20
624.493793
 30
0.0
 10
-528.430930
 20
625.868008
 30
0.0
 10
-528.573672
 20
627.410314
 30
0.0
 10
-528.414628
 20
629.029804
 30
0.0
 10
-527.842946
 20
630.592466
 30
0.0
 10
-526.885251
 20
631.896676
 30
0.0
 10
-525.570501
 20
632.893898
 30
0.0
 10
-523.911004
 20
633.471175
 30
0.0
 10
-521.938499
 20
633.643663
 30
0.0
 10
-519.855118
 20
633.416014
 30
0.0
 10
-517.869195
 20
632.480464
 30
0.0
 10
-517.062657
 20
631.376803
 30
0.0
 10
-516.659616
 20
630.825284
 30
0.0
 11
-527.172120
 21
623.362788
 31
0.0
 11
-527.922120
 21
624.525284
 31
0.0
 11
-528.372120
 21
625.846116
 31
0.0
 11
-528.522120
 21
627.325284
 31
0.0
 11
-528.334621
 21
629.060001
 31
0.0
 11
-527.772121
 21
630.564169
 31
0.0
 11
-526.834616
 21
631.837788
 31
0.0
 11
-525.555456
 21
632.803057
 31
0.0
 11
-523.967958
 21
633.382223
 31
0.0
 11
-522.072120
 21
633.575284
 31
0.0
 11
-519.787404
 21
633.269723
 31
0.0
 11
-517.983238
 21
632.353057
 31
0.0
 11
-516.659616
 21
630.825284
 31
0.0
  0
LWPOLYLINE
  5
352
100
AcDbEntity
  8
Layer_1
 62
7
100
AcDbPolyline
 90
2
 70
1
 10
-519.872120
 20
625.187788
 30
0.0
 10
-515.909616
 20
625.187788
 30
0.0
  0
SPLINE
  5
353
100
AcDbEntity
  8
Layer_1
 62
7
100
AcDbSpline
 70
0
 71
3
 72
10
 73
6
 74
4
 40
0.000000
 40
0.000000
 40
0.000000
 40
0.000000
 40
1.201110
 40
2.439058
 40
3.754083
 40
3.754083
 40
3.754083
 40
3.754083
 10
-516.659616
 20
630.825284
 30
0.0
 10
-516.476407
 20
630.468210
 30
0.0
 10
-516.104369
 20
629.743109
 30
0.0
 10
-515.802718
 20
628.514934
 30
0.0
 10
-515.766022
 20
627.663733
 30
0.0
 10
-515.747120
 20
627.225284
 30
0.0
 11
-516.659616
 21
630.825284
 31
0.0
 11
-516.152682
 21
629.736393
 31
0.0
 11
-515.848518
 21
628.536393
 31
0.0
 11
-515.747120
 21
627.225284
 31
0.0
  0
SPLINE
  5
354
100
AcDbEntity
  8
Layer_1
 62
7
100
AcDbSpline
 70
0
 71
3
 72
13
 73
9
 74
7
 40
0.000000
 40
0.000000
 40
0.000000
 40
0.000000
 40
1.161884
 40
2.171257
 40
3.295943
 40
3.955029
 40
4.557355
 40
5.143910
 40
5.143910
 40
5.143910
 40
5.143910
 10
-519.572120
 20
629.050284
 30
0.0
 10
-519.687310
 20
629.427753
 30
0.0
 10
-519.902571
 20
630.133145
 30
0.0
 10
-520.805032
 20
630.870123
 30
0.0
 10
-521.757030
 20
631.009379
 30
0.0
 10
-522.549746
 20
630.935508
 30
0.0
 10
-523.145304
 20
630.735942
 30
0.0
 10
-523.456220
 20
630.486068
 30
0.0
 10
-523.609616
 20
630.362788
 30
0.0
 11
-519.572120
 21
629.050284
 31
0.0
 11
-520.026290
 21
630.119724
 31
0.0
 11
-520.805456
 21
630.761390
 31
0.0
 11
-521.909616
 21
630.975284
 31
0.0
 11
-522.565178
 21
630.907223
 31
0.0
 11
-523.131846
 21
630.703057
 31
0.0
 11
-523.609616
 21
630.362788
 31
0.0
  0
LWPOLYLINE
  5
355
100
AcDbEntity
  8
Layer_1
 62
7
100
AcDbPolyline
 90
2
 70
1
 10
-515.747120
 20
627.225284
 30
0.0
 10
-515.747120
 20
626.700284
 30
0.0
  0
SPLINE
  5
356
100
AcDbEntity
  8
Layer_1
 62
7
100
AcDbSpline
 70
0
 71
3
 72
10
 73
6
 74
4
 40
0.000000
 40
0.000000
 40
0.000000
 40
0.000000
 40
0.470546
 40
0.958760
 40
1.488315
 40
1.488315
 40
1.488315
 40
1.488315
 10
-523.609616
 20
630.362788
 30
0.0
 10
-523.715673
 20
630.246402
 30
0.0
 10
-523.931769
 20
630.009260
 30
0.0
 10
-524.150149
 20
629.555109
 30
0.0
 10
-524.222152
 20
629.223055
 30
0.0
 10
-524.259616
 20
629.050284
 30
0.0
 11
-523.609616
 21
630.362788
 31
0.0
 11
-523.909621
 21
630.000281
 31
0.0
 11
-524.126289
 21
629.562779
 31
0.0
 11
-524.259616
 21
629.050284
 31
0.0
  0
SPLINE
  5
357
100
AcDbEntity
  8
Layer_1
 62
7
100
AcDbSpline
 70
0
 71
3
 72
10
 73
6
 74
4
 40
0.000000
 40
0.000000
 40
0.000000
 40
0.000000
 40
1.167655
 40
2.268476
 40
3.399219
 40
3.399219
 40
3.399219
 40
3.399219
 10
-503.972120
 20
625.562788
 30
0.0
 10
-503.998446
 20
625.172698
 30
0.0
 10
-504.049591
 20
624.414845
 30
0.0
 10
-504.512233
 20
623.346732
 30
0.0
 10
-505.033163
 20
622.809836
 30
0.0
 10
-505.297120
 20
622.537788
 30
0.0
 11
-503.972120
 21
625.562788
 31
0.0
 11
-504.119349
 21
624.404452
 31
0.0
 11
-504.561017
 21
623.396118
 31
0.0
 11
-505.297120
 21
622.537788
 31
0.0
  0
LWPOLYLINE
  5
358
100
AcDbEntity
  8
Layer_1
 62
7
100
AcDbPolyline
 90
2
 70
1
 10
-524.259616
 20
629.050284
 30
0.0
 10
-519.572120
 20
629.050284
 30
0.0
  0
SPLINE
  5
359
100
AcDbEntity
  8
Layer_1
 62
7
100
AcDbSpline
 70
0
 71
3
 72
13
 73
9
 74
7
 40
0.000000
 40
0.000000
 40
0.000000
 40
0.000000
 40
1.345593
 40
2.809634
 40
4.481401
 40
6.064783
 40
7.673624
 40
9.361283
 40
9.361283
 40
9.361283
 40
9.361283
 10
-505.297120
 20
622.537788
 30
0.0
 10
-505.660414
 20
622.269251
 30
0.0
 10
-506.418981
 20
621.708540
 30
0.0
 10
-507.882800
 20
621.297483
 30
0.0
 10
-509.454643
 20
621.164759
 30
0.0
 10
-511.077739
 20
621.314137
 30
0.0
 10
-512.654968
 20
621.762516
 30
0.0
 10
-513.625336
 20
622.283542
 30
0.0
 10
-514.122120
 20
622.550284
 30
0.0
 11
-505.297120
 21
622.537788
 31
0.0
 11
-506.423512
 21
621.801675
 31
0.0
 11
-507.819344
 21
621.360009
 31
0.0
 11
-509.484616
 21
621.212788
 31
0.0
 11
-511.061008
 21
621.361398
 31
0.0
 11
-512.606842
 21
621.807230
 31
0.0
 11
-514.122120
 21
622.550284
 31
0.0
  0
SPLINE
  5
35a
100
AcDbEntity
  8
Layer_1
 62
7
100
AcDbSpline
 70
0
 71
3
 72
19
 73
15
 74
13
 40
0.000000
 40
0.000000
 40
0.000000
 40
0.000000
 40
1.316513
 40
2.474913
 40
3.519051
 40
4.241085
 40
4.762334
 40
5.275725
 40
5.564802
 40
5.845706
 40
6.159879
 40
6.455507
 40
6.907681
 40
7.519092
 40
7.519092
 40
7.519092
 40
7.519092
 10
-512.634616
 20
625.450284
 30
0.0
 10
-512.259472
 20
625.221199
 30
0.0
 10
-511.554238
 20
624.790543
 30
0.0
 10
-510.442011
 20
624.386330
 30
0.0
 10
-509.468886
 20
624.260388
 30
0.0
 10
-508.700011
 20
624.314819
 30
0.0
 10
-508.159080
 20
624.636462
 30
0.0
 10
-508.046457
 20
625.102276
 30
0.0
 10
-508.101881
 20
625.463960
 30
0.0
 10
-508.266678
 20
625.718817
 30
0.0
 10
-508.510939
 20
625.896821
 30
0.0
 10
-508.842155
 20
626.025470
 30
0.0
 10
-509.277897
 20
626.150082
 30
0.0
 10
-509.623467
 20
626.229582
 30
0.0
 10
-509.822120
 20
626.275284
 30
0.0
 11
-512.634616
 21
625.450284
 31
0.0
 11
-511.487400
 21
624.804450
 31
0.0
 11
-510.395734
 21
624.416950
 31
0.0
 11
-509.359616
 21
624.287788
 31
0.0
 11
-508.644347
 21
624.386395
 31
0.0
 11
-508.215181
 21
624.682229
 31
0.0
 11
-508.072120
 21
625.175284
 31
0.0
 11
-508.122125
 21
625.460003
 31
0.0
 11
-508.272125
 21
625.697505
 31
0.0
 11
-508.522120
 21
625.887788
 31
0.0
 11
-508.794346
 21
626.003062
 31
0.0
 11
-509.227680
 21
626.132228
 31
0.0
 11
-509.822120
 21
626.275284
 31
0.0
  0
SPLINE
  5
35b
100
AcDbEntity
  8
Layer_1
 62
7
100
AcDbSpline
 70
0
 71
3
 72
19
 73
15
 74
13
 40
0.000000
 40
0.000000
 40
0.000000
 40
0.000000
 40
0.688321
 40
1.200702
 40
1.538019
 40
2.375404
 40
3.133568
 40
3.870783
 40
4.291978
 40
4.748889
 40
5.249590
 40
6.229993
 40
7.182492
 40
8.169638
 40
8.169638
 40
8.169638
 40
8.169638
 10
-509.822120
 20
626.275284
 30
0.0
 10
-510.045978
 20
626.325566
 30
0.0
 10
-510.436475
 20
626.413278
 30
0.0
 10
-510.933788
 20
626.538566
 30
0.0
 10
-511.470522
 20
626.707614
 30
0.0
 10
-512.049276
 20
627.006672
 30
0.0
 10
-512.639899
 20
627.526654
 30
0.0
 10
-512.975438
 20
628.083025
 30
0.0
 10
-513.142399
 20
628.596784
 30
0.0
 10
-513.219114
 20
629.051408
 30
0.0
 10
-513.251866
 20
629.697643
 30
0.0
 10
-513.161539
 20
630.510607
 30
0.0
 10
-512.811457
 20
631.435937
 30
0.0
 10
-512.404323
 20
631.942485
 30
0.0
 10
-512.197120
 20
632.200284
 30
0.0
 11
-509.822120
 21
626.275284
 31
0.0
 11
-510.492955
 21
626.429449
 31
0.0
 11
-510.988787
 21
626.558617
 31
0.0
 11
-511.309616
 21
626.662788
 31
0.0
 11
-512.052674
 21
627.048894
 31
0.0
 11
-512.615176
 21
627.557228
 31
0.0
 11
-512.997120
 21
628.187788
 31
0.0
 11
-513.129066
 21
628.587782
 31
0.0
 11
-513.208232
 21
629.037782
 31
0.0
 11
-513.234616
 21
629.537788
 31
0.0
 11
-513.119342
 21
630.511391
 31
0.0
 11
-512.773508
 21
631.398889
 31
0.0
 11
-512.197120
 21
632.200284
 31
0.0
  0
LWPOLYLINE
  5
35c
100
AcDbEntity
  8
Layer_1
 62
7
100
AcDbPolyline
 90
2
 70
1
 10
-514.122120
 20
622.550284
 30
0.0
 10
-512.634616
 20
625.450284
 30
0.0
  0
SPLINE
  5
35d
100
AcDbEntity
  8
Layer_1
 62
7
100
AcDbSpline
 70
0
 71
3
 72
13
 73
9
 74
7
 40
0.000000
 40
0.000000
 40
0.000000
 40
0.000000
 40
1.329843
 40
2.788707
 40
4.493693
 40
5.775565
 40
7.054407
 40
8.352281
 40
8.352281
 40
8.352281
 40
8.352281
 10
-512.197120
 20
632.200284
 30
0.0
 10
-511.861798
 20
632.496795
 30
0.0
 10
-511.158622
 20
633.118586
 30
0.0
 10
-509.693828
 20
633.574614
 30
0.0
 10
-508.213531
 20
633.699566
 30
0.0
 10
-506.790871
 20
633.606140
 30
0.0
 10
-505.522628
 20
633.361500
 30
0.0
 10
-504.715939
 20
633.063093
 30
0.0
 10
-504.309616
 20
632.912788
 30
0.0
 11
-512.197120
 21
632.200284
 31
0.0
 11
-511.144344
 21
633.012778
 31
0.0
 11
-509.769344
 21
633.500278
 31
0.0
 11
-508.072120
 21
633.662788
 31
0.0
 11
-506.792960
 21
633.579444
 31
0.0
 11
-505.538792
 21
633.329444
 31
0.0
 11
-504.309616
 21
632.912788
 31
0.0
  0
SPLINE
  5
35e
100
AcDbEntity
  8
Layer_1
 62
7
100
AcDbSpline
 70
0
 71
3
 72
16
 73
12
 74
10
 40
0.000000
 40
0.000000
 40
0.000000
 40
0.000000
 40
0.823040
 40
1.582072
 40
2.296168
 40
2.990130
 40
3.490562
 40
3.982390
 40
4.230362
 40
4.497158
 40
4.825469
 40
4.825469
 40
4.825469
 40
4.825469
 10
-505.697120
 20
630.262788
 30
0.0
 10
-505.945851
 20
630.379391
 30
0.0
 10
-506.423968
 20
630.603530
 30
0.0
 10
-507.168129
 20
630.803191
 30
0.0
 10
-507.888864
 20
630.869183
 30
0.0
 10
-508.531812
 20
630.824473
 30
0.0
 10
-509.048083
 20
630.516883
 30
0.0
 10
-509.164440
 20
630.080274
 30
0.0
 10
-509.096632
 20
629.743945
 30
0.0
 10
-508.906912
 20
629.521395
 30
0.0
 10
-508.731428
 20
629.427232
 30
0.0
 10
-508.634616
 20
629.375284
 30
0.0
 11
-505.697120
 21
630.262788
 31
0.0
 11
-506.452680
 21
630.589169
 31
0.0
 11
-507.186014
 21
630.785001
 31
0.0
 11
-507.897120
 21
630.850284
 31
0.0
 11
-508.584624
 21
630.755835
 31
0.0
 11
-508.997122
 21
630.472503
 31
0.0
 11
-509.134616
 21
630.000284
 31
0.0
 11
-509.079066
 21
629.758615
 31
0.0
 11
-508.912400
 21
629.550281
 31
0.0
 11
-508.634616
 21
629.375284
 31
0.0
  0
SPLINE
  5
35f
100
AcDbEntity
  8
Layer_1
 62
7
100
AcDbSpline
 70
0
 71
3
 72
10
 73
6
 74
4
 40
0.000000
 40
0.000000
 40
0.000000
 40
0.000000
 40
0.262251
 40
0.718017
 40
1.368823
 40
1.368823
 40
1.368823
 40
1.368823
 10
-508.634616
 20
629.375284
 30
0.0
 10
-508.552632
 20
629.344752
 30
0.0
 10
-508.328167
 20
629.261158
 30
0.0
 10
-507.882187
 20
629.160069
 30
0.0
 10
-507.521655
 20
629.083072
 30
0.0
 10
-507.309616
 20
629.037788
 30
0.0
 11
-508.634616
 21
629.375284
 31
0.0
 11
-508.387400
 21
629.287765
 31
0.0
 11
-507.945734
 21
629.175274
 31
0.0
 11
-507.309616
 21
629.037788
 31
0.0
  0
SPLINE
  5
360
100
AcDbEntity
  8
Layer_1
 62
7
100
AcDbSpline
 70
0
 71
3
 72
10
 73
6
 74
4
 40
0.000000
 40
0.000000
 40
0.000000
 40
0.000000
 40
1.016898
 40
1.885885
 40
2.636452
 40
2.636452
 40
2.636452
 40
2.636452
 10
-507.309616
 20
629.037788
 30
0.0
 10
-506.980401
 20
628.957533
 30
0.0
 10
-506.369856
 20
628.808696
 30
0.0
 10
-505.550437
 20
628.462699
 30
0.0
 10
-505.129633
 20
628.121099
 30
0.0
 10
-504.934616
 20
627.962788
 30
0.0
 11
-507.309616
 21
629.037788
 31
0.0
 11
-506.329066
 21
628.768337
 31
0.0
 11
-505.537400
 21
628.410003
 31
0.0
 11
-504.934616
 21
627.962788
 31
0.0
  0
LWPOLYLINE
  5
361
100
AcDbEntity
  8
Layer_1
 62
7
100
AcDbPolyline
 90
2
 70
1
 10
-504.309616
 20
632.912788
 30
0.0
 10
-505.697120
 20
630.262788
 30
0.0
  0
SPLINE
  5
362
100
AcDbEntity
  8
Layer_1
 62
7
100
AcDbSpline
 70
0
 71
3
 72
10
 73
6
 74
4
 40
0.000000
 40
0.000000
 40
0.000000
 40
0.000000
 40
0.863312
 40
1.725248
 40
2.653647
 40
2.653647
 40
2.653647
 40
2.653647
 10
-504.934616
 20
627.962788
 30
0.0
 10
-504.742184
 20
627.746617
 30
0.0
 10
-504.357627
 20
627.314620
 30
0.0
 10
-504.027695
 20
626.470366
 30
0.0
 10
-503.991098
 20
625.872710
 30
0.0
 10
-503.972120
 20
625.562788
 30
0.0
 11
-504.934616
 21
627.962788
 31
0.0
 11
-504.399901
 21
627.285006
 31
0.0
 11
-504.079069
 21
626.485006
 31
0.0
 11
-503.972120
 21
625.562788
 31
0.0
  0
SPLINE
  5
363
100
AcDbEntity
  8
Layer_1
 62
7
100
AcDbSpline
 70
0
 71
3
 72
22
 73
18
 74
16
 40
0.000000
 40
0.000000
 40
0.000000
 40
0.000000
 40
1.089616
 40
2.116266
 40
3.166874
 40
4.232742
 40
5.294656
 40
6.422202
 40
7.549838
 40
8.612478
 40
9.680345
 40
10.732559
 40
11.757295
 40
12.840707
 40
13.874455
 40
14.877099
 40
15.943588
 40
15.943588
 40
15.943588
 40
15.943588
 10
-601.234616
 20
593.337788
 30
0.0
 10
-601.258059
 20
592.973081
 30
0.0
 10
-601.303590
 20
592.264743
 30
0.0
 10
-601.735272
 20
591.277383
 30
0.0
 10
-602.420837
 20
590.470460
 30
0.0
 10
-603.294561
 20
589.850499
 30
0.0
 10
-604.325451
 20
589.472975
 30
0.0
 10
-605.434656
 20
589.362745
 30
0.0
 10
-606.544043
 20
589.473399
 30
0.0
 10
-607.575558
 20
589.853286
 30
0.0
 10
-608.447407
 20
590.476899
 30
0.0
 10
-609.135954
 20
591.284983
 30
0.0
 10
-609.553783
 20
592.269437
 30
0.0
 10
-609.678220
 20
593.321466
 30
0.0
 10
-609.545345
 20
594.364369
 30
0.0
 10
-609.094819
 20
595.322551
 30
0.0
 10
-608.593177
 20
595.802767
 30
0.0
 10
-608.334616
 20
596.050284
 30
0.0
 11
-601.234616
 21
593.337788
 31
0.0
 11
-601.369348
 21
592.256534
 31
0.0
 11
-601.773514
 21
591.312786
 31
0.0
 11
-602.447120
 21
590.506540
 31
0.0
 11
-603.317956
 21
589.891953
 31
0.0
 11
-604.313790
 21
589.523201
 31
0.0
 11
-605.434616
 21
589.400284
 31
0.0
 11
-606.555456
 21
589.523895
 31
0.0
 11
-607.551290
 21
589.894729
 31
0.0
 11
-608.422120
 21
590.512788
 31
0.0
 11
-609.095733
 21
591.321119
 31
0.0
 11
-609.499899
 21
592.262785
 31
0.0
 11
-609.634616
 21
593.337788
 31
0.0
 11
-609.490176
 21
594.361395
 31
0.0
 11
-609.056842
 21
595.265561
 31
0.0
 11
-608.334616
 21
596.050284
 31
0.0
  0
SPLINE
  5
364
100
AcDbEntity
  8
Layer_1
 62
7
100
AcDbSpline
 70
0
 71
3
 72
25
 73
21
 74
19
 40
0.000000
 40
0.000000
 40
0.000000
 40
0.000000
 40
0.771710
 40
1.515539
 40
2.303017
 40
3.291240
 40
4.225431
 40
5.184377
 40
6.158360
 40
7.129322
 40
8.161176
 40
9.186803
 40
10.155810
 40
11.131502
 40
12.092674
 40
13.027689
 40
14.015999
 40
14.864265
 40
15.609854
 40
16.342617
 40
16.342617
 40
16.342617
 40
16.342617
 10
-608.334616
 20
596.050284
 30
0.0
 10
-608.521695
 20
596.229699
 30
0.0
 10
-608.889093
 20
596.582047
 30
0.0
 10
-609.210628
 20
597.300316
 30
0.0
 10
-609.307311
 20
598.142060
 30
0.0
 10
-609.198002
 20
599.049654
 30
0.0
 10
-608.817351
 20
599.947082
 30
0.0
 10
-608.188756
 20
600.683313
 30
0.0
 10
-607.392297
 20
601.250946
 30
0.0
 10
-606.449305
 20
601.596279
 30
0.0
 10
-605.436704
 20
601.697094
 30
0.0
 10
-604.424720
 20
601.595996
 30
0.0
 10
-603.484407
 20
601.249929
 30
0.0
 10
-602.686808
 20
600.683095
 30
0.0
 10
-602.055096
 20
599.947725
 30
0.0
 10
-601.670598
 20
599.050101
 30
0.0
 10
-601.563544
 20
598.121438
 30
0.0
 10
-601.653088
 20
597.259982
 30
0.0
 10
-601.970998
 20
596.524417
 30
0.0
 10
-602.356193
 20
596.207411
 30
0.0
 10
-602.547120
 20
596.050284
 30
0.0
 11
-608.334616
 21
596.050284
 31
0.0
 11
-608.855454
 21
596.619726
 31
0.0
 11
-609.167954
 21
597.294726
 31
0.0
 11
-609.272120
 21
598.075284
 31
0.0
 11
-609.149203
 21
599.055833
 31
0.0
 11
-608.780453
 21
599.914167
 31
0.0
 11
-608.165872
 21
600.650284
 31
0.0
 11
-607.370736
 21
601.212778
 31
0.0
 11
-606.460318
 21
601.550278
 31
0.0
 11
-605.434616
 21
601.662788
 31
0.0
 11
-604.415178
 21
601.550278
 31
0.0
 11
-603.506846
 21
601.212778
 31
0.0
 11
-602.709616
 21
600.650284
 31
0.0
 11
-602.091568
 21
599.914167
 31
0.0
 11
-601.720736
 21
599.055833
 31
0.0
 11
-601.597120
 21
598.075284
 31
0.0
 11
-601.702680
 21
597.233612
 31
0.0
 11
-602.019346
 21
596.558612
 31
0.0
 11
-602.547120
 21
596.050284
 31
0.0
  0
LWPOLYLINE
  5
365
100
AcDbEntity
  8
Layer_1
 62
7
100
AcDbPolyline
 90
2
 70
1
 10
-503.972120
 20
625.562788
 30
0.0
 10
-503.972120
 20
625.562788
 30
0.0
  0
SPLINE
  5
366
100
AcDbEntity
  8
Layer_1
 62
7
100
AcDbSpline
 70
0
 71
3
 72
10
 73
6
 74
4
 40
0.000000
 40
0.000000
 40
0.000000
 40
0.000000
 40
1.059049
 40
2.063500
 40
3.113948
 40
3.113948
 40
3.113948
 40
3.113948
 10
-602.547120
 20
596.050284
 30
0.0
 10
-602.286688
 20
595.808992
 30
0.0
 10
-601.779251
 20
595.338847
 30
0.0
 10
-601.312179
 20
594.376263
 30
0.0
 10
-601.260853
 20
593.689074
 30
0.0
 10
-601.234616
 20
593.337788
 30
0.0
 11
-602.547120
 21
596.050284
 31
0.0
 11
-601.817959
 21
595.282228
 31
0.0
 11
-601.380459
 21
594.378062
 31
0.0
 11
-601.234616
 21
593.337788
 31
0.0
  0
LWPOLYLINE
  5
367
100
AcDbEntity
  8
Layer_1
 62
7
100
AcDbPolyline
 90
2
 70
1
 10
-601.234616
 20
593.337788
 30
0.0
 10
-601.234616
 20
593.337788
 30
0.0
  0
SPLINE
  5
368
100
AcDbEntity
  8
Layer_1
 62
7
100
AcDbSpline
 70
0
 71
3
 72
31
 73
27
 74
25
 40
0.000000
 40
0.000000
 40
0.000000
 40
0.000000
 40
0.320592
 40
0.632453
 40
0.958921
 40
1.285381
 40
1.597239
 40
1.917831
 40
2.239124
 40
2.552906
 40
2.882099
 40
3.210724
 40
3.523397
 40
3.844076
 40
4.165451
 40
4.480039
 40
4.811375
 40
5.142713
 40
5.457304
 40
5.778683
 40
6.099361
 40
6.412033
 40
6.740656
 40
7.069853
 40
7.383634
 40
7.704921
 40
7.704921
 40
7.704921
 40
7.704921
 10
-604.209616
 20
598.000284
 30
0.0
 10
-604.216923
 20
598.107559
 30
0.0
 10
-604.231338
 20
598.319189
 30
0.0
 10
-604.361543
 20
598.617782
 30
0.0
 10
-604.563297
 20
598.871356
 30
0.0
 10
-604.817186
 20
599.074277
 30
0.0
 10
-605.115693
 20
599.200272
 30
0.0
 10
-605.434862
 20
599.237993
 30
0.0
 10
-605.754605
 20
599.200102
 30
0.0
 10
-606.055011
 20
599.074055
 30
0.0
 10
-606.311683
 20
598.871545
 30
0.0
 10
-606.518193
 20
598.618376
 30
0.0
 10
-606.646603
 20
598.319559
 30
0.0
 10
-606.685071
 20
598.000044
 30
0.0
 10
-606.646429
 20
597.679933
 30
0.0
 10
-606.517975
 20
597.379306
 30
0.0
 10
-606.311871
 20
597.123035
 30
0.0
 10
-606.055603
 20
596.916927
 30
0.0
 10
-605.754970
 20
596.788471
 30
0.0
 10
-605.434863
 20
596.749840
 30
0.0
 10
-605.115325
 20
596.788298
 30
0.0
 10
-604.816588
 20
596.916708
 30
0.0
 10
-604.563111
 20
597.123229
 30
0.0
 10
-604.361776
 20
597.379895
 30
0.0
 10
-604.231480
 20
597.680296
 30
0.0
 10
-604.216961
 20
597.892784
 30
0.0
 10
-604.209616
 20
598.000284
 30
0.0
 11
-604.209616
 21
598.000284
 31
0.0
 11
-604.249899
 21
598.318335
 31
0.0
 11
-604.370733
 21
598.605835
 31
0.0
 11
-604.572120
 21
598.862788
 31
0.0
 11
-604.829067
 21
599.064169
 31
0.0
 11
-605.116565
 21
599.185001
 31
0.0
 11
-605.434616
 21
599.225284
 31
0.0
 11
-605.753373
 21
599.185001
 31
0.0
 11
-606.042957
 21
599.064169
 31
0.0
 11
-606.303368
 21
598.862788
 31
0.0
 11
-606.508233
 21
598.605835
 31
0.0
 11
-606.631149
 21
598.318335
 31
0.0
 11
-606.672120
 21
598.000284
 31
0.0
 11
-606.631149
 21
597.681532
 31
0.0
 11
-606.508233
 21
597.391950
 31
0.0
 11
-606.303368
 21
597.131540
 31
0.0
 11
-606.042957
 21
596.926670
 31
0.0
 11
-605.753373
 21
596.803754
 31
0.0
 11
-605.434616
 21
596.762788
 31
0.0
 11
-605.116565
 21
596.803754
 31
0.0
 11
-604.829067
 21
596.926670
 31
0.0
 11
-604.572120
 21
597.131540
 31
0.0
 11
-604.370733
 21
597.391950
 31
0.0
 11
-604.249899
 21
597.681532
 31
0.0
 11
-604.209616
 21
598.000284
 31
0.0
  0
LWPOLYLINE
  5
369
100
AcDbEntity
  8
Layer_1
 62
7
100
AcDbPolyline
 90
2
 70
1
 10
-604.209616
 20
598.000284
 30
0.0
 10
-604.209616
 20
598.000284
 30
0.0
  0
LWPOLYLINE
  5
36a
100
AcDbEntity
  8
Layer_1
 62
7
100
AcDbPolyline
 90
2
 70
1
 10
-603.947120
 20
593.312788
 30
0.0
 10
-603.947120
 20
593.312788
 30
0.0
  0
SPLINE
  5
36b
100
AcDbEntity
  8
Layer_1
 62
7
100
AcDbSpline
 70
0
 71
3
 72
31
 73
27
 74
25
 40
0.000000
 40
0.000000
 40
0.000000
 40
0.000000
 40
0.379694
 40
0.756655
 40
1.159020
 40
1.561391
 40
1.938353
 40
2.318041
 40
2.703939
 40
3.082814
 40
3.483548
 40
3.883770
 40
4.259907
 40
4.639509
 40
5.025316
 40
5.403370
 40
5.801951
 40
6.200528
 40
6.578584
 40
6.964393
 40
7.343990
 40
7.720127
 40
8.120351
 40
8.521084
 40
8.899958
 40
9.285855
 40
9.285855
 40
9.285855
 40
9.285855
 10
-603.947120
 20
593.312788
 30
0.0
 10
-603.956411
 20
593.439852
 30
0.0
 10
-603.974927
 20
593.693067
 30
0.0
 10
-604.137916
 20
594.051691
 30
0.0
 10
-604.386932
 20
594.360144
 30
0.0
 10
-604.695798
 20
594.610691
 30
0.0
 10
-605.054319
 20
594.768309
 30
0.0
 10
-605.436698
 20
594.816281
 30
0.0
 10
-605.819696
 20
594.768690
 30
0.0
 10
-606.181098
 20
594.611801
 30
0.0
 10
-606.488365
 20
594.360330
 30
0.0
 10
-606.735443
 20
594.051100
 30
0.0
 10
-606.890685
 20
593.692701
 30
0.0
 10
-606.937863
 20
593.310713
 30
0.0
 10
-606.891059
 20
592.928073
 30
0.0
 10
-606.736541
 20
592.566916
 30
0.0
 10
-606.488558
 20
592.258847
 30
0.0
 10
-606.180489
 20
592.010866
 30
0.0
 10
-605.819331
 20
591.856347
 30
0.0
 10
-605.436699
 20
591.809540
 30
0.0
 10
-605.054683
 20
591.856721
 30
0.0
 10
-604.696393
 20
592.011967
 30
0.0
 10
-604.386740
 20
592.259034
 30
0.0
 10
-604.136816
 20
592.566311
 30
0.0
 10
-603.974461
 20
592.927709
 30
0.0
 10
-603.956289
 20
593.183645
 30
0.0
 10
-603.947120
 20
593.312788
 30
0.0
 11
-603.947120
 21
593.312788
 31
0.0
 11
-603.997125
 21
593.689174
 31
0.0
 11
-604.147125
 21
594.035006
 31
0.0
 11
-604.397120
 21
594.350284
 31
0.0
 11
-604.712403
 21
594.600284
 31
0.0
 11
-605.058235
 21
594.750284
 31
0.0
 11
-605.434616
 21
594.800284
 31
0.0
 11
-605.817261
 21
594.750284
 31
0.0
 11
-606.165179
 21
594.600284
 31
0.0
 11
-606.478368
 21
594.350284
 31
0.0
 11
-606.724899
 21
594.035006
 31
0.0
 11
-606.872815
 21
593.689174
 31
0.0
 11
-606.922120
 21
593.312788
 31
0.0
 11
-606.872815
 21
592.930145
 31
0.0
 11
-606.724899
 21
592.582228
 31
0.0
 11
-606.478368
 21
592.269036
 31
0.0
 11
-606.165179
 21
592.022508
 31
0.0
 11
-605.817261
 21
591.874590
 31
0.0
 11
-605.434616
 21
591.825284
 31
0.0
 11
-605.058235
 21
591.874590
 31
0.0
 11
-604.712403
 21
592.022508
 31
0.0
 11
-604.397120
 21
592.269036
 31
0.0
 11
-604.147125
 21
592.582228
 31
0.0
 11
-603.997125
 21
592.930145
 31
0.0
 11
-603.947120
 21
593.312788
 31
0.0
  0
SPLINE
  5
36c
100
AcDbEntity
  8
Layer_1
 62
7
100
AcDbSpline
 70
0
 71
3
 72
13
 73
9
 74
7
 40
0.000000
 40
0.000000
 40
0.000000
 40
0.000000
 40
0.621573
 40
1.220891
 40
1.811553
 40
3.017245
 40
4.050747
 40
5.124058
 40
5.124058
 40
5.124058
 40
5.124058
 10
-574.334616
 20
597.462788
 30
0.0
 10
-574.525071
 20
597.545158
 30
0.0
 10
-574.899162
 20
597.706950
 30
0.0
 10
-575.491001
 20
597.844254
 30
0.0
 10
-576.288804
 20
597.903092
 30
0.0
 10
-577.240353
 20
597.787497
 30
0.0
 10
-578.242120
 20
597.200532
 30
0.0
 10
-578.551833
 20
596.554436
 30
0.0
 10
-578.709616
 20
596.225284
 30
0.0
 11
-574.334616
 21
597.462788
 31
0.0
 11
-574.912403
 21
597.691948
 31
0.0
 11
-575.495735
 21
597.829446
 31
0.0
 11
-576.084616
 21
597.875284
 31
0.0
 11
-577.276288
 21
597.691945
 31
0.0
 11
-578.151288
 21
597.141945
 31
0.0
 11
-578.709616
 21
596.225284
 31
0.0
  0
LWPOLYLINE
  5
36d
100
AcDbEntity
  8
Layer_1
 62
7
100
AcDbPolyline
 90
13
 70
1
 10
-584.572120
 20
597.875284
 30
0.0
 10
-586.909616
 20
597.875284
 30
0.0
 10
-586.909616
 20
589.650284
 30
0.0
 10
-591.009616
 20
589.650284
 30
0.0
 10
-591.009616
 20
597.875284
 30
0.0
 10
-592.359616
 20
597.875284
 30
0.0
 10
-592.359616
 20
601.250284
 30
0.0
 10
-591.009616
 20
601.250284
 30
0.0
 10
-591.009616
 20
604.737788
 30
0.0
 10
-586.909616
 20
604.737788
 30
0.0
 10
-586.909616
 20
601.250284
 30
0.0
 10
-584.572120
 20
601.250284
 30
0.0
 10
-584.572120
 20
597.875284
 30
0.0
  0
SPLINE
  5
36e
100
AcDbEntity
  8
Layer_1
 62
7
100
AcDbSpline
 70
0
 71
3
 72
10
 73
6
 74
4
 40
0.000000
 40
0.000000
 40
0.000000
 40
0.000000
 40
0.463027
 40
1.005735
 40
1.635393
 40
1.635393
 40
1.635393
 40
1.635393
 10
-578.709616
 20
596.225284
 30
0.0
 10
-578.755414
 20
596.077639
 30
0.0
 10
-578.854892
 20
595.756941
 30
0.0
 10
-578.921602
 20
595.213226
 30
0.0
 10
-578.930069
 20
594.822591
 30
0.0
 10
-578.934616
 20
594.612788
 30
0.0
 11
-578.709616
 21
596.225284
 31
0.0
 11
-578.834621
 21
595.779450
 31
0.0
 11
-578.909621
 21
595.241950
 31
0.0
 11
-578.934616
 21
594.612788
 31
0.0
  0
SPLINE
  5
36f
100
AcDbEntity
  8
Layer_1
 62
7
100
AcDbSpline
 70
0
 71
3
 72
10
 73
6
 74
4
 40
0.000000
 40
0.000000
 40
0.000000
 40
0.000000
 40
0.756754
 40
1.431612
 40
2.040242
 40
2.040242
 40
2.040242
 40
2.040242
 10
-578.934616
 20
599.350284
 30
0.0
 10
-578.791787
 20
599.558263
 30
0.0
 10
-578.521586
 20
599.951714
 30
0.0
 10
-578.055145
 20
600.454068
 30
0.0
 10
-577.702052
 20
600.697400
 30
0.0
 10
-577.534616
 20
600.812788
 30
0.0
 11
-578.934616
 21
599.350284
 31
0.0
 11
-578.490176
 21
599.962778
 31
0.0
 11
-578.023510
 21
600.450278
 31
0.0
 11
-577.534616
 21
600.812788
 31
0.0
  0
LWPOLYLINE
  5
370
100
AcDbEntity
  8
Layer_1
 62
7
100
AcDbPolyline
 90
6
 70
1
 10
-578.934616
 20
594.612788
 30
0.0
 10
-578.934616
 20
589.650284
 30
0.0
 10
-583.034616
 20
589.650284
 30
0.0
 10
-583.034616
 20
601.250284
 30
0.0
 10
-578.934616
 20
601.250284
 30
0.0
 10
-578.934616
 20
599.350284
 30
0.0
  0
SPLINE
  5
371
100
AcDbEntity
  8
Layer_1
 62
7
100
AcDbSpline
 70
0
 71
3
 72
13
 73
9
 74
7
 40
0.000000
 40
0.000000
 40
0.000000
 40
0.000000
 40
0.790384
 40
1.615006
 40
2.500857
 40
2.734220
 40
3.001179
 40
3.301911
 40
3.301911
 40
3.301911
 40
3.301911
 10
-577.534616
 20
600.812788
 30
0.0
 10
-577.299637
 20
600.933842
 30
0.0
 10
-576.819500
 20
601.181194
 30
0.0
 10
-576.000204
 20
601.371297
 30
0.0
 10
-575.352102
 20
601.418665
 30
0.0
 10
-574.890057
 20
601.409390
 30
0.0
 10
-574.623306
 20
601.396692
 30
0.0
 10
-574.434589
 20
601.382687
 30
0.0
 10
-574.334616
 20
601.375268
 30
0.0
 11
-577.534616
 21
600.812788
 31
0.0
 11
-576.817955
 21
601.146110
 31
0.0
 11
-576.017955
 21
601.346110
 31
0.0
 11
-575.134616
 21
601.412788
 31
0.0
 11
-574.901290
 21
601.408618
 31
0.0
 11
-574.634624
 21
601.396121
 31
0.0
 11
-574.334616
 21
601.375268
 31
0.0
  0
SPLINE
  5
372
100
AcDbEntity
  8
Layer_1
 62
7
100
AcDbSpline
 70
0
 71
3
 72
10
 73
6
 74
4
 40
0.000000
 40
0.000000
 40
0.000000
 40
0.000000
 40
1.542069
 40
3.019268
 40
4.529840
 40
4.529840
 40
4.529840
 40
4.529840
 10
-558.984616
 20
595.450284
 30
0.0
 10
-559.017141
 20
594.935486
 30
0.0
 10
-559.080824
 20
593.927545
 30
0.0
 10
-559.629719
 20
592.486915
 30
0.0
 10
-560.255656
 20
591.707067
 30
0.0
 10
-560.572120
 20
591.312788
 30
0.0
 11
-558.984616
 21
595.450284
 31
0.0
 11
-559.161016
 21
593.918337
 31
0.0
 11
-559.690184
 21
592.539171
 31
0.0
 11
-560.572120
 21
591.312788
 31
0.0
  0
SPLINE
  5
373
100
AcDbEntity
  8
Layer_1
 62
7
100
AcDbSpline
 70
0
 71
3
 72
13
 73
9
 74
7
 40
0.000000
 40
0.000000
 40
0.000000
 40
0.000000
 40
1.864331
 40
3.791768
 40
5.941957
 40
8.099062
 40
10.030382
 40
11.895789
 40
11.895789
 40
11.895789
 40
11.895789
 10
-560.572120
 20
591.312788
 30
0.0
 10
-561.034580
 20
590.889756
 30
0.0
 10
-561.975154
 20
590.029372
 30
0.0
 10
-563.882066
 20
589.345067
 30
0.0
 10
-565.961945
 20
589.143032
 30
0.0
 10
-568.042993
 20
589.345001
 30
0.0
 10
-569.954523
 20
590.028504
 30
0.0
 10
-570.896704
 20
590.889677
 30
0.0
 10
-571.359616
 20
591.312788
 30
0.0
 11
-560.572120
 21
591.312788
 31
0.0
 11
-562.026293
 21
590.146121
 31
0.0
 11
-563.822125
 21
589.446121
 31
0.0
 11
-565.959616
 21
589.212788
 31
0.0
 11
-568.104064
 21
589.446121
 31
0.0
 11
-569.904064
 21
590.146121
 31
0.0
 11
-571.359616
 21
591.312788
 31
0.0
  0
SPLINE
  5
374
100
AcDbEntity
  8
Layer_1
 62
7
100
AcDbSpline
 70
0
 71
3
 72
13
 73
9
 74
7
 40
0.000000
 40
0.000000
 40
0.000000
 40
0.000000
 40
1.519613
 40
3.027982
 40
4.625252
 40
6.087484
 40
7.527397
 40
9.039801
 40
9.039801
 40
9.039801
 40
9.039801
 10
-571.359616
 20
591.312788
 30
0.0
 10
-571.678040
 20
591.710650
 30
0.0
 10
-572.312531
 20
592.503431
 30
0.0
 10
-572.837014
 20
593.980703
 30
0.0
 10
-573.004557
 20
595.504959
 30
0.0
 10
-572.832948
 20
597.007795
 30
0.0
 10
-572.288544
 20
598.400906
 30
0.0
 10
-571.666023
 20
599.169206
 30
0.0
 10
-571.347120
 20
599.562788
 30
0.0
 11
-571.359616
 21
591.312788
 31
0.0
 11
-572.241563
 21
592.550283
 31
0.0
 11
-572.770731
 21
593.962783
 31
0.0
 11
-572.947120
 21
595.550284
 31
0.0
 11
-572.769342
 21
597.001668
 31
0.0
 11
-572.236008
 21
598.339169
 31
0.0
 11
-571.347120
 21
599.562788
 31
0.0
  0
SPLINE
  5
375
100
AcDbEntity
  8
Layer_1
 62
7
100
AcDbSpline
 70
0
 71
3
 72
13
 73
9
 74
7
 40
0.000000
 40
0.000000
 40
0.000000
 40
0.000000
 40
1.883843
 40
3.851648
 40
6.065522
 40
8.123388
 40
10.009746
 40
11.879509
 40
11.879509
 40
11.879509
 40
11.879509
 10
-571.347120
 20
599.562788
 30
0.0
 10
-570.878358
 20
599.988948
 30
0.0
 10
-569.919941
 20
600.860263
 30
0.0
 10
-567.967456
 20
601.541974
 30
0.0
 10
-565.887164
 20
601.746225
 30
0.0
 10
-563.831159
 20
601.539646
 30
0.0
 10
-561.978217
 20
600.839189
 30
0.0
 10
-561.047779
 20
599.987000
 30
0.0
 10
-560.584616
 20
599.562788
 30
0.0
 11
-571.347120
 21
599.562788
 31
0.0
 11
-569.873511
 21
600.736390
 31
0.0
 11
-568.036011
 21
601.440556
 31
0.0
 11
-565.834616
 21
601.675284
 31
0.0
 11
-563.790180
 21
601.440556
 31
0.0
 11
-562.040182
 21
600.736390
 31
0.0
 11
-560.584616
 21
599.562788
 31
0.0
  0
LWPOLYLINE
  5
376
100
AcDbEntity
  8
Layer_1
 62
7
100
AcDbPolyline
 90
2
 70
1
 10
-574.334616
 20
601.375268
 30
0.0
 10
-574.334616
 20
597.462788
 30
0.0
  0
SPLINE
  5
377
100
AcDbEntity
  8
Layer_1
 62
7
100
AcDbSpline
 70
0
 71
3
 72
10
 73
6
 74
4
 40
0.000000
 40
0.000000
 40
0.000000
 40
0.000000
 40
1.512395
 40
2.983324
 40
4.511753
 40
4.511753
 40
4.511753
 40
4.511753
 10
-560.584616
 20
599.562788
 30
0.0
 10
-560.265915
 20
599.169587
 30
0.0
 10
-559.637252
 20
598.393966
 30
0.0
 10
-559.082100
 20
596.961974
 30
0.0
 10
-559.017523
 20
595.960580
 30
0.0
 10
-558.984616
 20
595.450284
 30
0.0
 11
-560.584616
 21
599.562788
 31
0.0
 11
-559.695739
 21
598.339171
 31
0.0
 11
-559.162405
 21
596.968337
 31
0.0
 11
-558.984616
 21
595.450284
 31
0.0
  0
SPLINE
  5
378
100
AcDbEntity
  8
Layer_1
 62
7
100
AcDbSpline
 70
0
 71
3
 72
16
 73
12
 74
10
 40
0.000000
 40
0.000000
 40
0.000000
 40
0.000000
 40
0.717244
 40
1.405547
 40
2.117569
 40
2.830804
 40
3.521369
 40
4.239820
 40
5.044007
 40
5.804719
 40
6.593426
 40
6.593426
 40
6.593426
 40
6.593426
 10
-563.247120
 20
595.450284
 30
0.0
 10
-563.262854
 20
595.690285
 30
0.0
 10
-563.293687
 20
596.160603
 30
0.0
 10
-563.577339
 20
596.821717
 30
0.0
 10
-564.021269
 20
597.376568
 30
0.0
 10
-564.583791
 20
597.814776
 30
0.0
 10
-565.247762
 20
598.085004
 30
0.0
 10
-565.988526
 20
598.167521
 30
0.0
 10
-566.751330
 20
598.073911
 30
0.0
 10
-567.486297
 20
597.750165
 30
0.0
 10
-567.849655
 20
597.377491
 30
0.0
 10
-568.034616
 20
597.187788
 30
0.0
 11
-563.247120
 21
595.450284
 31
0.0
 11
-563.335320
 21
596.162084
 31
0.0
 11
-563.599904
 21
596.797502
 31
0.0
 11
-564.040872
 21
597.356540
 31
0.0
 11
-564.606849
 21
597.790561
 31
0.0
 11
-565.246429
 21
598.050977
 31
0.0
 11
-565.959616
 21
598.137788
 31
0.0
 11
-566.756845
 21
598.032226
 31
0.0
 11
-567.448513
 21
597.715558
 31
0.0
 11
-568.034616
 21
597.187788
 31
0.0
  0
SPLINE
  5
379
100
AcDbEntity
  8
Layer_1
 62
7
100
AcDbSpline
 70
0
 71
3
 72
13
 73
9
 74
7
 40
0.000000
 40
0.000000
 40
0.000000
 40
0.000000
 40
0.642944
 40
1.261311
 40
1.891848
 40
2.529287
 40
3.151560
 40
3.795646
 40
3.795646
 40
3.795646
 40
3.795646
 10
-568.034616
 20
597.187788
 30
0.0
 10
-568.164413
 20
597.016005
 30
0.0
 10
-568.419047
 20
596.679007
 30
0.0
 10
-568.637757
 20
596.077701
 30
0.0
 10
-568.708269
 20
595.447971
 30
0.0
 10
-568.637892
 20
594.816989
 30
0.0
 10
-568.419885
 20
594.211124
 30
0.0
 10
-568.164505
 20
593.872508
 30
0.0
 10
-568.034616
 20
593.700284
 30
0.0
 11
-568.034616
 21
597.187788
 31
0.0
 11
-568.395734
 21
596.655838
 31
0.0
 11
-568.612400
 21
596.076671
 31
0.0
 11
-568.684616
 21
595.450284
 31
0.0
 11
-568.612400
 21
594.816948
 31
0.0
 11
-568.395734
 21
594.233614
 31
0.0
 11
-568.034616
 21
593.700284
 31
0.0
  0
LWPOLYLINE
  5
37a
100
AcDbEntity
  8
Layer_1
 62
7
100
AcDbPolyline
 90
2
 70
1
 10
-558.984616
 20
595.450284
 30
0.0
 10
-558.984616
 20
595.450284
 30
0.0
  0
LWPOLYLINE
  5
37b
100
AcDbEntity
  8
Layer_1
 62
7
100
AcDbPolyline
 90
2
 70
1
 10
-563.247120
 20
595.450284
 30
0.0
 10
-563.247120
 20
595.450284
 30
0.0
  0
LWPOLYLINE
  5
37c
100
AcDbEntity
  8
Layer_1
 62
7
100
AcDbPolyline
 90
5
 70
1
 10
-552.534616
 20
589.650284
 30
0.0
 10
-556.634616
 20
589.650284
 30
0.0
 10
-556.634616
 20
608.425284
 30
0.0
 10
-552.534616
 20
608.425284
 30
0.0
 10
-552.534616
 20
589.650284
 30
0.0
  0
SPLINE
  5
37d
100
AcDbEntity
  8
Layer_1
 62
7
100
AcDbSpline
 70
0
 71
3
 72
16
 73
12
 74
10
 40
0.000000
 40
0.000000
 40
0.000000
 40
0.000000
 40
0.788713
 40
1.549424
 40
2.353610
 40
3.078263
 40
3.770761
 40
4.482355
 40
5.193310
 40
5.884665
 40
6.608724
 40
6.608724
 40
6.608724
 40
6.608724
 10
-568.034616
 20
593.700284
 30
0.0
 10
-567.849655
 20
593.510585
 30
0.0
 10
-567.486300
 20
593.137921
 30
0.0
 10
-566.751330
 20
592.814057
 30
0.0
 10
-565.986452
 20
592.720660
 30
0.0
 10
-565.242967
 20
592.802644
 30
0.0
 10
-564.576298
 20
593.072275
 30
0.0
 10
-564.014465
 20
593.511405
 30
0.0
 10
-563.573614
 20
594.069082
 30
0.0
 10
-563.292981
 20
594.734446
 30
0.0
 10
-563.262641
 20
595.208024
 30
0.0
 10
-563.247120
 20
595.450284
 30
0.0
 11
-568.034616
 21
593.700284
 31
0.0
 11
-567.448513
 21
593.172505
 31
0.0
 11
-566.756845
 21
592.855839
 31
0.0
 11
-565.959616
 21
592.750284
 31
0.0
 11
-565.240181
 21
592.837089
 31
0.0
 11
-564.598515
 21
593.097507
 31
0.0
 11
-564.034616
 21
593.531540
 31
0.0
 11
-563.597126
 21
594.091950
 31
0.0
 11
-563.334626
 21
594.731532
 31
0.0
 11
-563.247120
 21
595.450284
 31
0.0
  0
SPLINE
  5
37e
100
AcDbEntity
  8
Layer_1
 62
7
100
AcDbSpline
 70
0
 71
3
 72
10
 73
6
 74
4
 40
0.000000
 40
0.000000
 40
0.000000
 40
0.000000
 40
1.167655
 40
2.268476
 40
3.399219
 40
3.399219
 40
3.399219
 40
3.399219
 10
-533.397120
 20
593.562788
 30
0.0
 10
-533.423446
 20
593.172698
 30
0.0
 10
-533.474591
 20
592.414845
 30
0.0
 10
-533.937233
 20
591.346732
 30
0.0
 10
-534.458163
 20
590.809836
 30
0.0
 10
-534.722120
 20
590.537788
 30
0.0
 11
-533.397120
 21
593.562788
 31
0.0
 11
-533.544349
 21
592.404452
 31
0.0
 11
-533.986017
 21
591.396118
 31
0.0
 11
-534.722120
 21
590.537788
 31
0.0
  0
LWPOLYLINE
  5
37f
100
AcDbEntity
  8
Layer_1
 62
7
100
AcDbPolyline
 90
5
 70
1
 10
-545.634616
 20
589.650284
 30
0.0
 10
-549.734616
 20
589.650284
 30
0.0
 10
-549.734616
 20
608.425284
 30
0.0
 10
-545.634616
 20
608.425284
 30
0.0
 10
-545.634616
 20
589.650284
 30
0.0
  0
SPLINE
  5
380
100
AcDbEntity
  8
Layer_1
 62
7
100
AcDbSpline
 70
0
 71
3
 72
13
 73
9
 74
7
 40
0.000000
 40
0.000000
 40
0.000000
 40
0.000000
 40
1.345593
 40
2.809634
 40
4.481401
 40
6.064783
 40
7.673624
 40
9.361283
 40
9.361283
 40
9.361283
 40
9.361283
 10
-534.722120
 20
590.537788
 30
0.0
 10
-535.085414
 20
590.269251
 30
0.0
 10
-535.843981
 20
589.708540
 30
0.0
 10
-537.307800
 20
589.297483
 30
0.0
 10
-538.879643
 20
589.164759
 30
0.0
 10
-540.502739
 20
589.314137
 30
0.0
 10
-542.079968
 20
589.762516
 30
0.0
 10
-543.050336
 20
590.283542
 30
0.0
 10
-543.547120
 20
590.550284
 30
0.0
 11
-534.722120
 21
590.537788
 31
0.0
 11
-535.848512
 21
589.801675
 31
0.0
 11
-537.244344
 21
589.360009
 31
0.0
 11
-538.909616
 21
589.212788
 31
0.0
 11
-540.486008
 21
589.361398
 31
0.0
 11
-542.031842
 21
589.807230
 31
0.0
 11
-543.547120
 21
590.550284
 31
0.0
  0
SPLINE
  5
381
100
AcDbEntity
  8
Layer_1
 62
7
100
AcDbSpline
 70
0
 71
3
 72
19
 73
15
 74
13
 40
0.000000
 40
0.000000
 40
0.000000
 40
0.000000
 40
1.316513
 40
2.474913
 40
3.519051
 40
4.241085
 40
4.762334
 40
5.275725
 40
5.564802
 40
5.845706
 40
6.159879
 40
6.455507
 40
6.907681
 40
7.519092
 40
7.519092
 40
7.519092
 40
7.519092
 10
-542.059616
 20
593.450284
 30
0.0
 10
-541.684472
 20
593.221199
 30
0.0
 10
-540.979238
 20
592.790543
 30
0.0
 10
-539.867011
 20
592.386330
 30
0.0
 10
-538.893886
 20
592.260388
 30
0.0
 10
-538.125011
 20
592.314819
 30
0.0
 10
-537.584080
 20
592.636462
 30
0.0
 10
-537.471457
 20
593.102276
 30
0.0
 10
-537.526881
 20
593.463960
 30
0.0
 10
-537.691678
 20
593.718817
 30
0.0
 10
-537.935939
 20
593.896821
 30
0.0
 10
-538.267155
 20
594.025470
 30
0.0
 10
-538.702897
 20
594.150082
 30
0.0
 10
-539.048467
 20
594.229582
 30
0.0
 10
-539.247120
 20
594.275284
 30
0.0
 11
-542.059616
 21
593.450284
 31
0.0
 11
-540.912400
 21
592.804450
 31
0.0
 11
-539.820734
 21
592.416950
 31
0.0
 11
-538.784616
 21
592.287788
 31
0.0
 11
-538.069347
 21
592.386395
 31
0.0
 11
-537.640181
 21
592.682229
 31
0.0
 11
-537.497120
 21
593.175284
 31
0.0
 11
-537.547125
 21
593.460003
 31
0.0
 11
-537.697125
 21
593.697505
 31
0.0
 11
-537.947120
 21
593.887788
 31
0.0
 11
-538.219346
 21
594.003062
 31
0.0
 11
-538.652680
 21
594.132228
 31
0.0
 11
-539.247120
 21
594.275284
 31
0.0
  0
SPLINE
  5
382
100
AcDbEntity
  8
Layer_1
 62
7
100
AcDbSpline
 70
0
 71
3
 72
19
 73
15
 74
13
 40
0.000000
 40
0.000000
 40
0.000000
 40
0.000000
 40
0.688321
 40
1.200702
 40
1.538019
 40
2.375404
 40
3.133568
 40
3.870783
 40
4.291978
 40
4.748889
 40
5.249590
 40
6.229993
 40
7.182492
 40
8.169638
 40
8.169638
 40
8.169638
 40
8.169638
 10
-539.247120
 20
594.275284
 30
0.0
 10
-539.470978
 20
594.325566
 30
0.0
 10
-539.861475
 20
594.413278
 30
0.0
 10
-540.358788
 20
594.538566
 30
0.0
 10
-540.895522
 20
594.707614
 30
0.0
 10
-541.474276
 20
595.006672
 30
0.0
 10
-542.064899
 20
595.526654
 30
0.0
 10
-542.400438
 20
596.083025
 30
0.0
 10
-542.567399
 20
596.596784
 30
0.0
 10
-542.644114
 20
597.051408
 30
0.0
 10
-542.676866
 20
597.697643
 30
0.0
 10
-542.586539
 20
598.510607
 30
0.0
 10
-542.236457
 20
599.435937
 30
0.0
 10
-541.829323
 20
599.942485
 30
0.0
 10
-541.622120
 20
600.200284
 30
0.0
 11
-539.247120
 21
594.275284
 31
0.0
 11
-539.917955
 21
594.429449
 31
0.0
 11
-540.413787
 21
594.558617
 31
0.0
 11
-540.734616
 21
594.662788
 31
0.0
 11
-541.477674
 21
595.048894
 31
0.0
 11
-542.040176
 21
595.557228
 31
0.0
 11
-542.422120
 21
596.187788
 31
0.0
 11
-542.554066
 21
596.587782
 31
0.0
 11
-542.633232
 21
597.037782
 31
0.0
 11
-542.659616
 21
597.537788
 31
0.0
 11
-542.544342
 21
598.511391
 31
0.0
 11
-542.198508
 21
599.398889
 31
0.0
 11
-541.622120
 21
600.200284
 31
0.0
  0
LWPOLYLINE
  5
383
100
AcDbEntity
  8
Layer_1
 62
7
100
AcDbPolyline
 90
2
 70
1
 10
-543.547120
 20
590.550284
 30
0.0
 10
-542.059616
 20
593.450284
 30
0.0
  0
SPLINE
  5
384
100
AcDbEntity
  8
Layer_1
 62
7
100
AcDbSpline
 70
0
 71
3
 72
13
 73
9
 74
7
 40
0.000000
 40
0.000000
 40
0.000000
 40
0.000000
 40
1.329843
 40
2.788707
 40
4.493693
 40
5.775565
 40
7.054407
 40
8.352281
 40
8.352281
 40
8.352281
 40
8.352281
 10
-541.622120
 20
600.200284
 30
0.0
 10
-541.286798
 20
600.496795
 30
0.0
 10
-540.583622
 20
601.118586
 30
0.0
 10
-539.118828
 20
601.574614
 30
0.0
 10
-537.638531
 20
601.699566
 30
0.0
 10
-536.215871
 20
601.606140
 30
0.0
 10
-534.947628
 20
601.361500
 30
0.0
 10
-534.140939
 20
601.063093
 30
0.0
 10
-533.734616
 20
600.912788
 30
0.0
 11
-541.622120
 21
600.200284
 31
0.0
 11
-540.569344
 21
601.012778
 31
0.0
 11
-539.194344
 21
601.500278
 31
0.0
 11
-537.497120
 21
601.662788
 31
0.0
 11
-536.217960
 21
601.579444
 31
0.0
 11
-534.963792
 21
601.329444
 31
0.0
 11
-533.734616
 21
600.912788
 31
0.0
  0
SPLINE
  5
385
100
AcDbEntity
  8
Layer_1
 62
7
100
AcDbSpline
 70
0
 71
3
 72
16
 73
12
 74
10
 40
0.000000
 40
0.000000
 40
0.000000
 40
0.000000
 40
0.823040
 40
1.582072
 40
2.296168
 40
2.990130
 40
3.490562
 40
3.982390
 40
4.230362
 40
4.497158
 40
4.825469
 40
4.825469
 40
4.825469
 40
4.825469
 10
-535.122120
 20
598.262788
 30
0.0
 10
-535.370851
 20
598.379391
 30
0.0
 10
-535.848968
 20
598.603530
 30
0.0
 10
-536.593129
 20
598.803191
 30
0.0
 10
-537.313864
 20
598.869183
 30
0.0
 10
-537.956812
 20
598.824473
 30
0.0
 10
-538.473083
 20
598.516883
 30
0.0
 10
-538.589440
 20
598.080274
 30
0.0
 10
-538.521632
 20
597.743945
 30
0.0
 10
-538.331912
 20
597.521395
 30
0.0
 10
-538.156428
 20
597.427232
 30
0.0
 10
-538.059616
 20
597.375284
 30
0.0
 11
-535.122120
 21
598.262788
 31
0.0
 11
-535.877680
 21
598.589169
 31
0.0
 11
-536.611014
 21
598.785001
 31
0.0
 11
-537.322120
 21
598.850284
 31
0.0
 11
-538.009624
 21
598.755835
 31
0.0
 11
-538.422122
 21
598.472503
 31
0.0
 11
-538.559616
 21
598.000284
 31
0.0
 11
-538.504066
 21
597.758615
 31
0.0
 11
-538.337400
 21
597.550281
 31
0.0
 11
-538.059616
 21
597.375284
 31
0.0
  0
SPLINE
  5
386
100
AcDbEntity
  8
Layer_1
 62
7
100
AcDbSpline
 70
0
 71
3
 72
10
 73
6
 74
4
 40
0.000000
 40
0.000000
 40
0.000000
 40
0.000000
 40
0.262251
 40
0.718017
 40
1.368823
 40
1.368823
 40
1.368823
 40
1.368823
 10
-538.059616
 20
597.375284
 30
0.0
 10
-537.977632
 20
597.344752
 30
0.0
 10
-537.753167
 20
597.261158
 30
0.0
 10
-537.307187
 20
597.160069
 30
0.0
 10
-536.946655
 20
597.083072
 30
0.0
 10
-536.734616
 20
597.037788
 30
0.0
 11
-538.059616
 21
597.375284
 31
0.0
 11
-537.812400
 21
597.287765
 31
0.0
 11
-537.370734
 21
597.175274
 31
0.0
 11
-536.734616
 21
597.037788
 31
0.0
  0
SPLINE
  5
387
100
AcDbEntity
  8
Layer_1
 62
7
100
AcDbSpline
 70
0
 71
3
 72
10
 73
6
 74
4
 40
0.000000
 40
0.000000
 40
0.000000
 40
0.000000
 40
1.016898
 40
1.885885
 40
2.636452
 40
2.636452
 40
2.636452
 40
2.636452
 10
-536.734616
 20
597.037788
 30
0.0
 10
-536.405401
 20
596.957533
 30
0.0
 10
-535.794856
 20
596.808696
 30
0.0
 10
-534.975437
 20
596.462699
 30
0.0
 10
-534.554633
 20
596.121099
 30
0.0
 10
-534.359616
 20
595.962788
 30
0.0
 11
-536.734616
 21
597.037788
 31
0.0
 11
-535.754066
 21
596.768337
 31
0.0
 11
-534.962400
 21
596.410003
 31
0.0
 11
-534.359616
 21
595.962788
 31
0.0
  0
LWPOLYLINE
  5
388
100
AcDbEntity
  8
Layer_1
 62
7
100
AcDbPolyline
 90
2
 70
1
 10
-533.734616
 20
600.912788
 30
0.0
 10
-535.122120
 20
598.262788
 30
0.0
  0
LWPOLYLINE
  5
389
100
AcDbEntity
  8
Layer_1
 62
7
100
AcDbPolyline
 90
2
 70
1
 10
-533.397120
 20
593.562788
 30
0.0
 10
-533.397120
 20
593.562788
 30
0.0
  0
SPLINE
  5
38a
100
AcDbEntity
  8
Layer_1
 62
7
100
AcDbSpline
 70
0
 71
3
 72
10
 73
6
 74
4
 40
0.000000
 40
0.000000
 40
0.000000
 40
0.000000
 40
0.863312
 40
1.725248
 40
2.653647
 40
2.653647
 40
2.653647
 40
2.653647
 10
-534.359616
 20
595.962788
 30
0.0
 10
-534.167184
 20
595.746617
 30
0.0
 10
-533.782627
 20
595.314620
 30
0.0
 10
-533.452695
 20
594.470366
 30
0.0
 10
-533.416098
 20
593.872710
 30
0.0
 10
-533.397120
 20
593.562788
 30
0.0
 11
-534.359616
 21
595.962788
 31
0.0
 11
-533.824901
 21
595.285006
 31
0.0
 11
-533.504069
 21
594.485006
 31
0.0
 11
-533.397120
 21
593.562788
 31
0.0
  0
LWPOLYLINE
  5
38b
100
AcDbEntity
  8
Layer_1
 62
7
100
AcDbPolyline
 90
4
 70
1
 10
-605.784616
 20
557.650284
 30
0.0
 10
-608.372120
 20
557.650284
 30
0.0
 10
-608.372120
 20
564.837788
 30
0.0
 10
-609.322120
 20
564.262788
 30
0.0
  0
SPLINE
  5
38c
100
AcDbEntity
  8
Layer_1
 62
7
100
AcDbSpline
 70
0
 71
3
 72
10
 73
6
 74
4
 40
0.000000
 40
0.000000
 40
0.000000
 40
0.000000
 40
0.414334
 40
0.778768
 40
1.097187
 40
1.097187
 40
1.097187
 40
1.097187
 10
-609.322120
 20
564.262788
 30
0.0
 10
-609.443721
 20
564.197312
 30
0.0
 10
-609.672277
 20
564.074247
 30
0.0
 10
-610.010480
 20
563.931443
 30
0.0
 10
-610.231536
 20
563.876094
 30
0.0
 10
-610.334616
 20
563.850284
 30
0.0
 11
-609.322120
 21
564.262788
 31
0.0
 11
-609.690176
 21
564.072505
 31
0.0
 11
-610.027674
 21
563.935003
 31
0.0
 11
-610.334616
 21
563.850284
 31
0.0
  0
LWPOLYLINE
  5
38d
100
AcDbEntity
  8
Layer_1
 62
7
100
AcDbPolyline
 90
2
 70
1
 10
-610.334616
 20
563.850284
 30
0.0
 10
-610.334616
 20
566.537788
 30
0.0
  0
SPLINE
  5
38e
100
AcDbEntity
  8
Layer_1
 62
7
100
AcDbSpline
 70
0
 71
3
 72
10
 73
6
 74
4
 40
0.000000
 40
0.000000
 40
0.000000
 40
0.000000
 40
1.294794
 40
2.531844
 40
3.773447
 40
3.773447
 40
3.773447
 40
3.773447
 10
-610.334616
 20
566.537788
 30
0.0
 10
-609.974706
 20
566.777855
 30
0.0
 10
-609.270937
 20
567.247282
 30
0.0
 10
-608.423148
 20
568.203744
 30
0.0
 10
-608.064346
 20
568.950980
 30
0.0
 10
-607.884616
 20
569.325284
 30
0.0
 11
-610.334616
 21
566.537788
 31
0.0
 11
-609.290176
 21
567.303057
 31
0.0
 11
-608.473510
 21
568.232223
 31
0.0
 11
-607.884616
 21
569.325284
 31
0.0
  0
SPLINE
  5
38f
100
AcDbEntity
  8
Layer_1
 62
7
100
AcDbSpline
 70
0
 71
3
 72
10
 73
6
 74
4
 40
0.000000
 40
0.000000
 40
0.000000
 40
0.000000
 40
1.167655
 40
2.268476
 40
3.399219
 40
3.399219
 40
3.399219
 40
3.399219
 10
-584.722120
 20
561.562788
 30
0.0
 10
-584.748446
 20
561.172698
 30
0.0
 10
-584.799591
 20
560.414845
 30
0.0
 10
-585.262233
 20
559.346732
 30
0.0
 10
-585.783163
 20
558.809836
 30
0.0
 10
-586.047120
 20
558.537788
 30
0.0
 11
-584.722120
 21
561.562788
 31
0.0
 11
-584.869349
 21
560.404452
 31
0.0
 11
-585.311017
 21
559.396118
 31
0.0
 11
-586.047120
 21
558.537788
 31
0.0
  0
LWPOLYLINE
  5
390
100
AcDbEntity
  8
Layer_1
 62
7
100
AcDbPolyline
 90
3
 70
1
 10
-607.884616
 20
569.325284
 30
0.0
 10
-605.784616
 20
569.325284
 30
0.0
 10
-605.784616
 20
557.650284
 30
0.0
  0
SPLINE
  5
391
100
AcDbEntity
  8
Layer_1
 62
7
100
AcDbSpline
 70
0
 71
3
 72
13
 73
9
 74
7
 40
0.000000
 40
0.000000
 40
0.000000
 40
0.000000
 40
1.345593
 40
2.809634
 40
4.481401
 40
6.064783
 40
7.673624
 40
9.361283
 40
9.361283
 40
9.361283
 40
9.361283
 10
-586.047120
 20
558.537788
 30
0.0
 10
-586.410414
 20
558.269251
 30
0.0
 10
-587.168981
 20
557.708540
 30
0.0
 10
-588.632800
 20
557.297483
 30
0.0
 10
-590.204643
 20
557.164759
 30
0.0
 10
-591.827739
 20
557.314137
 30
0.0
 10
-593.404968
 20
557.762516
 30
0.0
 10
-594.375336
 20
558.283542
 30
0.0
 10
-594.872120
 20
558.550284
 30
0.0
 11
-586.047120
 21
558.537788
 31
0.0
 11
-587.173512
 21
557.801675
 31
0.0
 11
-588.569344
 21
557.360009
 31
0.0
 11
-590.234616
 21
557.212788
 31
0.0
 11
-591.811008
 21
557.361398
 31
0.0
 11
-593.356842
 21
557.807230
 31
0.0
 11
-594.872120
 21
558.550284
 31
0.0
  0
SPLINE
  5
392
100
AcDbEntity
  8
Layer_1
 62
7
100
AcDbSpline
 70
0
 71
3
 72
19
 73
15
 74
13
 40
0.000000
 40
0.000000
 40
0.000000
 40
0.000000
 40
1.316513
 40
2.474913
 40
3.519051
 40
4.241085
 40
4.762334
 40
5.275725
 40
5.564802
 40
5.845706
 40
6.159879
 40
6.455507
 40
6.907681
 40
7.519092
 40
7.519092
 40
7.519092
 40
7.519092
 10
-593.384616
 20
561.450284
 30
0.0
 10
-593.009472
 20
561.221199
 30
0.0
 10
-592.304238
 20
560.790543
 30
0.0
 10
-591.192011
 20
560.386330
 30
0.0
 10
-590.218886
 20
560.260388
 30
0.0
 10
-589.450011
 20
560.314819
 30
0.0
 10
-588.909080
 20
560.636462
 30
0.0
 10
-588.796457
 20
561.102276
 30
0.0
 10
-588.851881
 20
561.463960
 30
0.0
 10
-589.016678
 20
561.718817
 30
0.0
 10
-589.260939
 20
561.896821
 30
0.0
 10
-589.592155
 20
562.025470
 30
0.0
 10
-590.027897
 20
562.150082
 30
0.0
 10
-590.373467
 20
562.229582
 30
0.0
 10
-590.572120
 20
562.275284
 30
0.0
 11
-593.384616
 21
561.450284
 31
0.0
 11
-592.237400
 21
560.804450
 31
0.0
 11
-591.145734
 21
560.416950
 31
0.0
 11
-590.109616
 21
560.287788
 31
0.0
 11
-589.394347
 21
560.386395
 31
0.0
 11
-588.965181
 21
560.682229
 31
0.0
 11
-588.822120
 21
561.175284
 31
0.0
 11
-588.872125
 21
561.460003
 31
0.0
 11
-589.022125
 21
561.697505
 31
0.0
 11
-589.272120
 21
561.887788
 31
0.0
 11
-589.544346
 21
562.003062
 31
0.0
 11
-589.977680
 21
562.132228
 31
0.0
 11
-590.572120
 21
562.275284
 31
0.0
  0
SPLINE
  5
393
100
AcDbEntity
  8
Layer_1
 62
7
100
AcDbSpline
 70
0
 71
3
 72
19
 73
15
 74
13
 40
0.000000
 40
0.000000
 40
0.000000
 40
0.000000
 40
0.688321
 40
1.200702
 40
1.538019
 40
2.375404
 40
3.133568
 40
3.870783
 40
4.291978
 40
4.748889
 40
5.249590
 40
6.229993
 40
7.182492
 40
8.169638
 40
8.169638
 40
8.169638
 40
8.169638
 10
-590.572120
 20
562.275284
 30
0.0
 10
-590.795978
 20
562.325566
 30
0.0
 10
-591.186475
 20
562.413278
 30
0.0
 10
-591.683788
 20
562.538566
 30
0.0
 10
-592.220522
 20
562.707614
 30
0.0
 10
-592.799276
 20
563.006672
 30
0.0
 10
-593.389899
 20
563.526654
 30
0.0
 10
-593.725438
 20
564.083025
 30
0.0
 10
-593.892399
 20
564.596784
 30
0.0
 10
-593.969114
 20
565.051408
 30
0.0
 10
-594.001866
 20
565.697643
 30
0.0
 10
-593.911539
 20
566.510607
 30
0.0
 10
-593.561457
 20
567.435937
 30
0.0
 10
-593.154323
 20
567.942485
 30
0.0
 10
-592.947120
 20
568.200284
 30
0.0
 11
-590.572120
 21
562.275284
 31
0.0
 11
-591.242955
 21
562.429449
 31
0.0
 11
-591.738787
 21
562.558617
 31
0.0
 11
-592.059616
 21
562.662788
 31
0.0
 11
-592.802674
 21
563.048894
 31
0.0
 11
-593.365176
 21
563.557228
 31
0.0
 11
-593.747120
 21
564.187788
 31
0.0
 11
-593.879066
 21
564.587782
 31
0.0
 11
-593.958232
 21
565.037782
 31
0.0
 11
-593.984616
 21
565.537788
 31
0.0
 11
-593.869342
 21
566.511391
 31
0.0
 11
-593.523508
 21
567.398889
 31
0.0
 11
-592.947120
 21
568.200284
 31
0.0
  0
LWPOLYLINE
  5
394
100
AcDbEntity
  8
Layer_1
 62
7
100
AcDbPolyline
 90
2
 70
1
 10
-594.872120
 20
558.550284
 30
0.0
 10
-593.384616
 20
561.450284
 30
0.0
  0
SPLINE
  5
395
100
AcDbEntity
  8
Layer_1
 62
7
100
AcDbSpline
 70
0
 71
3
 72
13
 73
9
 74
7
 40
0.000000
 40
0.000000
 40
0.000000
 40
0.000000
 40
1.329843
 40
2.788707
 40
4.493693
 40
5.775565
 40
7.054407
 40
8.352281
 40
8.352281
 40
8.352281
 40
8.352281
 10
-592.947120
 20
568.200284
 30
0.0
 10
-592.611798
 20
568.496795
 30
0.0
 10
-591.908622
 20
569.118586
 30
0.0
 10
-590.443828
 20
569.574614
 30
0.0
 10
-588.963531
 20
569.699566
 30
0.0
 10
-587.540871
 20
569.606140
 30
0.0
 10
-586.272628
 20
569.361500
 30
0.0
 10
-585.465939
 20
569.063093
 30
0.0
 10
-585.059616
 20
568.912788
 30
0.0
 11
-592.947120
 21
568.200284
 31
0.0
 11
-591.894344
 21
569.012778
 31
0.0
 11
-590.519344
 21
569.500278
 31
0.0
 11
-588.822120
 21
569.662788
 31
0.0
 11
-587.542960
 21
569.579444
 31
0.0
 11
-586.288792
 21
569.329444
 31
0.0
 11
-585.059616
 21
568.912788
 31
0.0
  0
SPLINE
  5
396
100
AcDbEntity
  8
Layer_1
 62
7
100
AcDbSpline
 70
0
 71
3
 72
16
 73
12
 74
10
 40
0.000000
 40
0.000000
 40
0.000000
 40
0.000000
 40
0.823040
 40
1.582072
 40
2.296168
 40
2.990130
 40
3.490562
 40
3.982390
 40
4.230362
 40
4.497158
 40
4.825469
 40
4.825469
 40
4.825469
 40
4.825469
 10
-586.447120
 20
566.262788
 30
0.0
 10
-586.695851
 20
566.379391
 30
0.0
 10
-587.173968
 20
566.603530
 30
0.0
 10
-587.918129
 20
566.803191
 30
0.0
 10
-588.638864
 20
566.869183
 30
0.0
 10
-589.281812
 20
566.824473
 30
0.0
 10
-589.798083
 20
566.516883
 30
0.0
 10
-589.914440
 20
566.080274
 30
0.0
 10
-589.846632
 20
565.743945
 30
0.0
 10
-589.656912
 20
565.521395
 30
0.0
 10
-589.481428
 20
565.427232
 30
0.0
 10
-589.384616
 20
565.375284
 30
0.0
 11
-586.447120
 21
566.262788
 31
0.0
 11
-587.202680
 21
566.589169
 31
0.0
 11
-587.936014
 21
566.785001
 31
0.0
 11
-588.647120
 21
566.850284
 31
0.0
 11
-589.334624
 21
566.755835
 31
0.0
 11
-589.747122
 21
566.472503
 31
0.0
 11
-589.884616
 21
566.000284
 31
0.0
 11
-589.829066
 21
565.758615
 31
0.0
 11
-589.662400
 21
565.550281
 31
0.0
 11
-589.384616
 21
565.375284
 31
0.0
  0
SPLINE
  5
397
100
AcDbEntity
  8
Layer_1
 62
7
100
AcDbSpline
 70
0
 71
3
 72
10
 73
6
 74
4
 40
0.000000
 40
0.000000
 40
0.000000
 40
0.000000
 40
0.262251
 40
0.718017
 40
1.368823
 40
1.368823
 40
1.368823
 40
1.368823
 10
-589.384616
 20
565.375284
 30
0.0
 10
-589.302632
 20
565.344752
 30
0.0
 10
-589.078167
 20
565.261158
 30
0.0
 10
-588.632187
 20
565.160069
 30
0.0
 10
-588.271655
 20
565.083072
 30
0.0
 10
-588.059616
 20
565.037788
 30
0.0
 11
-589.384616
 21
565.375284
 31
0.0
 11
-589.137400
 21
565.287765
 31
0.0
 11
-588.695734
 21
565.175274
 31
0.0
 11
-588.059616
 21
565.037788
 31
0.0
  0
SPLINE
  5
398
100
AcDbEntity
  8
Layer_1
 62
7
100
AcDbSpline
 70
0
 71
3
 72
10
 73
6
 74
4
 40
0.000000
 40
0.000000
 40
0.000000
 40
0.000000
 40
1.016898
 40
1.885885
 40
2.636452
 40
2.636452
 40
2.636452
 40
2.636452
 10
-588.059616
 20
565.037788
 30
0.0
 10
-587.730401
 20
564.957533
 30
0.0
 10
-587.119856
 20
564.808696
 30
0.0
 10
-586.300437
 20
564.462699
 30
0.0
 10
-585.879633
 20
564.121099
 30
0.0
 10
-585.684616
 20
563.962788
 30
0.0
 11
-588.059616
 21
565.037788
 31
0.0
 11
-587.079066
 21
564.768337
 31
0.0
 11
-586.287400
 21
564.410003
 31
0.0
 11
-585.684616
 21
563.962788
 31
0.0
  0
LWPOLYLINE
  5
399
100
AcDbEntity
  8
Layer_1
 62
7
100
AcDbPolyline
 90
2
 70
1
 10
-585.059616
 20
568.912788
 30
0.0
 10
-586.447120
 20
566.262788
 30
0.0
  0
LWPOLYLINE
  5
39a
100
AcDbEntity
  8
Layer_1
 62
7
100
AcDbPolyline
 90
2
 70
1
 10
-584.722120
 20
561.562788
 30
0.0
 10
-584.722120
 20
561.562788
 30
0.0
  0
SPLINE
  5
39b
100
AcDbEntity
  8
Layer_1
 62
7
100
AcDbSpline
 70
0
 71
3
 72
10
 73
6
 74
4
 40
0.000000
 40
0.000000
 40
0.000000
 40
0.000000
 40
0.863312
 40
1.725248
 40
2.653647
 40
2.653647
 40
2.653647
 40
2.653647
 10
-585.684616
 20
563.962788
 30
0.0
 10
-585.492184
 20
563.746617
 30
0.0
 10
-585.107627
 20
563.314620
 30
0.0
 10
-584.777695
 20
562.470366
 30
0.0
 10
-584.741098
 20
561.872710
 30
0.0
 10
-584.722120
 20
561.562788
 30
0.0
 11
-585.684616
 21
563.962788
 31
0.0
 11
-585.149901
 21
563.285006
 31
0.0
 11
-584.829069
 21
562.485006
 31
0.0
 11
-584.722120
 21
561.562788
 31
0.0
  0
SPLINE
  5
39c
100
AcDbEntity
  8
Layer_1
 62
7
100
AcDbSpline
 70
0
 71
3
 72
10
 73
6
 74
4
 40
0.000000
 40
0.000000
 40
0.000000
 40
0.000000
 40
1.542069
 40
3.019268
 40
4.529840
 40
4.529840
 40
4.529840
 40
4.529840
 10
-560.659616
 20
563.450284
 30
0.0
 10
-560.692141
 20
562.935486
 30
0.0
 10
-560.755824
 20
561.927545
 30
0.0
 10
-561.304719
 20
560.486915
 30
0.0
 10
-561.930656
 20
559.707067
 30
0.0
 10
-562.247120
 20
559.312788
 30
0.0
 11
-560.659616
 21
563.450284
 31
0.0
 11
-560.836016
 21
561.918337
 31
0.0
 11
-561.365184
 21
560.539171
 31
0.0
 11
-562.247120
 21
559.312788
 31
0.0
  0
SPLINE
  5
39d
100
AcDbEntity
  8
Layer_1
 62
7
100
AcDbSpline
 70
0
 71
3
 72
13
 73
9
 74
7
 40
0.000000
 40
0.000000
 40
0.000000
 40
0.000000
 40
1.864331
 40
3.791768
 40
5.941957
 40
8.099062
 40
10.030382
 40
11.895789
 40
11.895789
 40
11.895789
 40
11.895789
 10
-562.247120
 20
559.312788
 30
0.0
 10
-562.709580
 20
558.889756
 30
0.0
 10
-563.650154
 20
558.029372
 30
0.0
 10
-565.557066
 20
557.345067
 30
0.0
 10
-567.636945
 20
557.143032
 30
0.0
 10
-569.717993
 20
557.345001
 30
0.0
 10
-571.629523
 20
558.028504
 30
0.0
 10
-572.571704
 20
558.889677
 30
0.0
 10
-573.034616
 20
559.312788
 30
0.0
 11
-562.247120
 21
559.312788
 31
0.0
 11
-563.701293
 21
558.146121
 31
0.0
 11
-565.497125
 21
557.446121
 31
0.0
 11
-567.634616
 21
557.212788
 31
0.0
 11
-569.779064
 21
557.446121
 31
0.0
 11
-571.579064
 21
558.146121
 31
0.0
 11
-573.034616
 21
559.312788
 31
0.0
  0
SPLINE
  5
39e
100
AcDbEntity
  8
Layer_1
 62
7
100
AcDbSpline
 70
0
 71
3
 72
13
 73
9
 74
7
 40
0.000000
 40
0.000000
 40
0.000000
 40
0.000000
 40
1.519613
 40
3.027982
 40
4.625252
 40
6.087484
 40
7.527397
 40
9.039801
 40
9.039801
 40
9.039801
 40
9.039801
 10
-573.034616
 20
559.312788
 30
0.0
 10
-573.353040
 20
559.710650
 30
0.0
 10
-573.987531
 20
560.503431
 30
0.0
 10
-574.512014
 20
561.980703
 30
0.0
 10
-574.679557
 20
563.504959
 30
0.0
 10
-574.507948
 20
565.007795
 30
0.0
 10
-573.963544
 20
566.400906
 30
0.0
 10
-573.341023
 20
567.169206
 30
0.0
 10
-573.022120
 20
567.562788
 30
0.0
 11
-573.034616
 21
559.312788
 31
0.0
 11
-573.916563
 21
560.550283
 31
0.0
 11
-574.445731
 21
561.962783
 31
0.0
 11
-574.622120
 21
563.550284
 31
0.0
 11
-574.444342
 21
565.001668
 31
0.0
 11
-573.911008
 21
566.339169
 31
0.0
 11
-573.022120
 21
567.562788
 31
0.0
  0
SPLINE
  5
39f
100
AcDbEntity
  8
Layer_1
 62
7
100
AcDbSpline
 70
0
 71
3
 72
13
 73
9
 74
7
 40
0.000000
 40
0.000000
 40
0.000000
 40
0.000000
 40
1.883843
 40
3.851648
 40
6.065522
 40
8.123388
 40
10.009746
 40
11.879509
 40
11.879509
 40
11.879509
 40
11.879509
 10
-573.022120
 20
567.562788
 30
0.0
 10
-572.553358
 20
567.988948
 30
0.0
 10
-571.594941
 20
568.860263
 30
0.0
 10
-569.642456
 20
569.541974
 30
0.0
 10
-567.562164
 20
569.746225
 30
0.0
 10
-565.506159
 20
569.539646
 30
0.0
 10
-563.653217
 20
568.839189
 30
0.0
 10
-562.722779
 20
567.987000
 30
0.0
 10
-562.259616
 20
567.562788
 30
0.0
 11
-573.022120
 21
567.562788
 31
0.0
 11
-571.548511
 21
568.736390
 31
0.0
 11
-569.711011
 21
569.440556
 31
0.0
 11
-567.509616
 21
569.675284
 31
0.0
 11
-565.465180
 21
569.440556
 31
0.0
 11
-563.715182
 21
568.736390
 31
0.0
 11
-562.259616
 21
567.562788
 31
0.0
  0
LWPOLYLINE
  5
3a0
100
AcDbEntity
  8
Layer_1
 62
7
100
AcDbPolyline
 90
13
 70
1
 10
-575.697120
 20
565.875284
 30
0.0
 10
-578.034616
 20
565.875284
 30
0.0
 10
-578.034616
 20
557.650284
 30
0.0
 10
-582.134616
 20
557.650284
 30
0.0
 10
-582.134616
 20
565.875284
 30
0.0
 10
-583.484616
 20
565.875284
 30
0.0
 10
-583.484616
 20
569.250284
 30
0.0
 10
-582.134616
 20
569.250284
 30
0.0
 10
-582.134616
 20
572.737788
 30
0.0
 10
-578.034616
 20
572.737788
 30
0.0
 10
-578.034616
 20
569.250284
 30
0.0
 10
-575.697120
 20
569.250284
 30
0.0
 10
-575.697120
 20
565.875284
 30
0.0
  0
SPLINE
  5
3a1
100
AcDbEntity
  8
Layer_1
 62
7
100
AcDbSpline
 70
0
 71
3
 72
10
 73
6
 74
4
 40
0.000000
 40
0.000000
 40
0.000000
 40
0.000000
 40
1.512395
 40
2.983324
 40
4.511753
 40
4.511753
 40
4.511753
 40
4.511753
 10
-562.259616
 20
567.562788
 30
0.0
 10
-561.940915
 20
567.169587
 30
0.0
 10
-561.312252
 20
566.393966
 30
0.0
 10
-560.757100
 20
564.961974
 30
0.0
 10
-560.692523
 20
563.960580
 30
0.0
 10
-560.659616
 20
563.450284
 30
0.0
 11
-562.259616
 21
567.562788
 31
0.0
 11
-561.370739
 21
566.339171
 31
0.0
 11
-560.837405
 21
564.968337
 31
0.0
 11
-560.659616
 21
563.450284
 31
0.0
  0
SPLINE
  5
3a2
100
AcDbEntity
  8
Layer_1
 62
7
100
AcDbSpline
 70
0
 71
3
 72
16
 73
12
 74
10
 40
0.000000
 40
0.000000
 40
0.000000
 40
0.000000
 40
0.717244
 40
1.405547
 40
2.117569
 40
2.830804
 40
3.521369
 40
4.239820
 40
5.044007
 40
5.804719
 40
6.593426
 40
6.593426
 40
6.593426
 40
6.593426
 10
-564.922120
 20
563.450284
 30
0.0
 10
-564.937854
 20
563.690285
 30
0.0
 10
-564.968687
 20
564.160603
 30
0.0
 10
-565.252339
 20
564.821717
 30
0.0
 10
-565.696269
 20
565.376568
 30
0.0
 10
-566.258791
 20
565.814776
 30
0.0
 10
-566.922762
 20
566.085004
 30
0.0
 10
-567.663526
 20
566.167521
 30
0.0
 10
-568.426330
 20
566.073911
 30
0.0
 10
-569.161297
 20
565.750165
 30
0.0
 10
-569.524655
 20
565.377491
 30
0.0
 10
-569.709616
 20
565.187788
 30
0.0
 11
-564.922120
 21
563.450284
 31
0.0
 11
-565.010320
 21
564.162084
 31
0.0
 11
-565.274904
 21
564.797502
 31
0.0
 11
-565.715872
 21
565.356540
 31
0.0
 11
-566.281849
 21
565.790561
 31
0.0
 11
-566.921429
 21
566.050977
 31
0.0
 11
-567.634616
 21
566.137788
 31
0.0
 11
-568.431845
 21
566.032226
 31
0.0
 11
-569.123513
 21
565.715558
 31
0.0
 11
-569.709616
 21
565.187788
 31
0.0
  0
SPLINE
  5
3a3
100
AcDbEntity
  8
Layer_1
 62
7
100
AcDbSpline
 70
0
 71
3
 72
13
 73
9
 74
7
 40
0.000000
 40
0.000000
 40
0.000000
 40
0.000000
 40
0.642944
 40
1.261311
 40
1.891848
 40
2.529287
 40
3.151560
 40
3.795646
 40
3.795646
 40
3.795646
 40
3.795646
 10
-569.709616
 20
565.187788
 30
0.0
 10
-569.839413
 20
565.016005
 30
0.0
 10
-570.094047
 20
564.679007
 30
0.0
 10
-570.312757
 20
564.077701
 30
0.0
 10
-570.383269
 20
563.447971
 30
0.0
 10
-570.312892
 20
562.816989
 30
0.0
 10
-570.094885
 20
562.211124
 30
0.0
 10
-569.839505
 20
561.872508
 30
0.0
 10
-569.709616
 20
561.700284
 30
0.0
 11
-569.709616
 21
565.187788
 31
0.0
 11
-570.070734
 21
564.655838
 31
0.0
 11
-570.287400
 21
564.076671
 31
0.0
 11
-570.359616
 21
563.450284
 31
0.0
 11
-570.287400
 21
562.816948
 31
0.0
 11
-570.070734
 21
562.233614
 31
0.0
 11
-569.709616
 21
561.700284
 31
0.0
  0
LWPOLYLINE
  5
3a4
100
AcDbEntity
  8
Layer_1
 62
7
100
AcDbPolyline
 90
2
 70
1
 10
-560.659616
 20
563.450284
 30
0.0
 10
-560.659616
 20
563.450284
 30
0.0
  0
LWPOLYLINE
  5
3a5
100
AcDbEntity
  8
Layer_1
 62
7
100
AcDbPolyline
 90
2
 70
1
 10
-564.922120
 20
563.450284
 30
0.0
 10
-564.922120
 20
563.450284
 30
0.0
  0
SPLINE
  5
3a6
100
AcDbEntity
  8
Layer_1
 62
7
100
AcDbSpline
 70
0
 71
3
 72
16
 73
12
 74
10
 40
0.000000
 40
0.000000
 40
0.000000
 40
0.000000
 40
0.788713
 40
1.549424
 40
2.353610
 40
3.078263
 40
3.770761
 40
4.482355
 40
5.193310
 40
5.884665
 40
6.608724
 40
6.608724
 40
6.608724
 40
6.608724
 10
-569.709616
 20
561.700284
 30
0.0
 10
-569.524655
 20
561.510585
 30
0.0
 10
-569.161300
 20
561.137921
 30
0.0
 10
-568.426330
 20
560.814057
 30
0.0
 10
-567.661452
 20
560.720660
 30
0.0
 10
-566.917967
 20
560.802644
 30
0.0
 10
-566.251298
 20
561.072275
 30
0.0
 10
-565.689465
 20
561.511405
 30
0.0
 10
-565.248614
 20
562.069082
 30
0.0
 10
-564.967981
 20
562.734446
 30
0.0
 10
-564.937641
 20
563.208024
 30
0.0
 10
-564.922120
 20
563.450284
 30
0.0
 11
-569.709616
 21
561.700284
 31
0.0
 11
-569.123513
 21
561.172505
 31
0.0
 11
-568.431845
 21
560.855839
 31
0.0
 11
-567.634616
 21
560.750284
 31
0.0
 11
-566.915181
 21
560.837089
 31
0.0
 11
-566.273515
 21
561.097507
 31
0.0
 11
-565.709616
 21
561.531540
 31
0.0
 11
-565.272126
 21
562.091950
 31
0.0
 11
-565.009626
 21
562.731532
 31
0.0
 11
-564.922120
 21
563.450284
 31
0.0
  0
LWPOLYLINE
  5
3a7
100
AcDbEntity
  8
Layer_1
 62
7
100
AcDbPolyline
 90
3
 70
1
 10
-546.072120
 20
557.650284
 30
0.0
 10
-550.172120
 20
557.650284
 30
0.0
 10
-550.172120
 20
563.525284
 30
0.0
  0
SPLINE
  5
3a8
100
AcDbEntity
  8
Layer_1
 62
7
100
AcDbSpline
 70
0
 71
3
 72
19
 73
15
 74
13
 40
0.000000
 40
0.000000
 40
0.000000
 40
0.000000
 40
0.910548
 40
1.599664
 40
2.088607
 40
2.660237
 40
3.228646
 40
3.860365
 40
4.456263
 40
5.022637
 40
5.601856
 40
6.158261
 40
6.788130
 40
7.535304
 40
7.535304
 40
7.535304
 40
7.535304
 10
-550.172120
 20
563.525284
 30
0.0
 10
-550.178110
 20
563.828838
 30
0.0
 10
-550.188633
 20
564.362125
 30
0.0
 10
-550.286690
 20
565.054610
 30
0.0
 10
-550.505961
 20
565.605173
 30
0.0
 10
-550.901765
 20
565.999477
 30
0.0
 10
-551.444689
 20
566.256781
 30
0.0
 10
-552.048063
 20
566.322455
 30
0.0
 10
-552.648099
 20
566.258470
 30
0.0
 10
-553.192467
 20
566.036920
 30
0.0
 10
-553.650552
 20
565.689067
 30
0.0
 10
-553.993799
 20
565.199054
 30
0.0
 10
-554.181160
 20
564.571898
 30
0.0
 10
-554.199607
 20
564.112211
 30
0.0
 10
-554.209616
 20
563.862788
 30
0.0
 11
-550.172120
 21
563.525284
 31
0.0
 11
-550.211014
 21
564.435001
 31
0.0
 11
-550.327680
 21
565.114169
 31
0.0
 11
-550.522120
 21
565.562788
 31
0.0
 11
-550.920735
 21
565.972502
 31
0.0
 11
-551.433235
 21
566.218334
 31
0.0
 11
-552.059616
 21
566.300284
 31
0.0
 11
-552.651288
 21
566.229446
 31
0.0
 11
-553.176288
 21
566.016948
 31
0.0
 11
-553.634616
 21
565.662788
 31
0.0
 11
-553.954067
 21
565.207225
 31
0.0
 11
-554.145733
 21
564.607225
 31
0.0
 11
-554.209616
 21
563.862788
 31
0.0
  0
SPLINE
  5
3a9
100
AcDbEntity
  8
Layer_1
 62
7
100
AcDbSpline
 70
0
 71
3
 72
16
 73
12
 74
10
 40
0.000000
 40
0.000000
 40
0.000000
 40
0.000000
 40
0.678042
 40
1.262474
 40
1.760568
 40
2.528165
 40
3.361094
 40
4.283959
 40
5.461559
 40
6.532782
 40
7.561335
 40
7.561335
 40
7.561335
 40
7.561335
 10
-554.209616
 20
567.787788
 30
0.0
 10
-554.058601
 20
567.956094
 30
0.0
 10
-553.777419
 20
568.269471
 30
0.0
 10
-553.339625
 20
568.662510
 30
0.0
 10
-552.829539
 20
569.012956
 30
0.0
 10
-552.178976
 20
569.286030
 30
0.0
 10
-551.353752
 20
569.465659
 30
0.0
 10
-550.374342
 20
569.525331
 30
0.0
 10
-549.317113
 20
569.434460
 30
0.0
 10
-548.255210
 20
569.108652
 30
0.0
 10
-547.687636
 20
568.691920
 30
0.0
 10
-547.409616
 20
568.487788
 30
0.0
 11
-554.209616
 21
567.787788
 31
0.0
 11
-553.747122
 21
568.283611
 31
0.0
 11
-553.309624
 21
568.671111
 31
0.0
 11
-552.897120
 21
568.950284
 31
0.0
 11
-552.192958
 21
569.255833
 31
0.0
 11
-551.380456
 21
569.439167
 31
0.0
 11
-550.459616
 21
569.500284
 31
0.0
 11
-549.287403
 21
569.387778
 31
0.0
 11
-548.270735
 21
569.050278
 31
0.0
 11
-547.409616
 21
568.487788
 31
0.0
  0
LWPOLYLINE
  5
3aa
100
AcDbEntity
  8
Layer_1
 62
7
100
AcDbPolyline
 90
6
 70
1
 10
-554.209616
 20
563.862788
 30
0.0
 10
-554.209616
 20
557.650284
 30
0.0
 10
-558.309616
 20
557.650284
 30
0.0
 10
-558.309616
 20
569.250284
 30
0.0
 10
-554.209616
 20
569.250284
 30
0.0
 10
-554.209616
 20
567.787788
 30
0.0
  0
LWPOLYLINE
  5
3ab
100
AcDbEntity
  8
Layer_1
 62
7
100
AcDbPolyline
 90
2
 70
1
 10
-546.072120
 20
565.037788
 30
0.0
 10
-546.072120
 20
557.650284
 30
0.0
  0
SPLINE
  5
3ac
100
AcDbEntity
  8
Layer_1
 62
7
100
AcDbSpline
 70
0
 71
3
 72
10
 73
6
 74
4
 40
0.000000
 40
0.000000
 40
0.000000
 40
0.000000
 40
1.162824
 40
2.396220
 40
3.809602
 40
3.809602
 40
3.809602
 40
3.809602
 10
-547.409616
 20
568.487788
 30
0.0
 10
-547.140144
 20
568.204515
 30
0.0
 10
-546.584845
 20
567.620778
 30
0.0
 10
-546.143361
 20
566.391389
 30
0.0
 10
-546.096920
 20
565.508990
 30
0.0
 10
-546.072120
 20
565.037788
 30
0.0
 11
-547.409616
 21
568.487788
 31
0.0
 11
-546.666573
 21
567.593334
 31
0.0
 11
-546.220741
 21
566.443334
 31
0.0
 11
-546.072120
 21
565.037788
 31
0.0
  0
LWPOLYLINE
  5
3ad
100
AcDbEntity
  8
Layer_1
 62
7
100
AcDbPolyline
 90
2
 70
1
 10
-530.947120
 20
562.700284
 30
0.0
 10
-539.572120
 20
562.700284
 30
0.0
  0
SPLINE
  5
3ae
100
AcDbEntity
  8
Layer_1
 62
7
100
AcDbSpline
 70
0
 71
3
 72
13
 73
9
 74
7
 40
0.000000
 40
0.000000
 40
0.000000
 40
0.000000
 40
1.478253
 40
2.689349
 40
4.121848
 40
4.922889
 40
5.676445
 40
6.482105
 40
6.482105
 40
6.482105
 40
6.482105
 10
-539.572120
 20
562.700284
 30
0.0
 10
-539.541158
 20
562.194011
 30
0.0
 10
-539.484830
 20
561.272962
 30
0.0
 10
-538.446521
 20
560.203370
 30
0.0
 10
-537.253528
 20
560.037399
 30
0.0
 10
-536.258945
 20
560.156223
 30
0.0
 10
-535.543545
 20
560.546879
 30
0.0
 10
-535.232724
 20
560.969444
 30
0.0
 10
-535.072120
 20
561.187788
 30
0.0
 11
-539.572120
 21
562.700284
 31
0.0
 11
-539.291569
 21
561.248897
 31
0.0
 11
-538.449901
 21
560.378065
 31
0.0
 11
-537.047120
 21
560.087788
 31
0.0
 11
-536.255458
 21
560.210009
 31
0.0
 11
-535.597126
 21
560.576675
 31
0.0
 11
-535.072120
 21
561.187788
 31
0.0
  0
SPLINE
  5
3af
100
AcDbEntity
  8
Layer_1
 62
7
100
AcDbSpline
 70
0
 71
3
 72
16
 73
12
 74
10
 40
0.000000
 40
0.000000
 40
0.000000
 40
0.000000
 40
1.037776
 40
1.974758
 40
2.840224
 40
4.356378
 40
5.940293
 40
7.697496
 40
9.896925
 40
11.829719
 40
13.676960
 40
13.676960
 40
13.676960
 40
13.676960
 10
-531.109616
 20
561.187788
 30
0.0
 10
-531.221218
 20
560.859788
 30
0.0
 10
-531.433582
 20
560.235645
 30
0.0
 10
-531.905000
 20
559.406505
 30
0.0
 10
-532.633580
 20
558.565951
 30
0.0
 10
-533.742386
 20
557.807692
 30
0.0
 10
-535.292074
 20
557.282317
 30
0.0
 10
-537.146289
 20
557.128255
 30
0.0
 10
-539.108415
 20
557.320967
 30
0.0
 10
-541.028952
 20
558.026185
 30
0.0
 10
-541.931204
 20
558.924027
 30
0.0
 10
-542.372120
 20
559.362788
 30
0.0
 11
-531.109616
 21
561.187788
 31
0.0
 11
-531.476293
 21
560.216950
 31
0.0
 11
-531.942961
 21
559.404450
 31
0.0
 11
-532.509616
 21
558.750284
 31
0.0
 11
-533.752680
 21
557.882230
 31
0.0
 11
-535.248514
 21
557.361398
 31
0.0
 11
-536.997120
 21
557.187788
 31
0.0
 11
-539.183232
 21
557.429454
 31
0.0
 11
-540.974898
 21
558.154454
 31
0.0
 11
-542.372120
 21
559.362788
 31
0.0
  0
SPLINE
  5
3b0
100
AcDbEntity
  8
Layer_1
 62
7
100
AcDbSpline
 70
0
 71
3
 72
19
 73
15
 74
13
 40
0.000000
 40
0.000000
 40
0.000000
 40
0.000000
 40
1.383437
 40
2.778821
 40
4.265575
 40
6.010396
 40
7.616300
 40
9.197761
 40
10.800258
 40
12.490105
 40
14.395747
 40
16.700805
 40
18.724488
 40
20.745891
 40
20.745891
 40
20.745891
 40
20.745891
 10
-542.372120
 20
559.362788
 30
0.0
 10
-542.643275
 20
559.738707
 30
0.0
 10
-543.187926
 20
560.493793
 30
0.0
 10
-543.630930
 20
561.868008
 30
0.0
 10
-543.773672
 20
563.410314
 30
0.0
 10
-543.614628
 20
565.029804
 30
0.0
 10
-543.042946
 20
566.592466
 30
0.0
 10
-542.085251
 20
567.896676
 30
0.0
 10
-540.770501
 20
568.893898
 30
0.0
 10
-539.111004
 20
569.471175
 30
0.0
 10
-537.138499
 20
569.643663
 30
0.0
 10
-535.055118
 20
569.416014
 30
0.0
 10
-533.069195
 20
568.480464
 30
0.0
 10
-532.262657
 20
567.376803
 30
0.0
 10
-531.859616
 20
566.825284
 30
0.0
 11
-542.372120
 21
559.362788
 31
0.0
 11
-543.122120
 21
560.525284
 31
0.0
 11
-543.572120
 21
561.846116
 31
0.0
 11
-543.722120
 21
563.325284
 31
0.0
 11
-543.534621
 21
565.060001
 31
0.0
 11
-542.972121
 21
566.564169
 31
0.0
 11
-542.034616
 21
567.837788
 31
0.0
 11
-540.755456
 21
568.803057
 31
0.0
 11
-539.167958
 21
569.382223
 31
0.0
 11
-537.272120
 21
569.575284
 31
0.0
 11
-534.987404
 21
569.269723
 31
0.0
 11
-533.183238
 21
568.353057
 31
0.0
 11
-531.859616
 21
566.825284
 31
0.0
  0
LWPOLYLINE
  5
3b1
100
AcDbEntity
  8
Layer_1
 62
7
100
AcDbPolyline
 90
2
 70
1
 10
-535.072120
 20
561.187788
 30
0.0
 10
-531.109616
 20
561.187788
 30
0.0
  0
SPLINE
  5
3b2
100
AcDbEntity
  8
Layer_1
 62
7
100
AcDbSpline
 70
0
 71
3
 72
10
 73
6
 74
4
 40
0.000000
 40
0.000000
 40
0.000000
 40
0.000000
 40
1.201110
 40
2.439058
 40
3.754083
 40
3.754083
 40
3.754083
 40
3.754083
 10
-531.859616
 20
566.825284
 30
0.0
 10
-531.676407
 20
566.468210
 30
0.0
 10
-531.304369
 20
565.743109
 30
0.0
 10
-531.002718
 20
564.514934
 30
0.0
 10
-530.966022
 20
563.663733
 30
0.0
 10
-530.947120
 20
563.225284
 30
0.0
 11
-531.859616
 21
566.825284
 31
0.0
 11
-531.352682
 21
565.736393
 31
0.0
 11
-531.048518
 21
564.536393
 31
0.0
 11
-530.947120
 21
563.225284
 31
0.0
  0
SPLINE
  5
3b3
100
AcDbEntity
  8
Layer_1
 62
7
100
AcDbSpline
 70
0
 71
3
 72
13
 73
9
 74
7
 40
0.000000
 40
0.000000
 40
0.000000
 40
0.000000
 40
1.161884
 40
2.171257
 40
3.295943
 40
3.955029
 40
4.557355
 40
5.143910
 40
5.143910
 40
5.143910
 40
5.143910
 10
-534.772120
 20
565.050284
 30
0.0
 10
-534.887310
 20
565.427753
 30
0.0
 10
-535.102571
 20
566.133145
 30
0.0
 10
-536.005032
 20
566.870123
 30
0.0
 10
-536.957030
 20
567.009379
 30
0.0
 10
-537.749746
 20
566.935508
 30
0.0
 10
-538.345304
 20
566.735942
 30
0.0
 10
-538.656220
 20
566.486068
 30
0.0
 10
-538.809616
 20
566.362788
 30
0.0
 11
-534.772120
 21
565.050284
 31
0.0
 11
-535.226290
 21
566.119724
 31
0.0
 11
-536.005456
 21
566.761390
 31
0.0
 11
-537.109616
 21
566.975284
 31
0.0
 11
-537.765178
 21
566.907223
 31
0.0
 11
-538.331846
 21
566.703057
 31
0.0
 11
-538.809616
 21
566.362788
 31
0.0
  0
LWPOLYLINE
  5
3b4
100
AcDbEntity
  8
Layer_1
 62
7
100
AcDbPolyline
 90
2
 70
1
 10
-530.947120
 20
563.225284
 30
0.0
 10
-530.947120
 20
562.700284
 30
0.0
  0
LWPOLYLINE
  5
3b5
100
AcDbEntity
  8
Layer_1
 62
7
100
AcDbPolyline
 90
2
 70
1
 10
-539.459616
 20
565.050284
 30
0.0
 10
-534.772120
 20
565.050284
 30
0.0
  0
SPLINE
  5
3b6
100
AcDbEntity
  8
Layer_1
 62
7
100
AcDbSpline
 70
0
 71
3
 72
10
 73
6
 74
4
 40
0.000000
 40
0.000000
 40
0.000000
 40
0.000000
 40
0.470546
 40
0.958760
 40
1.488315
 40
1.488315
 40
1.488315
 40
1.488315
 10
-538.809616
 20
566.362788
 30
0.0
 10
-538.915673
 20
566.246402
 30
0.0
 10
-539.131769
 20
566.009260
 30
0.0
 10
-539.350149
 20
565.555109
 30
0.0
 10
-539.422152
 20
565.223055
 30
0.0
 10
-539.459616
 20
565.050284
 30
0.0
 11
-538.809616
 21
566.362788
 31
0.0
 11
-539.109621
 21
566.000281
 31
0.0
 11
-539.326289
 21
565.562779
 31
0.0
 11
-539.459616
 21
565.050284
 31
0.0
  0
LWPOLYLINE
  5
3b7
100
AcDbEntity
  8
Layer_1
 62
5
100
AcDbPolyline
 90
2
 70
1
 10
-573.556152
 20
738.927980
 30
0.0
 10
-572.506520
 20
738.927980
 30
0.0
  0
SPLINE
  5
3b8
100
AcDbEntity
  8
Layer_1
 62
5
100
AcDbSpline
 70
0
 71
3
 72
10
 73
6
 74
4
 40
0.000000
 40
0.000000
 40
0.000000
 40
0.000000
 40
6.593799
 40
12.977454
 40
19.571248
 40
19.571248
 40
19.571248
 40
19.571248
 10
-572.506520
 20
738.927980
 30
0.0
 10
-570.295943
 20
738.584255
 30
0.0
 10
-565.945240
 20
737.907759
 30
0.0
 10
-560.931037
 20
732.893561
 30
0.0
 10
-560.254541
 20
728.542859
 30
0.0
 10
-559.910816
 20
726.332284
 30
0.0
 11
-572.506520
 21
738.927980
 31
0.0
 11
-566.139623
 21
737.213099
 31
0.0
 11
-561.625697
 21
732.699175
 31
0.0
 11
-559.910816
 21
726.332284
 31
0.0
  0
LWPOLYLINE
  5
3b9
100
AcDbEntity
  8
Layer_1
 62
5
100
AcDbPolyline
 90
2
 70
1
 10
-559.910816
 20
726.332284
 30
0.0
 10
-559.910816
 20
725.282644
 30
0.0
  0
SPLINE
  5
3ba
100
AcDbEntity
  8
Layer_1
 62
5
100
AcDbSpline
 70
0
 71
3
 72
10
 73
6
 74
4
 40
0.000000
 40
0.000000
 40
0.000000
 40
0.000000
 40
6.593794
 40
12.977448
 40
19.571248
 40
19.571248
 40
19.571248
 40
19.571248
 10
-559.910816
 20
725.282644
 30
0.0
 10
-560.254541
 20
723.072068
 30
0.0
 10
-560.931037
 20
718.721367
 30
0.0
 10
-565.945240
 20
713.707168
 30
0.0
 10
-570.295943
 20
713.030673
 30
0.0
 10
-572.506520
 20
712.686948
 30
0.0
 11
-559.910816
 21
725.282644
 31
0.0
 11
-561.625697
 21
718.915753
 31
0.0
 11
-566.139623
 21
714.401828
 31
0.0
 11
-572.506520
 21
712.686948
 31
0.0
  0
LWPOLYLINE
  5
3bb
100
AcDbEntity
  8
Layer_1
 62
5
100
AcDbPolyline
 90
2
 70
1
 10
-572.506520
 20
712.686948
 30
0.0
 10
-573.556152
 20
712.686948
 30
0.0
  0
SPLINE
  5
3bc
100
AcDbEntity
  8
Layer_1
 62
5
100
AcDbSpline
 70
0
 71
3
 72
10
 73
6
 74
4
 40
0.000000
 40
0.000000
 40
0.000000
 40
0.000000
 40
6.593796
 40
12.977452
 40
19.571246
 40
19.571246
 40
19.571246
 40
19.571246
 10
-573.556152
 20
712.686948
 30
0.0
 10
-575.766728
 20
713.030673
 30
0.0
 10
-580.117430
 20
713.707169
 30
0.0
 10
-585.131633
 20
718.721366
 30
0.0
 10
-585.808130
 20
723.072068
 30
0.0
 10
-586.151856
 20
725.282644
 30
0.0
 11
-573.556152
 21
712.686948
 31
0.0
 11
-579.923045
 21
714.401828
 31
0.0
 11
-584.436973
 21
718.915753
 31
0.0
 11
-586.151856
 21
725.282644
 31
0.0
  0
LWPOLYLINE
  5
3bd
100
AcDbEntity
  8
Layer_1
 62
5
100
AcDbPolyline
 90
2
 70
1
 10
-586.151856
 20
725.282644
 30
0.0
 10
-586.151856
 20
726.332284
 30
0.0
  0
LWPOLYLINE
  5
3be
100
AcDbEntity
  8
Layer_1
 62
5
100
AcDbPolyline
 90
2
 70
1
 10
-573.556152
 20
738.927980
 30
0.0
 10
-573.556152
 20
738.927980
 30
0.0
  0
SPLINE
  5
3bf
100
AcDbEntity
  8
Layer_1
 62
5
100
AcDbSpline
 70
0
 71
3
 72
10
 73
6
 74
4
 40
0.000000
 40
0.000000
 40
0.000000
 40
0.000000
 40
6.593795
 40
12.977450
 40
19.571246
 40
19.571246
 40
19.571246
 40
19.571246
 10
-586.151856
 20
726.332284
 30
0.0
 10
-585.808130
 20
728.542859
 30
0.0
 10
-585.131633
 20
732.893561
 30
0.0
 10
-580.117430
 20
737.907758
 30
0.0
 10
-575.766728
 20
738.584254
 30
0.0
 10
-573.556152
 20
738.927980
 30
0.0
 11
-586.151856
 21
726.332284
 31
0.0
 11
-584.436973
 21
732.699175
 31
0.0
 11
-579.923045
 21
737.213099
 31
0.0
 11
-573.556152
 21
738.927980
 31
0.0
  0
LWPOLYLINE
  5
3c0
100
AcDbEntity
  8
Layer_1
 62
5
100
AcDbPolyline
 90
2
 70
1
 10
-614.685792
 20
736.836652
 30
0.0
 10
-613.636152
 20
736.836652
 30
0.0
  0
SPLINE
  5
3c1
100
AcDbEntity
  8
Layer_1
 62
5
100
AcDbSpline
 70
0
 71
3
 72
10
 73
6
 74
4
 40
0.000000
 40
0.000000
 40
0.000000
 40
0.000000
 40
6.593795
 40
12.977450
 40
19.571246
 40
19.571246
 40
19.571246
 40
19.571246
 10
-613.636152
 20
736.836652
 30
0.0
 10
-611.425576
 20
736.492926
 30
0.0
 10
-607.074875
 20
735.816428
 30
0.0
 10
-602.060678
 20
730.802226
 30
0.0
 10
-601.384181
 20
726.451524
 30
0.0
 10
-601.040456
 20
724.240948
 30
0.0
 11
-613.636152
 21
736.836652
 31
0.0
 11
-607.269261
 21
735.121769
 31
0.0
 11
-602.755337
 21
730.607841
 31
0.0
 11
-601.040456
 21
724.240948
 31
0.0
  0
LWPOLYLINE
  5
3c2
100
AcDbEntity
  8
Layer_1
 62
5
100
AcDbPolyline
 90
2
 70
1
 10
-601.040456
 20
724.240948
 30
0.0
 10
-601.040456
 20
723.191308
 30
0.0
  0
SPLINE
  5
3c3
100
AcDbEntity
  8
Layer_1
 62
5
100
AcDbSpline
 70
0
 71
3
 72
10
 73
6
 74
4
 40
0.000000
 40
0.000000
 40
0.000000
 40
0.000000
 40
6.593794
 40
12.977447
 40
19.571241
 40
19.571241
 40
19.571241
 40
19.571241
 10
-601.040456
 20
723.191308
 30
0.0
 10
-601.384181
 20
720.980732
 30
0.0
 10
-602.060677
 20
716.630032
 30
0.0
 10
-607.074876
 20
711.615833
 30
0.0
 10
-611.425577
 20
710.939337
 30
0.0
 10
-613.636152
 20
710.595612
 30
0.0
 11
-601.040456
 21
723.191308
 31
0.0
 11
-602.755337
 21
716.824417
 31
0.0
 11
-607.269261
 21
712.310492
 31
0.0
 11
-613.636152
 21
710.595612
 31
0.0
  0
LWPOLYLINE
  5
3c4
100
AcDbEntity
  8
Layer_1
 62
5
100
AcDbPolyline
 90
2
 70
1
 10
-613.636152
 20
710.595612
 30
0.0
 10
-614.685792
 20
710.595612
 30
0.0
  0
SPLINE
  5
3c5
100
AcDbEntity
  8
Layer_1
 62
5
100
AcDbSpline
 70
0
 71
3
 72
10
 73
6
 74
4
 40
0.000000
 40
0.000000
 40
0.000000
 40
0.000000
 40
6.593794
 40
12.977447
 40
19.571241
 40
19.571241
 40
19.571241
 40
19.571241
 10
-614.685792
 20
710.595612
 30
0.0
 10
-616.896367
 20
710.939337
 30
0.0
 10
-621.247068
 20
711.615833
 30
0.0
 10
-626.261267
 20
716.630032
 30
0.0
 10
-626.937763
 20
720.980732
 30
0.0
 10
-627.281488
 20
723.191308
 30
0.0
 11
-614.685792
 21
710.595612
 31
0.0
 11
-621.052683
 21
712.310492
 31
0.0
 11
-625.566607
 21
716.824417
 31
0.0
 11
-627.281488
 21
723.191308
 31
0.0
  0
LWPOLYLINE
  5
3c6
100
AcDbEntity
  8
Layer_1
 62
5
100
AcDbPolyline
 90
2
 70
1
 10
-627.281488
 20
723.191308
 30
0.0
 10
-627.281488
 20
724.240948
 30
0.0
  0
LWPOLYLINE
  5
3c7
100
AcDbEntity
  8
Layer_1
 62
5
100
AcDbPolyline
 90
2
 70
1
 10
-614.685792
 20
736.836652
 30
0.0
 10
-614.685792
 20
736.836652
 30
0.0
  0
LWPOLYLINE
  5
3c8
100
AcDbEntity
  8
Layer_1
 62
3
100
AcDbPolyline
 90
13
 70
1
 10
-605.421982
 20
716.047877
 30
0.0
 10
-610.464390
 20
716.047877
 30
0.0
 10
-613.904533
 20
721.144371
 30
0.0
 10
-617.509625
 20
716.047877
 30
0.0
 10
-622.563809
 20
716.047877
 30
0.0
 10
-616.272580
 20
724.404286
 30
0.0
 10
-621.421022
 20
731.716147
 30
0.0
 10
-616.272580
 20
731.716147
 30
0.0
 10
-613.880972
 20
727.652727
 30
0.0
 10
-611.383329
 20
731.716147
 30
0.0
 10
-606.246671
 20
731.716147
 30
0.0
 10
-611.489364
 20
724.404286
 30
0.0
 10
-605.421982
 20
716.047877
 30
0.0
  0
LWPOLYLINE
  5
3c9
100
AcDbEntity
  8
Layer_1
 62
3
100
AcDbPolyline
 90
2
 70
0
 10
-576.747955
 20
729.829008
 30
0.0
 10
-576.747955
 20
722.805200
 30
0.0
  0
LWPOLYLINE
  5
3ca
100
AcDbEntity
  8
Layer_1
 62
3
100
AcDbPolyline
 90
7
 70
0
 10
-576.747955
 20
726.149870
 30
0.0
 10
-575.744553
 20
727.153272
 30
0.0
 10
-575.075619
 20
727.487739
 30
0.0
 10
-574.072218
 20
727.487739
 30
0.0
 10
-573.403284
 20
727.153272
 30
0.0
 10
-573.068817
 20
726.149870
 30
0.0
 10
-573.068817
 20
722.805200
 30
0.0
  0
LWPOLYLINE
  5
3cb
100
AcDbEntity
  8
Layer_1
 62
3
100
AcDbPolyline
 90
7
 70
0
 10
-571.730948
 20
727.487739
 30
0.0
 10
-571.730948
 20
724.143068
 30
0.0
 10
-571.396481
 20
723.139667
 30
0.0
 10
-570.727547
 20
722.805200
 30
0.0
 10
-569.724146
 20
722.805200
 30
0.0
 10
-569.055212
 20
723.139667
 30
0.0
 10
-568.051810
 20
724.143068
 30
0.0
  0
LWPOLYLINE
  5
3cc
100
AcDbEntity
  8
Layer_1
 62
3
100
AcDbPolyline
 90
2
 70
0
 10
-568.051810
 20
727.487739
 30
0.0
 10
-568.051810
 20
722.805200
 30
0.0
  0
LWPOLYLINE
  5
3cd
100
AcDbEntity
  8
Layer_1
 62
3
100
AcDbPolyline
 90
2
 70
0
 10
-563.034804
 20
729.829008
 30
0.0
 10
-563.034804
 20
722.805200
 30
0.0
  0
SPLINE
  5
3ce
100
AcDbEntity
  8
Layer_1
 62
5
100
AcDbSpline
 70
0
 71
3
 72
10
 73
6
 74
4
 40
0.000000
 40
0.000000
 40
0.000000
 40
0.000000
 40
6.593796
 40
12.977452
 40
19.571246
 40
19.571246
 40
19.571246
 40
19.571246
 10
-627.281488
 20
724.240948
 30
0.0
 10
-626.937763
 20
726.451524
 30
0.0
 10
-626.261266
 20
730.802226
 30
0.0
 10
-621.247069
 20
735.816428
 30
0.0
 10
-616.896368
 20
736.492926
 30
0.0
 10
-614.685792
 20
736.836652
 30
0.0
 11
-627.281488
 21
724.240948
 31
0.0
 11
-625.566607
 21
730.607841
 31
0.0
 11
-621.052683
 21
735.121769
 31
0.0
 11
-614.685792
 21
736.836652
 31
0.0
  0
SPLINE
  5
3cf
100
AcDbEntity
  8
Layer_1
 62
3
100
AcDbSpline
 70
0
 71
3
 72
10
 73
6
 74
4
 40
0.000000
 40
0.000000
 40
0.000000
 40
0.000000
 40
4.988483
 40
10.795855
 40
18.888006
 40
18.888006
 40
18.888006
 40
18.888006
 10
-572.655872
 20
718.266124
 30
0.0
 10
-574.397451
 20
718.535851
 30
0.0
 10
-578.166498
 20
719.119583
 30
0.0
 10
-580.837722
 20
726.099925
 30
0.0
 10
-578.616702
 20
730.339741
 30
0.0
 10
-577.323648
 20
732.808116
 30
0.0
 11
-572.655872
 21
718.266124
 31
0.0
 11
-577.401860
 21
719.802537
 31
0.0
 11
-579.783735
 21
725.098972
 31
0.0
 11
-577.323648
 21
732.808116
 31
0.0
  0
LWPOLYLINE
  5
3d0
100
AcDbEntity
  8
Layer_1
 62
3
100
AcDbPolyline
 90
14
 70
0
 10
-563.034804
 20
726.484337
 30
0.0
 10
-563.703738
 20
727.153272
 30
0.0
 10
-564.372673
 20
727.487739
 30
0.0
 10
-565.376074
 20
727.487739
 30
0.0
 10
-566.045008
 20
727.153272
 30
0.0
 10
-566.713942
 20
726.484337
 30
0.0
 10
-567.048409
 20
725.480936
 30
0.0
 10
-567.048409
 20
724.812002
 30
0.0
 10
-566.713942
 20
723.808601
 30
0.0
 10
-566.045008
 20
723.139667
 30
0.0
 10
-565.376074
 20
722.805200
 30
0.0
 10
-564.372673
 20
722.805200
 30
0.0
 10
-563.703738
 20
723.139667
 30
0.0
 10
-563.034804
 20
723.808601
 30
0.0
  0
LWPOLYLINE
  5
3d1
100
AcDbEntity
  8
Layer_1
 62
5
100
AcDbPolyline
 90
5
 70
1
 10
-600.266976
 20
543.913652
 30
0.0
 10
-576.434160
 20
543.913652
 30
0.0
 10
-576.434160
 20
520.080836
 30
0.0
 10
-600.266976
 20
520.080836
 30
0.0
 10
-600.266976
 20
543.913652
 30
0.0
  0
LWPOLYLINE
  5
3d2
100
AcDbEntity
  8
Layer_1
 62
3
100
AcDbPolyline
 90
2
 70
0
 10
-592.145843
 20
536.129528
 30
0.0
 10
-592.145843
 20
529.105720
 30
0.0
  0
LWPOLYLINE
  5
3d3
100
AcDbEntity
  8
Layer_1
 62
3
100
AcDbPolyline
 90
7
 70
0
 10
-592.145843
 20
532.450390
 30
0.0
 10
-591.142441
 20
533.453792
 30
0.0
 10
-590.473507
 20
533.788259
 30
0.0
 10
-589.470106
 20
533.788259
 30
0.0
 10
-588.801172
 20
533.453792
 30
0.0
 10
-588.466705
 20
532.450390
 30
0.0
 10
-588.466705
 20
529.105720
 30
0.0
  0
LWPOLYLINE
  5
3d4
100
AcDbEntity
  8
Layer_1
 62
3
100
AcDbPolyline
 90
7
 70
0
 10
-587.128836
 20
533.788259
 30
0.0
 10
-587.128836
 20
530.443588
 30
0.0
 10
-586.794369
 20
529.440187
 30
0.0
 10
-586.125435
 20
529.105720
 30
0.0
 10
-585.122034
 20
529.105720
 30
0.0
 10
-584.453100
 20
529.440187
 30
0.0
 10
-583.449698
 20
530.443588
 30
0.0
  0
LWPOLYLINE
  5
3d5
100
AcDbEntity
  8
Layer_1
 62
3
100
AcDbPolyline
 90
2
 70
0
 10
-583.449698
 20
533.788259
 30
0.0
 10
-583.449698
 20
529.105720
 30
0.0
  0
LWPOLYLINE
  5
3d6
100
AcDbEntity
  8
Layer_1
 62
3
100
AcDbPolyline
 90
2
 70
0
 10
-578.432692
 20
536.129528
 30
0.0
 10
-578.432692
 20
529.105720
 30
0.0
  0
SPLINE
  5
3d7
100
AcDbEntity
  8
Layer_1
 62
3
100
AcDbSpline
 70
0
 71
3
 72
10
 73
6
 74
4
 40
0.000000
 40
0.000000
 40
0.000000
 40
0.000000
 40
5.528301
 40
11.333842
 40
16.048628
 40
16.048628
 40
16.048628
 40
16.048628
 10
-571.173024
 20
734.417116
 30
0.0
 10
-572.751668
 20
733.514652
 30
0.0
 10
-575.988124
 20
731.664466
 30
0.0
 10
-583.521652
 20
734.526018
 30
0.0
 10
-582.464893
 20
730.078294
 30
0.0
 10
-581.991296
 20
728.085004
 30
0.0
 11
-571.173024
 21
734.417116
 31
0.0
 11
-576.404746
 21
732.630725
 31
0.0
 11
-582.207969
 21
732.794808
 31
0.0
 11
-581.991296
 21
728.085004
 31
0.0
  0
SPLINE
  5
3d8
100
AcDbEntity
  8
Layer_1
 62
3
100
AcDbSpline
 70
0
 71
3
 72
10
 73
6
 74
4
 40
0.000000
 40
0.000000
 40
0.000000
 40
0.000000
 40
4.988483
 40
10.795855
 40
18.888006
 40
18.888006
 40
18.888006
 40
18.888006
 10
-588.053760
 20
524.566644
 30
0.0
 10
-589.795339
 20
524.836371
 30
0.0
 10
-593.564386
 20
525.420103
 30
0.0
 10
-596.235610
 20
532.400445
 30
0.0
 10
-594.014590
 20
536.640261
 30
0.0
 10
-592.721536
 20
539.108636
 30
0.0
 11
-588.053760
 21
524.566644
 31
0.0
 11
-592.799748
 21
526.103057
 31
0.0
 11
-595.181623
 21
531.399492
 31
0.0
 11
-592.721536
 21
539.108636
 31
0.0
  0
LWPOLYLINE
  5
3d9
100
AcDbEntity
  8
Layer_1
 62
3
100
AcDbPolyline
 90
14
 70
0
 10
-578.432692
 20
532.784857
 30
0.0
 10
-579.101626
 20
533.453792
 30
0.0
 10
-579.770561
 20
533.788259
 30
0.0
 10
-580.773962
 20
533.788259
 30
0.0
 10
-581.442896
 20
533.453792
 30
0.0
 10
-582.111830
 20
532.784857
 30
0.0
 10
-582.446297
 20
531.781456
 30
0.0
 10
-582.446297
 20
531.112522
 30
0.0
 10
-582.111830
 20
530.109121
 30
0.0
 10
-581.442896
 20
529.440187
 30
0.0
 10
-580.773962
 20
529.105720
 30
0.0
 10
-579.770561
 20
529.105720
 30
0.0
 10
-579.101626
 20
529.440187
 30
0.0
 10
-578.432692
 20
530.109121
 30
0.0
  0
LWPOLYLINE
  5
3da
100
AcDbEntity
  8
Layer_1
 62
5
100
AcDbPolyline
 90
5
 70
1
 10
-606.334656
 20
504.281868
 30
0.0
 10
-582.501832
 20
504.281868
 30
0.0
 10
-582.501832
 20
480.449044
 30
0.0
 10
-606.334656
 20
480.449044
 30
0.0
 10
-606.334656
 20
504.281868
 30
0.0
  0
SPLINE
  5
3db
100
AcDbEntity
  8
Layer_1
 62
3
100
AcDbSpline
 70
0
 71
3
 72
10
 73
6
 74
4
 40
0.000000
 40
0.000000
 40
0.000000
 40
0.000000
 40
5.528301
 40
11.333842
 40
16.048628
 40
16.048628
 40
16.048628
 40
16.048628
 10
-586.570912
 20
540.717636
 30
0.0
 10
-588.149556
 20
539.815172
 30
0.0
 10
-591.386012
 20
537.964986
 30
0.0
 10
-598.919540
 20
540.826538
 30
0.0
 10
-597.862781
 20
536.378814
 30
0.0
 10
-597.389184
 20
534.385524
 30
0.0
 11
-586.570912
 21
540.717636
 31
0.0
 11
-591.802634
 21
538.931245
 31
0.0
 11
-597.605857
 21
539.095328
 31
0.0
 11
-597.389184
 21
534.385524
 31
0.0
  0
LWPOLYLINE
  5
3dc
100
AcDbEntity
  8
Layer_1
 62
3
100
AcDbPolyline
 90
13
 70
1
 10
-585.847358
 20
484.531325
 30
0.0
 10
-590.889766
 20
484.531325
 30
0.0
 10
-594.329909
 20
489.627819
 30
0.0
 10
-597.935001
 20
484.531325
 30
0.0
 10
-602.989185
 20
484.531325
 30
0.0
 10
-596.697956
 20
492.887734
 30
0.0
 10
-601.846398
 20
500.199595
 30
0.0
 10
-596.697956
 20
500.199595
 30
0.0
 10
-594.306348
 20
496.136175
 30
0.0
 10
-591.808705
 20
500.199595
 30
0.0
 10
-586.672047
 20
500.199595
 30
0.0
 10
-591.914740
 20
492.887734
 30
0.0
 10
-585.847358
 20
484.531325
 30
0.0
  0
ENDSEC
  0
SECTION
  2
OBJECTS
  0
DICTIONARY
  5
C
330
0
100
AcDbDictionary
  3
ACAD_GROUP
350
D
  3
ACAD_MLINESTYLE
350
17
  0
DICTIONARY
  5
D
330
C
100
AcDbDictionary
  0
DICTIONARY
  5
1A
330
C
100
AcDbDictionary
  0
DICTIONARY
  5
17
330
C
100
AcDbDictionary
  3
STANDARD
350
18
  0
DICTIONARY
  5
19
330
C
100
AcDbDictionary
  0
ENDSEC
  0
EOF
