999
dxfrw 0.6.3
  0
SECTION
  2
HEADER
  9
$ACADVER
  1
AC1021
  9
$DWGCODEPAGE
  3
ANSI_1252
  9
$INSBASE
 10
0
 20
0
 30
0
  9
$EXTMIN
 10
4400
 20
11103.33333333333
 30
0
  9
$EXTMAX
 10
5517.595133893994
 20
11865
 30
0
  9
$LIMMIN
 10
0
 20
0
  9
$LIMMAX
 10
420
 20
297
  9
$ORTHOMODE
 70
    0
  9
$REGENMODE
 70
    1
  9
$FILLMODE
 70
    1
  9
$QTEXTMODE
 70
    0
  9
$MIRRTEXT
 70
    0
  9
$LTSCALE
 40
1
  9
$ATTMODE
 70
    0
  9
$TEXTSIZE
 40
2.5
  9
$TRACEWID
 40
15.68
  9
$TEXTSTYLE
  7
STANDARD
  9
$CLAYER
  8
0
  9
$CELTYPE
  6
BYLAYER
  9
$CECOLOR
 62
  256
  9
$CELTSCALE
 40
1
  9
$DISPSILH
 70
    0
  9
$DIMSCALE
 40
1
  9
$DIMASZ
 40
2.5
  9
$DIMEXO
 40
0.625
  9
$DIMDLI
 40
3.75
  9
$DIMRND
 40
0
  9
$DIMDLE
 40
0
  9
$DIMEXE
 40
1.25
  9
$DIMTP
 40
0
  9
$DIMTM
 40
0
  9
$DIMTXT
 40
2.5
  9
$DIMCEN
 40
2.5
  9
$DIMTSZ
 40
0
  9
$DIMTOL
 70
    0
  9
$DIMLIM
 70
    0
  9
$DIMTIH
 70
    0
  9
$DIMTOH
 70
    0
  9
$DIMSE1
 70
    0
  9
$DIMSE2
 70
    0
  9
$DIMTAD
 70
    1
  9
$DIMZIN
 70
    8
  9
$DIMBLK
  1

  9
$DIMASO
 70
    1
  9
$DIMSHO
 70
    1
  9
$DIMPOST
  1

  9
$DIMAPOST
  1

  9
$DIMALT
 70
    0
  9
$DIMALTD
 70
    3
  9
$DIMALTF
 40
0.03937
  9
$DIMLFAC
 40
1
  9
$DIMTOFL
 70
    1
  9
$DIMTVP
 40
0
  9
$DIMTIX
 70
    0
  9
$DIMSOXD
 70
    0
  9
$DIMSAH
 70
    0
  9
$DIMBLK1
  1

  9
$DIMBLK2
  1

  9
$DIMSTYLE
  2
STANDARD
  9
$DIMCLRD
 70
    0
  9
$DIMCLRE
 70
    0
  9
$DIMCLRT
 70
    0
  9
$DIMTFAC
 40
1
  9
$DIMGAP
 40
0.625
  9
$DIMJUST
 70
    0
  9
$DIMSD1
 70
    0
  9
$DIMSD2
 70
    0
  9
$DIMTOLJ
 70
    0
  9
$DIMTZIN
 70
    8
  9
$DIMALTZ
 70
    0
  9
$DIMALTTZ
 70
    0
  9
$DIMUPT
 70
    0
  9
$DIMDEC
 70
    2
  9
$DIMTDEC
 70
    2
  9
$DIMALTU
 70
    2
  9
$DIMALTTD
 70
    3
  9
$DIMTXSTY
  7
STANDARD
  9
$DIMAUNIT
 70
    0
  9
$DIMADEC
 70
    0
  9
$DIMALTRND
 40
0
  9
$DIMAZIN
 70
    0
  9
$DIMDSEP
 70
   44
  9
$DIMATFIT
 70
    3
  9
$DIMFRAC
 70
    0
  9
$DIMLDRBLK
  1
STANDARD
  9
$DIMLUNIT
 70
    2
  9
$DIMLWD
 70
   -2
  9
$DIMLWE
 70
   -2
  9
$DIMTMOVE
 70
    0
  9
$DIMFXL
 40
1
  9
$DIMFXLON
 70
    0
  9
$DIMJOGANG
 40
0.7854
  9
$DIMTFILL
 70
    0
  9
$DIMTFILLCLR
 70
    0
  9
$DIMARCSYM
 70
    0
  9
$DIMLTYPE
  6

  9
$DIMLTEX1
  6

  9
$DIMLTEX2
  6

  9
$LUNITS
 70
    2
  9
$LUPREC
 70
    4
  9
$SKETCHINC
 40
1
  9
$FILLETRAD
 40
0
  9
$AUNITS
 70
    0
  9
$AUPREC
 70
    2
  9
$MENU
  1
.
  9
$ELEVATION
 40
0
  9
$PELEVATION
 40
0
  9
$THICKNESS
 40
0
  9
$LIMCHECK
 70
    0
  9
$CHAMFERA
 40
0
  9
$CHAMFERB
 40
0
  9
$CHAMFERC
 40
0
  9
$CHAMFERD
 40
0
  9
$SKPOLY
 70
    0
  9
$USRTIMER
 70
    1
  9
$ANGBASE
 50
0
  9
$ANGDIR
 70
    0
  9
$PDMODE
 70
   34
  9
$PDSIZE
 40
0
  9
$PLINEWID
 40
0
  9
$SPLFRAME
 70
    0
  9
$SPLINETYPE
 70
    2
  9
$SPLINESEGS
 70
    8
  9
$HANDSEED
  5
20000
  9
$SURFTAB1
 70
    6
  9
$SURFTAB2
 70
    6
  9
$SURFTYPE
 70
    6
  9
$SURFU
 70
    6
  9
$SURFV
 70
    6
  9
$UCSBASE
  2

  9
$UCSNAME
  2

  9
$UCSORG
 10
0
 20
0
 30
0
  9
$UCSXDIR
 10
1
 20
0
 30
0
  9
$UCSYDIR
 10
0
 20
1
 30
0
  9
$UCSORTHOREF
  2

  9
$UCSORTHOVIEW
 70
    0
  9
$UCSORGTOP
 10
0
 20
0
 30
0
  9
$UCSORGBOTTOM
 10
0
 20
0
 30
0
  9
$UCSORGLEFT
 10
0
 20
0
 30
0
  9
$UCSORGRIGHT
 10
0
 20
0
 30
0
  9
$UCSORGFRONT
 10
0
 20
0
 30
0
  9
$UCSORGBACK
 10
0
 20
0
 30
0
  9
$PUCSBASE
  2

  9
$PUCSNAME
  2

  9
$PUCSORG
 10
0
 20
0
 30
0
  9
$PUCSXDIR
 10
1
 20
0
 30
0
  9
$PUCSYDIR
 10
0
 20
1
 30
0
  9
$PUCSORTHOREF
  2

  9
$PUCSORTHOVIEW
 70
    0
  9
$PUCSORGTOP
 10
0
 20
0
 30
0
  9
$PUCSORGBOTTOM
 10
0
 20
0
 30
0
  9
$PUCSORGLEFT
 10
0
 20
0
 30
0
  9
$PUCSORGRIGHT
 10
0
 20
0
 30
0
  9
$PUCSORGFRONT
 10
0
 20
0
 30
0
  9
$PUCSORGBACK
 10
0
 20
0
 30
0
  9
$USERI1
 70
    0
  9
$USERI2
 70
    0
  9
$USERI3
 70
    0
  9
$USERI4
 70
    0
  9
$USERI5
 70
    0
  9
$USERR1
 40
0
  9
$USERR2
 40
0
  9
$USERR3
 40
0
  9
$USERR4
 40
0
  9
$USERR5
 40
0
  9
$WORLDVIEW
 70
    1
  9
$SHADEDGE
 70
    3
  9
$SHADEDIF
 70
   70
  9
$TILEMODE
 70
    1
  9
$MAXACTVP
 70
   64
  9
$PINSBASE
 10
0
 20
0
 30
0
  9
$PLIMCHECK
 70
    0
  9
$PEXTMIN
 10
0
 20
0
 30
0
  9
$PEXTMAX
 10
0
 20
0
 30
0
  9
$GRIDMODE
 70
    1
  9
$SNAPSTYLE
 70
    0
  9
$GRIDUNIT
 10
1
 20
1
  9
$PLIMMIN
 10
0
 20
0
  9
$PLIMMAX
 10
210
 20
297
  9
$UNITMODE
 70
    0
  9
$VISRETAIN
 70
    1
  9
$PLINEGEN
 70
    0
  9
$PSLTSCALE
 70
    1
  9
$TREEDEPTH
 70
 3020
  9
$CMLSTYLE
  2
Standard
  9
$CMLJUST
 70
    0
  9
$CMLSCALE
 40
20
  9
$PROXYGRAPHICS
 70
    1
  9
$MEASUREMENT
 70
    1
  9
$CELWEIGHT
370
   -1
  9
$ENDCAPS
280
    0
  9
$JOINSTYLE
280
    0
  9
$LWDISPLAY
290
    0
  9
$INSUNITS
 70
    4
  9
$HYPERLINKBASE
  1

  9
$STYLESHEET
  1

  9
$XEDIT
290
    1
  9
$CEPSNTYPE
380
    0
  9
$PSTYLEMODE
290
    1
  9
$EXTNAMES
290
    1
  9
$PSVPSCALE
 40
1
  9
$OLESTARTUP
290
    0
  9
$SORTENTS
280
  127
  9
$INDEXCTL
280
    0
  9
$HIDETEXT
280
    1
  9
$XCLIPFRAME
290
    0
  9
$HALOGAP
280
    0
  9
$OBSCOLOR
 70
  257
  9
$OBSLTYPE
280
    0
  9
$INTERSECTIONDISPLAY
280
    0
  9
$INTERSECTIONCOLOR
 70
  257
  9
$DIMASSOC
280
    1
  9
$PROJECTNAME
  1

  9
$CAMERADISPLAY
290
    0
  9
$LENSLENGTH
 40
50
  9
$CAMERAHEIGHT
 40
0
  9
$STEPSPERSEC
 40
2
  9
$STEPSIZE
 40
50
  9
$3DDWFPREC
 40
2
  9
$PSOLWIDTH
 40
5
  9
$PSOLHEIGHT
 40
80
  9
$LOFTANG1
 40
1.570796326794897
  9
$LOFTANG2
 40
1.570796326794897
  9
$LOFTMAG1
 40
0
  9
$LOFTMAG2
 40
0
  9
$LOFTPARAM
 70
    7
  9
$LOFTNORMALS
280
    1
  9
$LATITUDE
 40
1
  9
$LONGITUDE
 40
1
  9
$NORTHDIRECTION
 40
0
  9
$TIMEZONE
 70
-8000
  9
$LIGHTGLYPHDISPLAY
280
    1
  9
$TILEMODELIGHTSYNCH
280
    1
  9
$SOLIDHIST
280
    1
  9
$SHOWHIST
280
    1
  9
$DWFFRAME
280
    2
  9
$DGNFRAME
280
    0
  9
$REALWORLDSCALE
290
    1
  9
$INTERFERECOLOR
 62
    1
  9
$CSHADOW
280
    0
  9
$SHADOWPLANELOCATION
 40
0
  0
ENDSEC
  0
SECTION
  2
CLASSES
  0
ENDSEC
  0
SECTION
  2
TABLES
  0
TABLE
  2
VPORT
  5
8
330
0
100
AcDbSymbolTable
 70
    1
  0
VPORT
  5
31
330
2
100
AcDbSymbolTableRecord
100
AcDbViewportTableRecord
  2
*ACTIVE
 70
    0
 10
0
 20
0
 11
1
 21
1
 12
2651.743281983352
 22
5884.006457290077
 13
0
 23
0
 14
10
 24
10
 15
1
 25
1
 16
0
 26
0
 36
1
 17
0
 27
0
 37
0
 40
473.4224888365661
 41
0.9853658536585366
 42
50
 43
0
 44
0
 50
0
 51
0
 71
    0
 72
  100
 73
    1
 74
    3
 75
    0
 76
    1
 77
    0
 78
    0
281
    0
 65
    1
110
0
120
0
130
0
111
1
121
0
131
0
112
0
122
1
132
0
 79
    0
146
0
348
10020
 60
    3
 61
    5
292
1
282
    1
141
0
142
0
 63
  250
421
3358443
  0
ENDTAB
  0
TABLE
  2
LTYPE
  5
5
330
0
100
AcDbSymbolTable
 70
    4
  0
LTYPE
  5
14
330
5
100
AcDbSymbolTableRecord
100
AcDbLinetypeTableRecord
  2
ByBlock
 70
    0
  3

 72
   65
 73
    0
 40
0
  0
LTYPE
  5
15
330
5
100
AcDbSymbolTableRecord
100
AcDbLinetypeTableRecord
  2
ByLayer
 70
    0
  3

 72
   65
 73
    0
 40
0
  0
LTYPE
  5
16
330
5
100
AcDbSymbolTableRecord
100
AcDbLinetypeTableRecord
  2
Continuous
 70
    0
  3
Solid line
 72
   65
 73
    0
 40
0
  0
LTYPE
  5
32
330
5
100
AcDbSymbolTableRecord
100
AcDbLinetypeTableRecord
  2
DOT
 70
    0
  3
Dot . . . . . . . . . . . . . . . . . . . . . .
 72
   65
 73
    2
 40
6.35
 49
0
 74
    0
 49
-6.35
 74
    0
  0
LTYPE
  5
33
330
5
100
AcDbSymbolTableRecord
100
AcDbLinetypeTableRecord
  2
DOTTINY
 70
    0
  3
Dot (.15x) .....................................
 72
   65
 73
    2
 40
0.9525
 49
0
 74
    0
 49
-0.9525
 74
    0
  0
LTYPE
  5
34
330
5
100
AcDbSymbolTableRecord
100
AcDbLinetypeTableRecord
  2
DOT2
 70
    0
  3
Dot (.5x) .....................................
 72
   65
 73
    2
 40
3.175
 49
0
 74
    0
 49
-3.175
 74
    0
  0
LTYPE
  5
35
330
5
100
AcDbSymbolTableRecord
100
AcDbLinetypeTableRecord
  2
DOTX2
 70
    0
  3
Dot (2x) .  .  .  .  .  .  .  .  .  .  .  .  .
 72
   65
 73
    2
 40
12.7
 49
0
 74
    0
 49
-12.7
 74
    0
  0
LTYPE
  5
36
330
5
100
AcDbSymbolTableRecord
100
AcDbLinetypeTableRecord
  2
DASHED
 70
    0
  3
Dashed _ _ _ _ _ _ _ _ _ _ _ _ _ _ _ _ _
 72
   65
 73
    2
 40
19.05
 49
12.7
 74
    0
 49
-6.35
 74
    0
  0
LTYPE
  5
37
330
5
100
AcDbSymbolTableRecord
100
AcDbLinetypeTableRecord
  2
DASHEDTINY
 70
    0
  3
Dashed (.15x) _ _ _ _ _ _ _ _ _ _ _ _ _ _ _ _ _
 72
   65
 73
    2
 40
2.8575
 49
1.905
 74
    0
 49
-0.9525
 74
    0
  0
LTYPE
  5
38
330
5
100
AcDbSymbolTableRecord
100
AcDbLinetypeTableRecord
  2
DASHED2
 70
    0
  3
Dashed (.5x) _ _ _ _ _ _ _ _ _ _ _ _ _ _ _ _ _
 72
   65
 73
    2
 40
9.524999999999999
 49
6.35
 74
    0
 49
-3.175
 74
    0
  0
LTYPE
  5
39
330
5
100
AcDbSymbolTableRecord
100
AcDbLinetypeTableRecord
  2
DASHEDX2
 70
    0
  3
Dashed (2x) ____  ____  ____  ____  ____  ___
 72
   65
 73
    2
 40
38.09999999999999
 49
25.4
 74
    0
 49
-12.7
 74
    0
  0
LTYPE
  5
3A
330
5
100
AcDbSymbolTableRecord
100
AcDbLinetypeTableRecord
  2
DASHDOT
 70
    0
  3
Dash dot __ . __ . __ . __ . __ . __ . __ . __
 72
   65
 73
    4
 40
25.4
 49
12.7
 74
    0
 49
-6.35
 74
    0
 49
0
 74
    0
 49
-6.35
 74
    0
  0
LTYPE
  5
3B
330
5
100
AcDbSymbolTableRecord
100
AcDbLinetypeTableRecord
  2
DASHDOTTINY
 70
    0
  3
Dash dot (.15x) _._._._._._._._._._._._._._._.
 72
   65
 73
    4
 40
3.81
 49
1.905
 74
    0
 49
-0.9525
 74
    0
 49
0
 74
    0
 49
-0.9525
 74
    0
  0
LTYPE
  5
3C
330
5
100
AcDbSymbolTableRecord
100
AcDbLinetypeTableRecord
  2
DASHDOT2
 70
    0
  3
Dash dot (.5x) _._._._._._._._._._._._._._._.
 72
   65
 73
    4
 40
12.7
 49
6.35
 74
    0
 49
-3.175
 74
    0
 49
0
 74
    0
 49
-3.175
 74
    0
  0
LTYPE
  5
3D
330
5
100
AcDbSymbolTableRecord
100
AcDbLinetypeTableRecord
  2
DASHDOTX2
 70
    0
  3
Dash dot (2x) ____  .  ____  .  ____  .  ___
 72
   65
 73
    4
 40
50.8
 49
25.4
 74
    0
 49
-12.7
 74
    0
 49
0
 74
    0
 49
-12.7
 74
    0
  0
LTYPE
  5
3E
330
5
100
AcDbSymbolTableRecord
100
AcDbLinetypeTableRecord
  2
DIVIDE
 70
    0
  3
Divide ____ . . ____ . . ____ . . ____ . . ____
 72
   65
 73
    6
 40
31.75
 49
12.7
 74
    0
 49
-6.35
 74
    0
 49
0
 74
    0
 49
-6.35
 74
    0
 49
0
 74
    0
 49
-6.35
 74
    0
  0
LTYPE
  5
3F
330
5
100
AcDbSymbolTableRecord
100
AcDbLinetypeTableRecord
  2
DIVIDETINY
 70
    0
  3
Divide (.15x) __..__..__..__..__..__..__..__.._
 72
   65
 73
    6
 40
4.7625
 49
1.905
 74
    0
 49
-0.9525
 74
    0
 49
0
 74
    0
 49
-0.9525
 74
    0
 49
0
 74
    0
 49
-0.9525
 74
    0
  0
LTYPE
  5
40
330
5
100
AcDbSymbolTableRecord
100
AcDbLinetypeTableRecord
  2
DIVIDE2
 70
    0
  3
Divide (.5x) __..__..__..__..__..__..__..__.._
 72
   65
 73
    6
 40
15.875
 49
6.35
 74
    0
 49
-3.175
 74
    0
 49
0
 74
    0
 49
-3.175
 74
    0
 49
0
 74
    0
 49
-3.175
 74
    0
  0
LTYPE
  5
41
330
5
100
AcDbSymbolTableRecord
100
AcDbLinetypeTableRecord
  2
DIVIDEX2
 70
    0
  3
Divide (2x) ________  .  .  ________  .  .  _
 72
   65
 73
    6
 40
63.5
 49
25.4
 74
    0
 49
-12.7
 74
    0
 49
0
 74
    0
 49
-12.7
 74
    0
 49
0
 74
    0
 49
-12.7
 74
    0
  0
LTYPE
  5
42
330
5
100
AcDbSymbolTableRecord
100
AcDbLinetypeTableRecord
  2
BORDER
 70
    0
  3
Border __ __ . __ __ . __ __ . __ __ . __ __ .
 72
   65
 73
    6
 40
44.45
 49
12.7
 74
    0
 49
-6.35
 74
    0
 49
12.7
 74
    0
 49
-6.35
 74
    0
 49
0
 74
    0
 49
-6.35
 74
    0
  0
LTYPE
  5
43
330
5
100
AcDbSymbolTableRecord
100
AcDbLinetypeTableRecord
  2
BORDERTINY
 70
    0
  3
Border (.15x) __.__.__.__.__.__.__.__.__.__.__.
 72
   65
 73
    6
 40
6.6675
 49
1.905
 74
    0
 49
-0.9525
 74
    0
 49
1.905
 74
    0
 49
-0.9525
 74
    0
 49
0
 74
    0
 49
-0.9525
 74
    0
  0
LTYPE
  5
44
330
5
100
AcDbSymbolTableRecord
100
AcDbLinetypeTableRecord
  2
BORDER2
 70
    0
  3
Border (.5x) __.__.__.__.__.__.__.__.__.__.__.
 72
   65
 73
    6
 40
22.225
 49
6.35
 74
    0
 49
-3.175
 74
    0
 49
6.35
 74
    0
 49
-3.175
 74
    0
 49
0
 74
    0
 49
-3.175
 74
    0
  0
LTYPE
  5
45
330
5
100
AcDbSymbolTableRecord
100
AcDbLinetypeTableRecord
  2
BORDERX2
 70
    0
  3
Border (2x) ____  ____  .  ____  ____  .  ___
 72
   65
 73
    6
 40
88.89999999999999
 49
25.4
 74
    0
 49
-12.7
 74
    0
 49
25.4
 74
    0
 49
-12.7
 74
    0
 49
0
 74
    0
 49
-12.7
 74
    0
  0
LTYPE
  5
46
330
5
100
AcDbSymbolTableRecord
100
AcDbLinetypeTableRecord
  2
CENTER
 70
    0
  3
Center ____ _ ____ _ ____ _ ____ _ ____ _ ____
 72
   65
 73
    4
 40
50.8
 49
31.75
 74
    0
 49
-6.35
 74
    0
 49
6.35
 74
    0
 49
-6.35
 74
    0
  0
LTYPE
  5
47
330
5
100
AcDbSymbolTableRecord
100
AcDbLinetypeTableRecord
  2
CENTERTINY
 70
    0
  3
Center (.15x) ___ _ ___ _ ___ _ ___ _ ___ _ ___
 72
   65
 73
    4
 40
7.62
 49
4.7625
 74
    0
 49
-0.9525
 74
    0
 49
0.9525
 74
    0
 49
-0.9525
 74
    0
  0
LTYPE
  5
48
330
5
100
AcDbSymbolTableRecord
100
AcDbLinetypeTableRecord
  2
CENTER2
 70
    0
  3
Center (.5x) ___ _ ___ _ ___ _ ___ _ ___ _ ___
 72
   65
 73
    4
 40
28.575
 49
19.05
 74
    0
 49
-3.175
 74
    0
 49
3.175
 74
    0
 49
-3.175
 74
    0
  0
LTYPE
  5
49
330
5
100
AcDbSymbolTableRecord
100
AcDbLinetypeTableRecord
  2
CENTERX2
 70
    0
  3
Center (2x) ________  __  ________  __  _____
 72
   65
 73
    4
 40
101.6
 49
63.5
 74
    0
 49
-12.7
 74
    0
 49
12.7
 74
    0
 49
-12.7
 74
    0
  0
ENDTAB
  0
TABLE
  2
LAYER
  5
2
330
0
100
AcDbSymbolTable
 70
    1
  0
LAYER
  5
10
330
2
100
AcDbSymbolTableRecord
100
AcDbLayerTableRecord
  2
0
 70
    0
 62
    7
  6
CONTINUOUS
370
    0
390
F
  0
LAYER
  5
4A
330
2
100
AcDbSymbolTableRecord
100
AcDbLayerTableRecord
  2
Dimensions
 70
    1
 62
    7
  6
CONTINUOUS
370
    0
390
F
  0
LAYER
  5
4B
330
2
100
AcDbSymbolTableRecord
100
AcDbLayerTableRecord
  2
Text
 70
    0
 62
    7
  6
CONTINUOUS
370
    0
390
F
  0
LAYER
  5
4C
330
2
100
AcDbSymbolTableRecord
100
AcDbLayerTableRecord
  2
Title Block
 70
    5
 62
    7
  6
CONTINUOUS
370
   -3
390
F
  0
ENDTAB
  0
TABLE
  2
STYLE
  5
3
330
0
100
AcDbSymbolTable
 70
    3
  0
STYLE
  5
4D
330
2
100
AcDbSymbolTableRecord
100
AcDbTextStyleTableRecord
  2
standard
 70
    0
 40
0
 41
1
 50
0
 71
    0
 42
1
  3
standard
  4

  0
STYLE
  5
4E
330
2
100
AcDbSymbolTableRecord
100
AcDbTextStyleTableRecord
  2
iso
 70
    0
 40
0
 41
1
 50
0
 71
    0
 42
1
  3
iso
  4

  0
ENDTAB
  0
TABLE
  2
VIEW
  5
6
330
0
100
AcDbSymbolTable
 70
    0
  0
ENDTAB
  0
TABLE
  2
UCS
  5
7
330
0
100
AcDbSymbolTable
 70
    0
  0
ENDTAB
  0
TABLE
  2
APPID
  5
9
330
0
100
AcDbSymbolTable
 70
    1
  0
APPID
  5
12
330
9
100
AcDbSymbolTableRecord
100
AcDbRegAppTableRecord
  2
ACAD
 70
    0
  0
APPID
  5
4F
330
9
100
AcDbSymbolTableRecord
100
AcDbRegAppTableRecord
  2
LibreCad
 70
    0
  0
ENDTAB
  0
TABLE
  2
DIMSTYLE
  5
A
330
0
100
AcDbSymbolTable
 70
    1
100
AcDbDimStyleTable
 71
    1
  0
DIMSTYLE
105
50
330
A
100
AcDbSymbolTableRecord
100
AcDbDimStyleTableRecord
  2
Standard
 70
    0
 40
1
 41
2.5
 42
0.625
 43
0.38
 44
1.25
 45
0
 46
0
 47
0
 48
0
 49
1
140
2.5
141
0.09
142
0
143
25.4
144
1
145
0
146
1
147
0.625
148
0
 71
    0
 72
    0
 73
    0
 74
    1
 75
    0
 76
    0
 77
    0
 78
    8
 79
    0
170
    0
171
    2
172
    0
173
    0
174
    0
175
    0
176
    0
177
    0
178
    0
179
    0
271
    2
272
    4
273
    2
274
    2
275
    0
276
    0
277
    2
278
   44
279
    0
280
    0
281
    0
282
    0
283
    1
284
    0
285
    0
286
    0
288
    0
289
    3
340
STANDARD
341

371
   -2
372
   -2
  0
ENDTAB
  0
TABLE
  2
BLOCK_RECORD
  5
1
330
0
100
AcDbSymbolTable
 70
    2
  0
BLOCK_RECORD
  5
1F
330
1
100
AcDbSymbolTableRecord
100
AcDbBlockTableRecord
  2
*Model_Space
 70
    0
280
    1
281
    0
  0
BLOCK_RECORD
  5
1E
330
1
100
AcDbSymbolTableRecord
100
AcDbBlockTableRecord
  2
*Paper_Space
 70
    0
280
    1
281
    0
  0
BLOCK_RECORD
  5
51
330
1
100
AcDbSymbolTableRecord
100
AcDbBlockTableRecord
  2
BailHandleLocker
 70
    0
280
    1
281
    0
  0
BLOCK_RECORD
  5
54
330
1
100
AcDbSymbolTableRecord
100
AcDbBlockTableRecord
  2
BailHandleLocker2
 70
    0
280
    1
281
    0
  0
BLOCK_RECORD
  5
57
330
1
100
AcDbSymbolTableRecord
100
AcDbBlockTableRecord
  2
BlockBailPipeTops
 70
    0
280
    1
281
    0
  0
BLOCK_RECORD
  5
5A
330
1
100
AcDbSymbolTableRecord
100
AcDbBlockTableRecord
  2
BlockBailSquareTubeTops
 70
    0
280
    1
281
    0
  0
BLOCK_RECORD
  5
5D
330
1
100
AcDbSymbolTableRecord
100
AcDbBlockTableRecord
  2
BlockBailPipePullerTops
 70
    0
280
    1
281
    0
  0
BLOCK_RECORD
  5
60
330
1
100
AcDbSymbolTableRecord
100
AcDbBlockTableRecord
  2
BlockBailSupportHangers
 70
    0
280
    1
281
    0
  0
BLOCK_RECORD
  5
63
330
1
100
AcDbSymbolTableRecord
100
AcDbBlockTableRecord
  2
BlockBailSupportUnknowns
 70
    0
280
    1
281
    0
  0
ENDTAB
  0
ENDSEC
  0
SECTION
  2
BLOCKS
  0
BLOCK
  5
20
330
1F
100
AcDbEntity
  8
0
100
AcDbBlockBegin
  2
*Model_Space
 70
    0
 10
0
 20
0
 30
0
  3
*Model_Space
  1

  0
ENDBLK
  5
21
330
1F
100
AcDbEntity
  8
0
100
AcDbBlockEnd
  0
BLOCK
  5
1C
330
1B
100
AcDbEntity
  8
0
100
AcDbBlockBegin
  2
*Paper_Space
 70
    0
 10
0
 20
0
 30
0
  3
*Paper_Space
  1

  0
ENDBLK
  5
1D
330
1F
100
AcDbEntity
  8
0
100
AcDbBlockEnd
  0
BLOCK
  5
52
330
51
100
AcDbEntity
  8
0
100
AcDbBlockBegin
  2
BailHandleLocker
 70
    0
 10
0
 20
0
  3
BailHandleLocker
  1

  0
INSERT
  5
66
100
AcDbEntity
  8
0
  6
ByLayer
 62
  256
370
   -1
100
AcDbBlockReference
  2
BailHandleLocker2
 10
0
 20
0
 30
0
 41
1
 42
1
 43
0
 50
0
 70
    1
 71
    1
 44
0
 45
0
  0
ENDBLK
  5
53
330
51
100
AcDbEntity
  8
0
100
AcDbBlockEnd
  0
BLOCK
  5
55
330
54
100
AcDbEntity
  8
0
100
AcDbBlockBegin
  2
BailHandleLocker2
 70
    0
 10
0
 20
0
  3
BailHandleLocker2
  1

  0
ARC
  5
67
100
AcDbEntity
  8
0
  6
ByLayer
 62
  256
370
   -1
100
AcDbCircle
 10
46
 20
105
 40
10
100
AcDbArc
 50
270
 51
450
  0
LINE
  5
68
100
AcDbEntity
  8
0
  6
ByLayer
 62
  256
370
   -1
100
AcDbLine
 10
3.99833417
 20
114.9500417
 11
46.00166583
 21
114.9500417
  0
ARC
  5
69
100
AcDbEntity
  8
0
  6
ByLayer
 62
  256
370
   -1
100
AcDbCircle
 10
5
 20
105
 40
25
100
AcDbArc
 50
90
 51
270
  0
LINE
  5
6A
100
AcDbEntity
  8
0
  6
ByLayer
 62
  256
370
   -1
100
AcDbLine
 10
125
 20
130
 11
4.90825205
 21
130
  0
LINE
  5
6B
100
AcDbEntity
  8
0
  6
ByLayer
 62
  256
370
   -1
100
AcDbLine
 10
5
 20
95
 11
46
 21
95
  0
ARC
  5
6C
100
AcDbEntity
  8
0
  6
ByLayer
 62
  256
370
   -1
100
AcDbCircle
 10
5
 20
105
 40
10
100
AcDbArc
 50
95.7295779513
 51
270
  0
LINE
  5
6D
100
AcDbEntity
  8
0
  6
ByLayer
 62
  256
370
   -1
100
AcDbLine
 10
125
 20
165
 11
125
 21
145
  0
LINE
  5
6E
100
AcDbEntity
  8
0
  6
ByLayer
 62
  256
370
   -1
100
AcDbLine
 10
130
 20
140
 11
146
 21
140
  0
LINE
  5
6F
100
AcDbEntity
  8
0
  6
ByLayer
 62
  256
370
   -1
100
AcDbLine
 10
146
 20
140
 11
146
 21
145
  0
LINE
  5
70
100
AcDbEntity
  8
0
  6
ByLayer
 62
  256
370
   -1
100
AcDbLine
 10
151
 20
148
 11
149
 21
148
  0
LINE
  5
71
100
AcDbEntity
  8
0
  6
ByLayer
 62
  256
370
   -1
100
AcDbLine
 10
154
 20
133
 11
154
 21
145
  0
LINE
  5
72
100
AcDbEntity
  8
0
  6
ByLayer
 62
  256
370
   -1
100
AcDbLine
 10
120
 20
130
 11
151
 21
130
  0
LINE
  5
73
100
AcDbEntity
  8
0
  6
ByLayer
 62
  256
370
   -1
100
AcDbLine
 10
185
 20
170
 11
130
 21
170
  0
LINE
  5
74
100
AcDbEntity
  8
0
  6
ByLayer
 62
  256
370
   -1
100
AcDbLine
 10
190
 20
165
 11
190
 21
85
  0
LINE
  5
75
100
AcDbEntity
  8
0
  6
ByLayer
 62
  256
370
   -1
100
AcDbLine
 10
185
 20
80
 11
5
 21
80
  0
ARC
  5
76
100
AcDbEntity
  8
0
  6
ByLayer
 62
  256
370
   -1
100
AcDbCircle
 10
185
 20
165
 40
5
100
AcDbArc
 50
0
 51
90
  0
ARC
  5
77
100
AcDbEntity
  8
0
  6
ByLayer
 62
  256
370
   -1
100
AcDbCircle
 10
130
 20
165
 40
5
100
AcDbArc
 50
90
 51
180
  0
ARC
  5
78
100
AcDbEntity
  8
0
  6
ByLayer
 62
  256
370
   -1
100
AcDbCircle
 10
130
 20
145
 40
5
100
AcDbArc
 50
180
 51
270
  0
ARC
  5
79
100
AcDbEntity
  8
0
  6
ByLayer
 62
  256
370
   -1
100
AcDbCircle
 10
149
 20
145
 40
3
100
AcDbArc
 50
90
 51
180
  0
ARC
  5
7A
100
AcDbEntity
  8
0
  6
ByLayer
 62
  256
370
   -1
100
AcDbCircle
 10
151
 20
145
 40
3
100
AcDbArc
 50
0
 51
90
  0
ARC
  5
7B
100
AcDbEntity
  8
0
  6
ByLayer
 62
  256
370
   -1
100
AcDbCircle
 10
151
 20
133
 40
3
100
AcDbArc
 50
270
 51
0
  0
ARC
  5
7C
100
AcDbEntity
  8
0
  6
ByLayer
 62
  256
370
   -1
100
AcDbCircle
 10
185
 20
85
 40
5
100
AcDbArc
 50
270
 51
0
  0
MTEXT
  5
7D
100
AcDbEntity
  8
0
  6
CONTINUOUS
 62
  256
370
   -3
100
AcDbMText
 10
10
 20
60
 30
0
 40
20
 41
147.7777777777796
 71
    1
 72
    5
  1
2 off 10mm \PG
  7
standard
210
0
220
0
230
1
 50
0
 73
    2
 44
0.9216
  0
ENDBLK
  5
56
330
54
100
AcDbEntity
  8
0
100
AcDbBlockEnd
  0
BLOCK
  5
58
330
57
100
AcDbEntity
  8
0
100
AcDbBlockBegin
  2
BlockBailPipeTops
 70
    0
 10
0
 20
0
  3
BlockBailPipeTops
  1

  0
CIRCLE
  5
7E
100
AcDbEntity
  8
0
  6
ByLayer
 62
  256
370
   -1
100
AcDbCircle
 10
-68
 20
142
 40
4
  0
LINE
  5
7F
100
AcDbEntity
  8
0
  6
ByLayer
 62
  256
370
   -1
100
AcDbLine
 10
-205.56396384
 20
150
 11
-260.24
 21
150
  0
CIRCLE
  5
80
100
AcDbEntity
  8
0
  6
ByLayer
 62
  256
370
   -1
100
AcDbCircle
 10
213.14191526
 20
142.7608438
 40
4
  0
MTEXT
  5
81
100
AcDbEntity
  8
0
  6
ByLayer
 62
  256
370
   -1
100
AcDbMText
 10
-100
 20
41
 30
0
 40
20
 41
147.7777777777796
 71
    3
 72
    5
  1
2 off 10mm\PE\P
  7
standard
210
0
220
0
230
1
 50
0
 73
    2
 44
0.9216
  0
MTEXT
  5
82
100
AcDbEntity
  8
0
  6
ByLayer
 62
  256
370
   -1
100
AcDbMText
 10
240
 20
50
 30
0
 40
20
 41
147.7777777777796
 71
    3
 72
    5
  1
2 off 10mm\PF
  7
standard
210
0
220
0
230
1
 50
0
 73
    2
 44
0.9216
  0
ARC
  5
83
100
AcDbEntity
  8
0
  6
ByLayer
 62
  256
370
   -1
100
AcDbCircle
 10
217.22361538
 20
141.7951878
 40
8
100
AcDbArc
 50
0
 51
90
  0
LINE
  5
84
100
AcDbEntity
  8
0
  6
ByLayer
 62
  256
370
   -1
100
AcDbLine
 10
209.1850883
 20
149.7951878
 11
217.22361538
 21
149.7951878
  0
ARC
  5
85
100
AcDbEntity
  8
0
  6
ByLayer
 62
  256
370
   -1
100
AcDbCircle
 10
216.14191526
 20
140.7608438
 40
15.0333
100
AcDbArc
 50
171.543190955
 51
195.644796196
  0
ARC
  5
86
100
AcDbEntity
  8
0
  6
ByLayer
 62
  256
370
   -1
100
AcDbCircle
 10
209.1850883
 20
141.7951878
 40
8
100
AcDbArc
 50
90
 51
171.543190955
  0
ARC
  5
87
100
AcDbEntity
  8
0
  6
ByLayer
 62
  256
370
   -1
100
AcDbCircle
 10
-63
 20
142.0344257
 40
8
100
AcDbArc
 50
0
 51
90
  0
LINE
  5
88
100
AcDbEntity
  8
0
  6
ByLayer
 62
  256
370
   -1
100
AcDbLine
 10
-63
 20
150.0344257
 11
-73.34155312999999
 21
150.0344257
  0
ARC
  5
89
100
AcDbEntity
  8
0
  6
ByLayer
 62
  256
370
   -1
100
AcDbCircle
 10
-68
 20
142
 40
13.3416640641
100
AcDbArc
 50
179.630740356
 51
201.659657274
  0
ARC
  5
8A
100
AcDbEntity
  8
0
  6
ByLayer
 62
  256
370
   -1
100
AcDbCircle
 10
-73.34155312999999
 20
142.0344257
 40
8
100
AcDbArc
 50
90
 51
179.630740356
  0
LINE
  5
8B
100
AcDbEntity
  8
0
  6
ByLayer
 62
  256
370
   -1
100
AcDbLine
 10
-80.39964498000001
 20
137.0756925
 11
-205.56396384
 21
150
  0
LINE
  5
8C
100
AcDbEntity
  8
0
  6
ByLayer
 62
  256
370
   -1
100
AcDbLine
 10
-260
 20
150
 11
-282
 21
150
  0
ARC
  5
8D
100
AcDbEntity
  8
0
  6
ByLayer
 62
  256
370
   -1
100
AcDbCircle
 10
-282
 20
142
 40
8
100
AcDbArc
 50
90
 51
180
  0
LINE
  5
8E
100
AcDbEntity
  8
0
  6
ByLayer
 62
  256
370
   -1
100
AcDbLine
 10
-290
 20
142
 11
-290
 21
93.0344257
  0
ARC
  5
8F
100
AcDbEntity
  8
0
  6
ByLayer
 62
  256
370
   -1
100
AcDbCircle
 10
-282
 20
93.0344257
 40
8
100
AcDbArc
 50
180
 51
270
  0
LINE
  5
90
100
AcDbEntity
  8
0
  6
ByLayer
 62
  256
370
   -1
100
AcDbLine
 10
-55
 20
142.0344257
 11
-55
 21
93.0344257
  0
LINE
  5
91
100
AcDbEntity
  8
0
  6
ByLayer
 62
  256
370
   -1
100
AcDbLine
 10
-63
 20
85.0344257
 11
-282
 21
85.0344257
  0
ARC
  5
92
100
AcDbEntity
  8
0
  6
ByLayer
 62
  256
370
   -1
100
AcDbCircle
 10
-63
 20
93.0344257
 40
8
100
AcDbArc
 50
270
 51
0
  0
LINE
  5
93
100
AcDbEntity
  8
0
  6
ByLayer
 62
  256
370
   -1
100
AcDbLine
 10
225.22361538
 20
141.7951878
 11
225.22361538
 21
92.76098570000001
  0
ARC
  5
94
100
AcDbEntity
  8
0
  6
ByLayer
 62
  256
370
   -1
100
AcDbCircle
 10
217.22361538
 20
92.76098570000001
 40
8
100
AcDbArc
 50
270
 51
0
  0
LINE
  5
95
100
AcDbEntity
  8
0
  6
ByLayer
 62
  256
370
   -1
100
AcDbLine
 10
201.66556866
 20
136.706772
 11
64.18752524
 21
150.902579
  0
ARC
  5
96
100
AcDbEntity
  8
0
  6
ByLayer
 62
  256
370
   -1
100
AcDbCircle
 10
63.67396227
 20
145.9290236
 40
5
100
AcDbArc
 50
84.10460477149999
 51
217.596348757
  0
ARC
  5
97
100
AcDbEntity
  8
0
  6
ByLayer
 62
  256
370
   -1
100
AcDbCircle
 10
30
 20
120
 40
37.5
100
AcDbArc
 50
314.642402057
 51
37.5963487572
  0
LINE
  5
98
100
AcDbEntity
  8
0
  6
ByLayer
 62
  256
370
   -1
100
AcDbLine
 10
217.22361538
 20
84.76098570000001
 11
59.86389148
 21
84.76098570000001
  0
ARC
  5
99
100
AcDbEntity
  8
0
  6
ByLayer
 62
  256
370
   -1
100
AcDbCircle
 10
59.86389148
 20
89.76098570000001
 40
5
100
AcDbArc
 50
134.642402057
 51
270
  0
ENDBLK
  5
59
330
57
100
AcDbEntity
  8
0
100
AcDbBlockEnd
  0
BLOCK
  5
5B
330
5A
100
AcDbEntity
  8
0
100
AcDbBlockBegin
  2
BlockBailSquareTubeTops
 70
    0
 10
0
 20
0
  3
BlockBailSquareTubeTops
  1

  0
CIRCLE
  5
9A
100
AcDbEntity
  8
0
  6
ByLayer
 62
  256
370
   -1
100
AcDbCircle
 10
-85.00014186999999
 20
47.612923
 40
4
  0
CIRCLE
  5
9B
100
AcDbEntity
  8
0
  6
ByLayer
 62
  256
370
   -1
100
AcDbCircle
 10
80.99985813000001
 20
71.11292299999999
 40
4
  0
ARC
  5
9C
100
AcDbEntity
  8
0
  6
ByLayer
 62
  256
370
   -1
100
AcDbCircle
 10
-67.50014186999999
 20
47.612923
 40
32.5
100
AcDbArc
 50
90
 51
270
  0
MTEXT
  5
9D
100
AcDbEntity
  8
0
  6
ByLayer
 62
  256
370
   -1
100
AcDbMText
 10
72.22222222000001
 20
-11
 30
0
 40
20
 41
150.0000000000018
 71
    3
 72
    5
  1
4 off 10mm\PB
  7
standard
210
0
220
0
230
1
 50
0
 73
    2
 44
0.9216
  0
LINE
  5
9E
100
AcDbEntity
  8
0
  6
ByLayer
 62
  256
370
   -1
100
AcDbLine
 10
82.00990249
 20
80.11292299999999
 11
-67.50014186999999
 21
80.11292299999999
  0
ARC
  5
9F
100
AcDbEntity
  8
0
  6
ByLayer
 62
  256
370
   -1
100
AcDbCircle
 10
82.00990249
 20
72.11292299999999
 40
8
100
AcDbArc
 50
0.07198258916859999
 51
90
  0
LINE
  5
A0
100
AcDbEntity
  8
0
  6
ByLayer
 62
  256
370
   -1
100
AcDbLine
 10
90.00989617
 20
72.1229737
 11
90.07145653000001
 21
23.1229737
  0
LINE
  5
A1
100
AcDbEntity
  8
0
  6
ByLayer
 62
  256
370
   -1
100
AcDbLine
 10
82.07146285
 20
15.112923
 11
-70.00014186999999
 21
15.112923
  0
ARC
  5
A2
100
AcDbEntity
  8
0
  6
ByLayer
 62
  256
370
   -1
100
AcDbCircle
 10
82.07146285
 20
23.112923
 40
8
100
AcDbArc
 50
270
 51
0.07198258916859999
  0
ENDBLK
  5
5C
330
5A
100
AcDbEntity
  8
0
100
AcDbBlockEnd
  0
BLOCK
  5
5E
330
5D
100
AcDbEntity
  8
0
100
AcDbBlockBegin
  2
BlockBailPipePullerTops
 70
    0
 10
0
 20
0
  3
BlockBailPipePullerTops
  1

  0
CIRCLE
  5
A3
100
AcDbEntity
  8
0
  6
ByLayer
 62
  256
370
   -1
100
AcDbCircle
 10
45
 20
130
 40
12.5
  0
MTEXT
  5
A4
100
AcDbEntity
  8
0
  6
ByLayer
 62
  256
370
   -1
100
AcDbMText
 10
70
 20
40
 30
0
 40
20
 41
147.7777777777796
 71
    3
 72
    5
  1
2 off 10mm\PA
  7
standard
210
0
220
0
230
1
 50
0
 73
    2
 44
0.9216
  0
ARC
  5
A5
100
AcDbEntity
  8
0
  6
ByLayer
 62
  256
370
   -1
100
AcDbCircle
 10
-25
 20
145
 40
5
100
AcDbArc
 50
90
 51
180
  0
LINE
  5
A6
100
AcDbEntity
  8
0
  6
ByLayer
 62
  256
370
   -1
100
AcDbLine
 10
-25
 20
150
 11
60
 21
150
  0
ARC
  5
A7
100
AcDbEntity
  8
0
  6
ByLayer
 62
  256
370
   -1
100
AcDbCircle
 10
60
 20
145
 40
5
100
AcDbArc
 50
0
 51
90
  0
LINE
  5
A8
100
AcDbEntity
  8
0
  6
ByLayer
 62
  256
370
   -1
100
AcDbLine
 10
65
 20
145
 11
65
 21
80
  0
ARC
  5
A9
100
AcDbEntity
  8
0
  6
ByLayer
 62
  256
370
   -1
100
AcDbCircle
 10
60
 20
80
 40
5
100
AcDbArc
 50
270
 51
0
  0
LINE
  5
AA
100
AcDbEntity
  8
0
  6
ByLayer
 62
  256
370
   -1
100
AcDbLine
 10
-30
 20
145
 11
-30
 21
80
  0
LINE
  5
AB
100
AcDbEntity
  8
0
  6
ByLayer
 62
  256
370
   -1
100
AcDbLine
 10
60
 20
75
 11
-25
 21
75
  0
ARC
  5
AC
100
AcDbEntity
  8
0
  6
ByLayer
 62
  256
370
   -1
100
AcDbCircle
 10
-25
 20
80
 40
5
100
AcDbArc
 50
180
 51
270
  0
ENDBLK
  5
5F
330
5D
100
AcDbEntity
  8
0
100
AcDbBlockEnd
  0
BLOCK
  5
61
330
60
100
AcDbEntity
  8
0
100
AcDbBlockBegin
  2
BlockBailSupportHangers
 70
    0
 10
0
 20
0
  3
BlockBailSupportHangers
  1

  0
CIRCLE
  5
AD
100
AcDbEntity
  8
0
  6
ByLayer
 62
  256
370
   -1
100
AcDbCircle
 10
-2.77777777444
 20
144
 40
4
  0
CIRCLE
  5
AE
100
AcDbEntity
  8
0
  6
ByLayer
 62
  256
370
   -1
100
AcDbCircle
 10
-2.77777777444
 20
47
 40
4
  0
MTEXT
  5
AF
100
AcDbEntity
  8
0
  6
ByLayer
 62
  256
370
   -1
100
AcDbMText
 10
55.5555555556
 20
10
 30
0
 40
20
 41
150.0000000000018
 71
    3
 72
    5
  1
4 off 10mm\PC
  7
standard
210
0
220
0
230
1
 50
0
 73
    2
 44
0.9216
  0
ARC
  5
B0
100
AcDbEntity
  8
0
  6
ByLayer
 62
  256
370
   -1
100
AcDbCircle
 10
-19.7777777744
 20
216
 40
8
100
AcDbArc
 50
90
 51
180
  0
LINE
  5
B1
100
AcDbEntity
  8
0
  6
ByLayer
 62
  256
370
   -1
100
AcDbLine
 10
-19.7777777744
 20
224
 11
14.2222222256
 21
224
  0
ARC
  5
B2
100
AcDbEntity
  8
0
  6
ByLayer
 62
  256
370
   -1
100
AcDbCircle
 10
14.2222222256
 20
216
 40
8
100
AcDbArc
 50
0
 51
90
  0
LINE
  5
B3
100
AcDbEntity
  8
0
  6
ByLayer
 62
  256
370
   -1
100
AcDbLine
 10
22.2222222256
 20
216
 11
22.2222222256
 21
47
  0
ARC
  5
B4
100
AcDbEntity
  8
0
  6
ByLayer
 62
  256
370
   -1
100
AcDbCircle
 10
14.2222222256
 20
47
 40
8
100
AcDbArc
 50
270
 51
0
  0
LINE
  5
B5
100
AcDbEntity
  8
0
  6
ByLayer
 62
  256
370
   -1
100
AcDbLine
 10
-27.7777777744
 20
47
 11
-27.7777777744
 21
216
  0
LINE
  5
B6
100
AcDbEntity
  8
0
  6
ByLayer
 62
  256
370
   -1
100
AcDbLine
 10
14.2222222256
 20
39
 11
-19.7777777744
 21
39
  0
ARC
  5
B7
100
AcDbEntity
  8
0
  6
ByLayer
 62
  256
370
   -1
100
AcDbCircle
 10
-19.7777777744
 20
47
 40
8
100
AcDbArc
 50
180
 51
270
  0
ENDBLK
  5
62
330
60
100
AcDbEntity
  8
0
100
AcDbBlockEnd
  0
BLOCK
  5
64
330
63
100
AcDbEntity
  8
0
100
AcDbBlockBegin
  2
BlockBailSupportUnknowns
 70
    0
 10
0
 20
0
  3
BlockBailSupportUnknowns
  1

  0
CIRCLE
  5
B8
100
AcDbEntity
  8
0
  6
ByLayer
 62
  256
370
   -1
100
AcDbCircle
 10
-5
 20
196
 40
3
  0
LINE
  5
B9
100
AcDbEntity
  8
0
  6
ByLayer
 62
  256
370
   -1
100
AcDbLine
 10
-30
 20
110
 11
-30
 21
216
  0
ARC
  5
BA
100
AcDbEntity
  8
0
  6
ByLayer
 62
  256
370
   -1
100
AcDbCircle
 10
-25
 20
216
 40
5
100
AcDbArc
 50
90
 51
180
  0
LINE
  5
BB
100
AcDbEntity
  8
0
  6
ByLayer
 62
  256
370
   -1
100
AcDbLine
 10
-25
 20
221
 11
15
 21
221
  0
ARC
  5
BC
100
AcDbEntity
  8
0
  6
ByLayer
 62
  256
370
   -1
100
AcDbCircle
 10
15
 20
216
 40
5
100
AcDbArc
 50
0
 51
90
  0
LINE
  5
BD
100
AcDbEntity
  8
0
  6
ByLayer
 62
  256
370
   -1
100
AcDbLine
 10
-30
 20
110
 11
-30
 21
65
  0
ARC
  5
BE
100
AcDbEntity
  8
0
  6
ByLayer
 62
  256
370
   -1
100
AcDbCircle
 10
-25
 20
65
 40
5
100
AcDbArc
 50
180
 51
270
  0
LINE
  5
BF
100
AcDbEntity
  8
0
  6
ByLayer
 62
  256
370
   -1
100
AcDbLine
 10
15
 20
60
 11
-25
 21
60
  0
LINE
  5
C0
100
AcDbEntity
  8
0
  6
ByLayer
 62
  256
370
   -1
100
AcDbLine
 10
20
 20
216
 11
20
 21
65
  0
ARC
  5
C1
100
AcDbEntity
  8
0
  6
ByLayer
 62
  256
370
   -1
100
AcDbCircle
 10
15
 20
65
 40
5
100
AcDbArc
 50
270
 51
0
  0
MTEXT
  5
C2
100
AcDbEntity
  8
0
  6
ByLayer
 62
  256
370
   -1
100
AcDbMText
 10
-90
 20
30
 30
0
 40
20
 41
165.0000000000018
 71
    1
 72
    5
  1
4 off 10 mm\PD
  7
standard
210
0
220
0
230
1
 50
0
 73
    2
 44
0.9216
  0
ENDBLK
  5
65
330
63
100
AcDbEntity
  8
0
100
AcDbBlockEnd
  0
ENDSEC
  0
SECTION
  2
ENTITIES
  0
LINE
  5
C3
100
AcDbEntity
  8
0
  6
ByLayer
 62
  256
370
   -1
100
AcDbLine
 10
5325
 20
11785
 11
5325
 21
11785
  0
CIRCLE
  5
C4
100
AcDbEntity
  8
0
  6
ByLayer
 62
  256
370
   -1
100
AcDbCircle
 10
4622
 20
11492
 40
4
  0
CIRCLE
  5
C5
100
AcDbEntity
  8
0
  6
ByLayer
 62
  256
370
   -1
100
AcDbCircle
 10
4833.14191526
 20
11492.7608438
 40
4
  0
LINE
  5
C6
100
AcDbEntity
  8
Title Block
  6
ByLayer
 62
  256
370
   -1
100
AcDbLine
 10
4611.8821715
 20
11208.3575979
 11
5211.8821715
 21
11208.3575979
  0
LINE
  5
C7
100
AcDbEntity
  8
Title Block
  6
ByLayer
 62
  256
370
   -1
100
AcDbLine
 10
4611.8821715
 20
11144.4887979
 11
5211.8821715
 21
11144.4887979
  0
LINE
  5
C8
100
AcDbEntity
  8
Title Block
  6
ByLayer
 62
  256
370
   -1
100
AcDbLine
 10
5211.8821715
 20
11069.3489979
 11
4611.8821715
 21
11070.6013979
  0
LINE
  5
C9
100
AcDbEntity
  8
Title Block
  6
ByLayer
 62
  256
370
   -1
100
AcDbLine
 10
5211.8821715
 20
11008.3575979
 11
4611.8821715
 21
11008.3575979
  0
LINE
  5
CA
100
AcDbEntity
  8
Title Block
  6
ByLayer
 62
  256
370
   -1
100
AcDbLine
 10
4611.8821715
 20
11008.3575979
 11
4611.8821715
 21
11208.3575979
  0
LINE
  5
CB
100
AcDbEntity
  8
Title Block
  6
ByLayer
 62
  256
370
   -1
100
AcDbLine
 10
5211.8821715
 20
11208.3575979
 11
5211.8821715
 21
11008.3575979
  0
MTEXT
  5
CC
100
AcDbEntity
  8
Title Block
  6
ByLayer
 62
  256
370
   -1
100
AcDbMText
 10
4700.49328261
 20
11188.3575979
 30
0
 40
10
 41
68.61111111111251
 71
    3
 72
    5
  1
Part Name
  7
standard
210
0
220
0
230
1
 50
0
 73
    1
 44
0.9216
  0
MTEXT
  5
CD
100
AcDbEntity
  8
Title Block
  6
ByLayer
 62
  256
370
   -1
100
AcDbMText
 10
5031.8821715
 20
11128.3575979
 30
0
 40
10
 41
32.22222010220119
 71
    3
 72
    5
  1
Scale
  7
standard
210
0
220
0
230
1
 50
0
 73
    2
 44
0.9216
  0
MTEXT
  5
CE
100
AcDbEntity
  8
Title Block
  6
ByLayer
 62
  256
370
   -1
100
AcDbMText
 10
5111.8821715
 20
11108.3575979
 30
0
 40
20
 41
42.22222222222222
 71
    3
 72
    5
  1
Full
  7
standard
210
0
220
0
230
1
 50
0
 73
    2
 44
0.9216
  0
MTEXT
  5
CF
100
AcDbEntity
  8
Title Block
  6
ByLayer
 62
  256
370
   -1
100
AcDbMText
 10
4811.8821715
 20
11048.3575979
 30
0
 40
20
 41
123.8888888888889
 71
    3
 72
    5
  1
Ty Tower
  7
standard
210
0
220
0
230
1
 50
0
 73
    2
 44
0.9216
  0
LINE
  5
D0
100
AcDbEntity
  8
Title Block
  6
ByLayer
 62
  256
370
   -1
100
AcDbLine
 10
4990.3241715
 20
11144.4887979
 11
4989.66771873
 21
11073.1120378
  0
LINE
  5
D1
100
AcDbEntity
  8
Title Block
  6
ByLayer
 62
  256
370
   -1
100
AcDbLine
 10
4880.12339836
 20
11070.0414891
 11
4880.1193389
 21
11008.3575979
  0
MTEXT
  5
D2
100
AcDbEntity
  8
Title Block
  6
ByLayer
 62
  256
370
   -1
100
AcDbMText
 10
4911.8821715
 20
11028.3575979
 30
0
 40
10
 41
27.77777777777887
 71
    2
 72
    5
  1
Date
  7
standard
210
0
220
0
230
1
 50
0
 73
    2
 44
0.9216
  0
MTEXT
  5
D3
100
AcDbEntity
  8
Title Block
  6
ByLayer
 62
  256
370
   -1
100
AcDbMText
 10
4751.6821715
 20
11188.3575979
 30
0
 40
20
 41
202.7777880635217
 71
    1
 72
    5
  1
Bits To Be Cut
  7
standard
210
0
220
0
230
1
 50
0
 73
    2
 44
0.9216
  0
MTEXT
  5
D4
100
AcDbEntity
  8
Title Block
  6
ByLayer
 62
  256
370
   -1
100
AcDbMText
 10
5180
 20
11050
 30
0
 40
20
 41
230.0000000000074
 71
    3
 72
    5
  1
9th January 2016
  7
standard
210
0
220
0
230
1
 50
0
 73
    2
 44
0.9216
  0
CIRCLE
  5
D5
100
AcDbEntity
  8
0
  6
ByLayer
 62
  256
370
   -1
100
AcDbCircle
 10
5090.00000205
 20
11650
 40
9
  0
CIRCLE
  5
D6
100
AcDbEntity
  8
0
  6
ByLayer
 62
  256
370
   -1
100
AcDbCircle
 10
5405
 20
11564.3971224
 40
3
  0
CIRCLE
  5
D7
100
AcDbEntity
  8
0
  6
ByLayer
 62
  256
370
   -1
100
AcDbCircle
 10
4491.24
 20
11608.3
 40
4
  0
CIRCLE
  5
D8
100
AcDbEntity
  8
0
  6
ByLayer
 62
  256
370
   -1
100
AcDbCircle
 10
4525
 20
11820
 40
12.5
  0
LINE
  5
D9
100
AcDbEntity
  8
Dimensions
  6
ByLayer
 62
    2
370
   -1
100
AcDbLine
 10
4540.625
 20
11840
 11
4563.954049229755
 21
11840
  0
LINE
  5
DA
100
AcDbEntity
  8
Dimensions
  6
ByLayer
 62
    2
370
   -1
100
AcDbLine
 10
4540.625
 20
11765
 11
4563.954049229755
 21
11765
  0
LINE
  5
DB
100
AcDbEntity
  8
Dimensions
  6
ByLayer
 62
    2
370
   -1
100
AcDbLine
 10
4562.704049229755
 20
11840
 11
4562.704049229755
 21
11765
  0
SOLID
  5
DC
100
AcDbEntity
  8
Dimensions
  6
ByLayer
 62
    2
370
   -1
100
AcDbTrace
 10
4562.704049229755
 20
11840
 30
0
 11
4563.120333887528
 21
11837.5
 31
0
 12
4562.287764571982
 22
11837.5
 32
0
 13
4562.287764571982
 23
11837.5
 33
0
  0
SOLID
  5
DD
100
AcDbEntity
  8
Dimensions
  6
ByLayer
 62
    2
370
   -1
100
AcDbTrace
 10
4562.704049229755
 20
11765
 30
0
 11
4562.287764571982
 21
11767.5
 31
0
 12
4563.120333887528
 22
11767.5
 32
0
 13
4563.120333887528
 23
11767.5
 33
0
  0
MTEXT
  5
DE
100
AcDbEntity
  8
Dimensions
  6
ByLayer
 62
    2
370
   -1
100
AcDbMText
 10
4560.829049229755
 20
11802.5
 30
0
 40
2.5
 41
3.055555555555711
 71
    5
 72
    1
  1
75
  7
standard
210
0
220
0
230
1
 50
90
 73
    2
 44
1
  0
LINE
  5
DF
100
AcDbEntity
  8
Dimensions
  6
ByLayer
 62
    2
370
   -1
100
AcDbLine
 10
4450
 20
11835.625
 11
4450
 21
11856.33319512473
  0
LINE
  5
E0
100
AcDbEntity
  8
Dimensions
  6
ByLayer
 62
    2
370
   -1
100
AcDbLine
 10
4545
 20
11835.625
 11
4545
 21
11856.33319512473
  0
LINE
  5
E1
100
AcDbEntity
  8
Dimensions
  6
ByLayer
 62
    2
370
   -1
100
AcDbLine
 10
4450
 20
11855.08319512473
 11
4545
 21
11855.08319512473
  0
SOLID
  5
E2
100
AcDbEntity
  8
Dimensions
  6
ByLayer
 62
    2
370
   -1
100
AcDbTrace
 10
4450
 20
11855.08319512473
 30
0
 11
4452.5
 21
11855.4994797825
 31
0
 12
4452.5
 22
11854.66691046695
 32
0
 13
4452.5
 23
11854.66691046695
 33
0
  0
SOLID
  5
E3
100
AcDbEntity
  8
Dimensions
  6
ByLayer
 62
    2
370
   -1
100
AcDbTrace
 10
4545
 20
11855.08319512473
 30
0
 11
4542.5
 21
11854.66691046695
 31
0
 12
4542.5
 22
11855.4994797825
 32
0
 13
4542.5
 23
11855.4994797825
 33
0
  0
MTEXT
  5
E4
100
AcDbEntity
  8
Dimensions
  6
ByLayer
 62
    2
370
   -1
100
AcDbMText
 10
4497.5
 20
11856.95819512473
 30
0
 40
2.5
 41
3.055555555555866
 71
    5
 72
    1
  1
95
  7
standard
210
0
220
0
230
1
 50
0
 73
    2
 44
1
  0
MTEXT
  5
E5
100
AcDbEntity
  8
Text
  6
ByLayer
 62
  256
370
   -1
100
AcDbMText
 10
4550
 20
11730
 30
0
 40
20
 41
147.7777777777796
 71
    3
 72
    5
  1
2 off 10mm\PA
  7
standard
210
0
220
0
230
1
 50
0
 73
    2
 44
0.9216
  0
CIRCLE
  5
E6
100
AcDbEntity
  8
0
  6
ByLayer
 62
  256
370
   -1
100
AcDbCircle
 10
4624.99985813
 20
11817.612923
 40
4
  0
CIRCLE
  5
E7
100
AcDbEntity
  8
0
  6
ByLayer
 62
  256
370
   -1
100
AcDbCircle
 10
4790.99985813
 20
11841.112923
 40
4
  0
MTEXT
  5
E8
100
AcDbEntity
  8
Text
  6
ByLayer
 62
  256
370
   -1
100
AcDbMText
 10
4782.22222222
 20
11759
 30
0
 40
20
 41
150.0000000000018
 71
    3
 72
    5
  1
4 off 10mm\PB
  7
standard
210
0
220
0
230
1
 50
0
 73
    2
 44
0.9216
  0
MTEXT
  5
E9
100
AcDbEntity
  8
Text
  6
ByLayer
 62
  256
370
   -1
100
AcDbMText
 10
4566.428478133258
 20
11600.22017428798
 30
0
 40
25
 41
187.5000000000023
 71
    1
 72
    5
  1
4 off 10mm\PF
  7
iso
210
0
220
0
230
1
 50
0
 73
    1
 44
0.96
  0
CIRCLE
  5
EA
100
AcDbEntity
  8
0
  6
ByLayer
 62
  256
370
   -1
100
AcDbCircle
 10
4934.99999999556
 20
11785
 40
4
  0
CIRCLE
  5
EB
100
AcDbEntity
  8
0
  6
ByLayer
 62
  256
370
   -1
100
AcDbCircle
 10
4934.99999999556
 20
11688
 40
4
  0
MTEXT
  5
EC
100
AcDbEntity
  8
Text
  6
ByLayer
 62
  256
370
   -1
100
AcDbMText
 10
4993.333333325601
 20
11651
 30
0
 40
20
 41
150.0000000000018
 71
    3
 72
    5
  1
4 off 10mm\PC
  7
standard
210
0
220
0
230
1
 50
0
 73
    2
 44
0.9216
  0
MTEXT
  5
ED
100
AcDbEntity
  8
Text
  6
ByLayer
 62
  256
370
   -1
100
AcDbMText
 10
4860
 20
11400
 30
0
 40
20
 41
147.7777777777796
 71
    3
 72
    5
  1
2 off 10mm\PI
  7
standard
210
0
220
0
230
1
 50
0
 73
    2
 44
0.9216
  0
MTEXT
  5
EE
100
AcDbEntity
  8
Text
  6
ByLayer
 62
  256
370
   -1
100
AcDbMText
 10
4590
 20
11391
 30
0
 40
20
 41
147.7777777777796
 71
    3
 72
    5
  1
2 off 10mm\PH\P
  7
standard
210
0
220
0
230
1
 50
0
 73
    2
 44
0.9216
  0
MTEXT
  5
EF
100
AcDbEntity
  8
Text
  6
ByLayer
 62
  256
370
   -1
100
AcDbMText
 10
5018.28531798
 20
11446
 30
0
 40
20
 41
322.777777777786
 71
    1
 72
    5
  1
16 off  x  6mm gal bar\P(6 more if roof made)\PJ\P
  7
standard
210
0
220
0
230
1
 50
0
 73
    2
 44
0.9216
  0
MTEXT
  5
F0
100
AcDbEntity
  8
Text
  6
ByLayer
 62
  256
370
   -1
100
AcDbMText
 10
5363.706245005102
 20
11407.08625033299
 30
0
 40
20
 41
153.888888888892
 71
    1
 72
    5
  1
4 off 6 mm\PK
  7
standard
210
0
220
0
230
1
 50
0
 73
    2
 44
0.9216
  0
MTEXT
  5
F1
100
AcDbEntity
  8
Text
  6
CONTINUOUS
 62
  256
370
   -3
100
AcDbMText
 10
5030
 20
11750
 30
0
 40
20
 41
147.7777777777796
 71
    1
 72
    5
  1
2 off 10mm \PD
  7
standard
210
0
220
0
230
1
 50
0
 73
    2
 44
0.9216
  0
MTEXT
  5
F2
100
AcDbEntity
  8
Text
  6
ByLayer
 62
  256
370
   -1
100
AcDbMText
 10
5240
 20
11750
 30
0
 40
20
 41
147.7777777777796
 71
    1
 72
    5
  1
7 off 10mm\PE
  7
standard
210
0
220
0
230
1
 50
0
 73
    2
 44
0.9216
  0
LWPOLYLINE
  5
F3
100
AcDbEntity
  8
0
  6
ByLayer
 62
  256
370
   -1
100
AcDbPolyline
 90
    8
 70
    1
 43
0
 10
5325
 20
11835
 42
0.414213562373095
 10
5310
 20
11820
 10
5310
 20
11800
 42
0.414213562373095
 10
5325
 20
11785
 42
0.414213562373095
 10
5340
 20
11800
 10
5340
 20
11820
 42
0.414213562373095
 10
5325
 20
11835
 10
5325
 20
11835
  0
LWPOLYLINE
  5
F4
100
AcDbEntity
  8
0
  6
ByLayer
 62
  256
370
   -1
100
AcDbPolyline
 90
    5
 70
    1
 43
0
 10
5370
 20
11760
 10
5370
 20
11860
 10
5270
 20
11860
 10
5270
 20
11760
 10
5270
 20
11760
  0
LWPOLYLINE
  5
F5
100
AcDbEntity
  8
0
  6
ByLayer
 62
  256
370
   -1
100
AcDbPolyline
 90
   10
 70
    1
 43
0
 10
5385
 20
11428.3971224
 42
-0.414213562373095
 10
5380
 20
11433.3971224
 10
5380
 20
11478.3971224
 10
5380
 20
11584.3971224
 42
-0.414213562373095
 10
5385
 20
11589.3971224
 10
5425
 20
11589.3971224
 42
-0.414213562373095
 10
5430
 20
11584.3971224
 10
5430
 20
11433.3971224
 42
-0.414213562373095
 10
5425
 20
11428.3971224
 10
5425
 20
11428.3971224
  0
LWPOLYLINE
  5
F6
100
AcDbEntity
  8
0
  6
ByLayer
 62
  256
370
   -1
100
AcDbPolyline
 90
    8
 70
    0
 43
0
 10
5089.90825205
 20
11675
 10
5203
 20
11675
 10
5270.00000205
 20
11675
 42
-0.4142135623732017
 10
5275
 20
11670
 10
5275.000002050001
 20
11630
 42
-0.4142135623730953
 10
5270
 20
11625
 10
5090
 20
11625
 42
-0.9999999999999999
 10
5090
 20
11675
 42
-0.9999999999999999
  0
LWPOLYLINE
  5
F7
100
AcDbEntity
  8
0
  6
ByLayer
 62
  256
370
   -1
100
AcDbPolyline
 90
    8
 70
    1
 43
0
 10
5037.28531798
 20
11463
 42
0.414213562373095
 10
5040.28531798
 20
11460
 10
5137.28531798
 20
11460
 10
5137.28531798
 20
11510
 10
5040.28531798
 20
11510
 42
0.414213562373095
 10
5037.28531798
 20
11507
 10
5037.28531798
 20
11507
 10
5037.28531798
 20
11507
  0
LWPOLYLINE
  5
F8
100
AcDbEntity
  8
0
  6
ByLayer
 62
  256
370
   -1
100
AcDbPolyline
 90
    7
 70
    0
 43
0
 10
4639.99985813
 20
11785.112923
 10
4792.07146285
 20
11785.112923
 42
0.4145815817340994
 10
4800.07145653
 20
11793.1229737
 10
4800.009896176508
 20
11842.12297366284
 42
0.4138456387564082
 10
4792.00990249
 20
11850.112923
 10
4642.49985813
 20
11850.112923
 42
0.9999999999999999
 10
4642.49985813
 20
11785.112923
 42
0.9999999999999999
  0
LWPOLYLINE
  5
F9
100
AcDbEntity
  8
0
  6
ByLayer
 62
  256
370
   -1
100
AcDbPolyline
 90
   11
 70
    1
 43
0
 10
4959.9999999956
 20
11688
 42
-0.414213562373095
 10
4951.9999999956
 20
11680
 10
4917.9999999956
 20
11680
 42
-0.414213562373095
 10
4909.9999999956
 20
11688
 10
4909.9999999956
 20
11857
 42
-0.414213562373095
 10
4917.9999999956
 20
11865
 10
4951.9999999956
 20
11865
 42
-0.414213562373095
 10
4959.9999999956
 20
11857
 10
4959.9999999956
 20
11857
 10
4959.9999999956
 20
11857
 10
4959.9999999956
 20
11857
  0
LWPOLYLINE
  5
FA
100
AcDbEntity
  8
0
  6
ByLayer
 62
  256
370
   -1
100
AcDbPolyline
 90
   13
 70
    1
 43
0
 10
4845.22361538
 20
11442.7609857
 10
4845.22361538
 20
11491.7951878
 42
0.414213562373095
 10
4837.22361538
 20
11499.7951878
 10
4829.1850883
 20
11499.7951878
 42
0.3716145330836376
 10
4821.272072260496
 20
11492.9716983995
 42
0.1055524901744453
 10
4821.665568659999
 20
11486.706772
 10
4684.187525238788
 20
11500.90257897589
 42
0.6587009939746801
 10
4679.712319649416
 20
11492.87855023927
 42
-0.3786363371448162
 10
4676.350492482684
 20
11443.31851679412
 42
0.6704379332041884
 10
4679.86389148
 20
11434.7609857
 10
4837.22361538
 20
11434.7609857
 42
1.633177872838384e+16
 10
4837.22361538
 20
11434.7609857
 42
1.633177872838384e+16
 10
4837.22361538
 20
11434.7609857
 42
0.414213562373095
  0
LWPOLYLINE
  5
FB
100
AcDbEntity
  8
0
  6
ByLayer
 62
  256
370
   -1
100
AcDbPolyline
 90
   14
 70
    0
 43
0
 10
4430
 20
11500
 10
4408
 20
11500
 42
0.414213562373095
 10
4400
 20
11492
 10
4400
 20
11443.0344257
 42
0.414213562373095
 10
4408
 20
11435.0344257
 10
4627
 20
11435.0344257
 42
0.414213562373095
 10
4635
 20
11443.0344257
 10
4635
 20
11492.0344257
 42
0.414213562373095
 10
4627
 20
11500.0344257
 10
4616.65844687
 20
11500.0344257
 42
0.4123271824583183
 10
4608.658613010638
 20
11492.08598371573
 42
0.09641639343362149
 10
4609.600355019999
 20
11487.0756925
 10
4484.43603616
 20
11500
 10
4429.76
 20
11500
  0
LWPOLYLINE
  5
FC
100
AcDbEntity
  8
0
  6
ByLayer
 62
  256
370
   -1
100
AcDbPolyline
 90
    7
 70
    0
 43
0
 10
4465.96
 20
11633.3
 10
4510.962389614685
 20
11633.29711622155
 42
-0.414213562373095
 10
4515.962389614685
 20
11628.29711622155
 10
4515.962389614685
 20
11588.29711622155
 42
-0.414213562373095
 10
4510.962389614685
 20
11583.29711622155
 10
4465.962389614685
 20
11583.29711622155
 10
4465.962389614685
 20
11633.29711622155
  0
LWPOLYLINE
  5
FD
100
AcDbEntity
  8
0
  6
ByLayer
 62
  256
370
   -1
100
AcDbPolyline
 90
    9
 70
    1
 43
0
 10
4450
 20
11835
 42
-0.414213562373095
 10
4455
 20
11840
 10
4540
 20
11840
 42
-0.414213562373095
 10
4545
 20
11835
 10
4545
 20
11770
 42
-0.414213562373095
 10
4540
 20
11765
 10
4455
 20
11765
 42
-0.414213562373095
 10
4450
 20
11770
 10
4450
 20
11770
  0
LWPOLYLINE
  5
FE
100
AcDbEntity
  8
0
  6
ByLayer
 62
  256
370
   -1
100
AcDbPolyline
 90
   19
 70
    0
 43
0
 10
5025
 20
11820
 42
0.9999999999999999
 10
5025
 20
11770
 10
5205
 20
11770
 42
0.414213562373095
 10
5210
 20
11775
 10
5210
 20
11855
 42
0.414213562373095
 10
5205
 20
11860
 10
5150
 20
11860
 42
0.414213562373095
 10
5145
 20
11855
 10
5145
 20
11835
 42
0.414213562373095
 10
5150
 20
11830
 10
5166
 20
11830
 10
5166
 20
11835
 42
-0.414213562373095
 10
5169
 20
11838
 10
5171
 20
11838
 42
-0.414213562373095
 10
5174
 20
11835
 10
5174
 20
11823
 42
-0.414213562373095
 10
5171
 20
11820
 10
5140
 20
11820
 10
5024.90825205
 20
11820
  0
LWPOLYLINE
  5
FF
100
AcDbEntity
  8
0
  6
ByLayer
 62
  256
370
   -1
100
AcDbPolyline
 90
    4
 70
    1
 43
0
 10
5079.28531798
 20
11477
 10
5065.28531798
 20
11477
 42
-0.9999999999999999
 10
5065.28531798
 20
11493
 10
5079.28531798
 20
11493
 42
-0.9999999999999999
  0
LINE
  5
100
100
AcDbEntity
  8
0
  6
ByLayer
 62
  256
370
   -1
100
AcDbLine
 10
5024
 20
11805
 11
5066
 21
11805
  0
LINE
  5
101
100
AcDbEntity
  8
0
  6
ByLayer
 62
  256
370
   -1
100
AcDbLine
 10
5066
 20
11785
 11
5025
 21
11785
  0
ARC
  5
102
100
AcDbEntity
  8
0
  6
ByLayer
 62
  256
370
   -1
100
AcDbCircle
 10
5025
 20
11795
 40
10
100
AcDbArc
 50
95.7296
 51
270
  0
ARC
  5
103
100
AcDbEntity
  8
0
  6
ByLayer
 62
  256
370
   -1
100
AcDbCircle
 10
5066
 20
11795
 40
10
100
AcDbArc
 50
270
 51
90
  0
MTEXT
  5
104
100
AcDbEntity
  8
Text
  6
ByLayer
 62
  256
370
   -1
100
AcDbMText
 10
5030
 20
11610
 30
0
 40
20
 41
162.7777777777796
 71
    1
 72
    5
  1
8 off 10 mm\PG
  7
standard
210
0
220
0
230
1
 50
0
 73
    2
 44
0.9216
  0
ENDSEC
  0
SECTION
  2
OBJECTS
  0
DICTIONARY
  5
C
330
0
100
AcDbDictionary
281
    1
  3
ACAD_GROUP
350
D
  0
DICTIONARY
  5
D
330
C
100
AcDbDictionary
281
    1
  0
ENDSEC
  0
EOF
