  0
SECTION
  2
HEADER
  9
$ACADVER
  1
AC1018
  9
$ACADMAINTVER
 70
     0
  9
$DWGCODEPAGE
  3
ANSI_932
  9
$INSBASE
 10
0.0
 20
0.0
 30
0.0
  9
$EXTMIN
 10
1.000000000000000E+20
 20
1.000000000000000E+20
 30
1.000000000000000E+20
  9
$EXTMAX
 10
-1.000000000000000E+20
 20
-1.000000000000000E+20
 30
-1.000000000000000E+20
  9
$LIMMIN
 10
0.0
 20
0.0
  9
$LIMMAX
 10
12.0
 20
9.0
  9
$ORTHOMODE
 70
     0
  9
$REGENMODE
 70
     1
  9
$FILLMODE
 70
     1
  9
$QTEXTMODE
 70
     0
  9
$MIRRTEXT
 70
     1
  9
$LTSCALE
 40
1.0
  9
$ATTMODE
 70
     1
  9
$TEXTSIZE
 40
0.2
  9
$TRACEWID
 40
0.05
  9
$TEXTSTYLE
  7
Standard
  9
$CLAYER
  8
0
  9
$CELTYPE
  6
ByLayer
  9
$CECOLOR
 62
   256
  9
$CELTSCALE
 40
1.0
  9
$DISPSILH
 70
     0
  9
$DIMSCALE
 40
1.0
  9
$DIMASZ
 40
0.18
  9
$DIMEXO
 40
0.0625
  9
$DIMDLI
 40
0.38
  9
$DIMRND
 40
0.0
  9
$DIMDLE
 40
0.0
  9
$DIMEXE
 40
0.18
  9
$DIMTP
 40
0.0
  9
$DIMTM
 40
0.0
  9
$DIMTXT
 40
0.18
  9
$DIMCEN
 40
0.09
  9
$DIMTSZ
 40
0.0
  9
$DIMTOL
 70
     0
  9
$DIMLIM
 70
     0
  9
$DIMTIH
 70
     1
  9
$DIMTOH
 70
     1
  9
$DIMSE1
 70
     0
  9
$DIMSE2
 70
     0
  9
$DIMTAD
 70
     0
  9
$DIMZIN
 70
     0
  9
$DIMBLK
  1

  9
$DIMASO
 70
     1
  9
$DIMSHO
 70
     1
  9
$DIMPOST
  1

  9
$DIMAPOST
  1

  9
$DIMALT
 70
     0
  9
$DIMALTD
 70
     2
  9
$DIMALTF
 40
25.4
  9
$DIMLFAC
 40
1.0
  9
$DIMTOFL
 70
     0
  9
$DIMTVP
 40
0.0
  9
$DIMTIX
 70
     0
  9
$DIMSOXD
 70
     0
  9
$DIMSAH
 70
     0
  9
$DIMBLK1
  1

  9
$DIMBLK2
  1

  9
$DIMSTYLE
  2
Standard
  9
$DIMCLRD
 70
     0
  9
$DIMCLRE
 70
     0
  9
$DIMCLRT
 70
     0
  9
$DIMTFAC
 40
1.0
  9
$DIMGAP
 40
0.09
  9
$DIMJUST
 70
     0
  9
$DIMSD1
 70
     0
  9
$DIMSD2
 70
     0
  9
$DIMTOLJ
 70
     1
  9
$DIMTZIN
 70
     0
  9
$DIMALTZ
 70
     0
  9
$DIMALTTZ
 70
     0
  9
$DIMUPT
 70
     0
  9
$DIMDEC
 70
     4
  9
$DIMTDEC
 70
     4
  9
$DIMALTU
 70
     2
  9
$DIMALTTD
 70
     2
  9
$DIMTXSTY
  7
Standard
  9
$DIMAUNIT
 70
     0
  9
$DIMADEC
 70
     0
  9
$DIMALTRND
 40
0.0
  9
$DIMAZIN
 70
     0
  9
$DIMDSEP
 70
    46
  9
$DIMATFIT
 70
     3
  9
$DIMFRAC
 70
     0
  9
$DIMLDRBLK
  1

  9
$DIMLUNIT
 70
     2
  9
$DIMLWD
 70
    -2
  9
$DIMLWE
 70
    -2
  9
$DIMTMOVE
 70
     0
  9
$LUNITS
 70
     2
  9
$LUPREC
 70
     4
  9
$SKETCHINC
 40
0.1
  9
$FILLETRAD
 40
0.5
  9
$AUNITS
 70
     0
  9
$AUPREC
 70
     0
  9
$MENU
  1
.
  9
$ELEVATION
 40
0.0
  9
$PELEVATION
 40
0.0
  9
$THICKNESS
 40
0.0
  9
$LIMCHECK
 70
     0
  9
$CHAMFERA
 40
0.5
  9
$CHAMFERB
 40
0.5
  9
$CHAMFERC
 40
1.0
  9
$CHAMFERD
 40
0.0
  9
$SKPOLY
 70
     0
  9
$TDCREATE
 40
2458479.466134259
  9
$TDUCREATE
 40
2458479.716134259
  9
$TDUPDATE
 40
2458479.466134271
  9
$TDUUPDATE
 40
2458479.716134271
  9
$TDINDWG
 40
0.0000000116
  9
$TDUSRTIMER
 40
0.0000000116
  9
$USRTIMER
 70
     1
  9
$ANGBASE
 50
0.0
  9
$ANGDIR
 70
     0
  9
$PDMODE
 70
     0
  9
$PDSIZE
 40
0.0
  9
$PLINEWID
 40
0.0
  9
$SPLFRAME
 70
     0
  9
$SPLINETYPE
 70
     6
  9
$SPLINESEGS
 70
     8
  9
$HANDSEED
  5
69
  9
$SURFTAB1
 70
     6
  9
$SURFTAB2
 70
     6
  9
$SURFTYPE
 70
     6
  9
$SURFU
 70
     6
  9
$SURFV
 70
     6
  9
$UCSBASE
  2

  9
$UCSNAME
  2

  9
$UCSORG
 10
0.0
 20
0.0
 30
0.0
  9
$UCSXDIR
 10
1.0
 20
0.0
 30
0.0
  9
$UCSYDIR
 10
0.0
 20
1.0
 30
0.0
  9
$UCSORTHOREF
  2

  9
$UCSORTHOVIEW
 70
     0
  9
$UCSORGTOP
 10
0.0
 20
0.0
 30
0.0
  9
$UCSORGBOTTOM
 10
0.0
 20
0.0
 30
0.0
  9
$UCSORGLEFT
 10
0.0
 20
0.0
 30
0.0
  9
$UCSORGRIGHT
 10
0.0
 20
0.0
 30
0.0
  9
$UCSORGFRONT
 10
0.0
 20
0.0
 30
0.0
  9
$UCSORGBACK
 10
0.0
 20
0.0
 30
0.0
  9
$PUCSBASE
  2

  9
$PUCSNAME
  2

  9
$PUCSORG
 10
0.0
 20
0.0
 30
0.0
  9
$PUCSXDIR
 10
1.0
 20
0.0
 30
0.0
  9
$PUCSYDIR
 10
0.0
 20
1.0
 30
0.0
  9
$PUCSORTHOREF
  2

  9
$PUCSORTHOVIEW
 70
     0
  9
$PUCSORGTOP
 10
0.0
 20
0.0
 30
0.0
  9
$PUCSORGBOTTOM
 10
0.0
 20
0.0
 30
0.0
  9
$PUCSORGLEFT
 10
0.0
 20
0.0
 30
0.0
  9
$PUCSORGRIGHT
 10
0.0
 20
0.0
 30
0.0
  9
$PUCSORGFRONT
 10
0.0
 20
0.0
 30
0.0
  9
$PUCSORGBACK
 10
0.0
 20
0.0
 30
0.0
  9
$USERI1
 70
     0
  9
$USERI2
 70
     0
  9
$USERI3
 70
     0
  9
$USERI4
 70
     0
  9
$USERI5
 70
     0
  9
$USERR1
 40
0.0
  9
$USERR2
 40
0.0
  9
$USERR3
 40
0.0
  9
$USERR4
 40
0.0
  9
$USERR5
 40
0.0
  9
$WORLDVIEW
 70
     1
  9
$SHADEDGE
 70
     3
  9
$SHADEDIF
 70
    70
  9
$TILEMODE
 70
     1
  9
$MAXACTVP
 70
    64
  9
$PINSBASE
 10
0.0
 20
0.0
 30
0.0
  9
$PLIMCHECK
 70
     0
  9
$PEXTMIN
 10
1.000000000000000E+20
 20
1.000000000000000E+20
 30
1.000000000000000E+20
  9
$PEXTMAX
 10
-1.000000000000000E+20
 20
-1.000000000000000E+20
 30
-1.000000000000000E+20
  9
$PLIMMIN
 10
0.0
 20
0.0
  9
$PLIMMAX
 10
12.0
 20
9.0
  9
$UNITMODE
 70
     0
  9
$VISRETAIN
 70
     1
  9
$PLINEGEN
 70
     0
  9
$PSLTSCALE
 70
     1
  9
$TREEDEPTH
 70
  3020
  9
$CMLSTYLE
  2
Standard
  9
$CMLJUST
 70
     0
  9
$CMLSCALE
 40
1.0
  9
$PROXYGRAPHICS
 70
     1
  9
$MEASUREMENT
 70
     0
  9
$CELWEIGHT
370
    -1
  9
$ENDCAPS
280
     0
  9
$JOINSTYLE
280
     0
  9
$LWDISPLAY
290
     1
  9
$INSUNITS
 70
     1
  9
$HYPERLINKBASE
  1

  9
$STYLESHEET
  1

  9
$XEDIT
290
     1
  9
$CEPSNTYPE
380
     0
  9
$PSTYLEMODE
290
     1
  9
$FINGERPRINTGUID
  2
{64A8F90A-D74F-66D3-90EF-7B9CF1C6A770}
  9
$VERSIONGUID
  2
{FAEB1C32-E019-11D5-929B-00C0DF256EC4}
  9
$EXTNAMES
290
     1
  9
$PSVPSCALE
 40
0.0
  9
$OLESTARTUP
290
     0
  9
$SORTENTS
280
   127
  9
$INDEXCTL
280
     0
  9
$HIDETEXT
280
     1
  9
$XCLIPFRAME
290
     0
  9
$HALOGAP
280
     0
  9
$OBSCOLOR
 70
   257
  9
$OBSLTYPE
280
     0
  9
$INTERSECTIONDISPLAY
280
     0
  9
$INTERSECTIONCOLOR
 70
   257
  9
$DIMASSOC
280
     2
  9
$PROJECTNAME
  1

  0
ENDSEC
  0
SECTION
  2
CLASSES
  0
CLASS
  1
ACDBDICTIONARYWDFLT
  2
AcDbDictionaryWithDefault
  3
ObjectDBX Classes
 90
        0
 91
        3
280
     0
281
     0
  0
CLASS
  1
VISUALSTYLE
  2
AcDbVisualStyle
  3
ObjectDBX Classes
 90
     4095
 91
        3
280
     0
281
     0
  0
ENDSEC
  0
SECTION
  2
TABLES
  0
TABLE
  2
VPORT
  5
8
330
0
100
AcDbSymbolTable
 70
     1
  0
VPORT
  5
29
330
8
100
AcDbSymbolTableRecord
100
AcDbViewportTableRecord
  2
*Active
 70
     0
 10
0.0
 20
0.0
 11
1.0
 21
1.0
 12
0.0
 22
0.0
 13
0.0
 23
0.0
 14
0.5
 24
0.5
 15
0.5
 25
0.5
 16
0.0
 26
0.0
 36
1.0
 17
6.0
 27
-6.0
 37
0.0
 40
12.0
 41
1.0
 42
50.0
 43
0.0
 44
0.0
 50
0.0
 51
0.0
 71
     0
 72
   100
 73
     1
 74
     3
 75
     0
 76
     0
 77
     0
 78
     0
281
     0
 65
     1
110
0.0
120
0.0
130
0.0
111
1.0
121
0.0
131
0.0
112
0.0
122
1.0
132
0.0
 79
     0
146
0.0
  0
ENDTAB
  0
TABLE
  2
LTYPE
  5
5
330
0
100
AcDbSymbolTable
 70
     1
  0
LTYPE
  5
14
330
5
100
AcDbSymbolTableRecord
100
AcDbLinetypeTableRecord
  2
ByBlock
 70
     0
  3

 72
    65
 73
     0
 40
0.0
  0
LTYPE
  5
15
330
5
100
AcDbSymbolTableRecord
100
AcDbLinetypeTableRecord
  2
ByLayer
 70
     0
  3

 72
    65
 73
     0
 40
0.0
  0
LTYPE
  5
16
330
5
100
AcDbSymbolTableRecord
100
AcDbLinetypeTableRecord
  2
Continuous
 70
     0
  3
Solid line
 72
    65
 73
     0
 40
0.0
  0
ENDTAB
  0
TABLE
  2
LAYER
  5
2
330
0
100
AcDbSymbolTable
 70
     2
  0
LAYER
  5
10
330
2
100
AcDbSymbolTableRecord
100
AcDbLayerTableRecord
  2
0
 70
     0
 62
     7
  6
Continuous
370
    -3
390
F
  0
LAYER
  5
3B
330
2
100
AcDbSymbolTableRecord
100
AcDbLayerTableRecord
  2
Layer 1
 70
     0
 62
     7
  6
Continuous
370
    -3
390
F
  0
ENDTAB
  0
TABLE
  2
STYLE
  5
3
330
0
100
AcDbSymbolTable
 70
     1
  0
STYLE
  5
11
330
3
100
AcDbSymbolTableRecord
100
AcDbTextStyleTableRecord
  2
Standard
 70
     0
 40
0.0
 41
1.0
 50
0.0
 71
     0
 42
0.2
  3
txt
  4

  0
ENDTAB
  0
TABLE
  2
VIEW
  5
6
330
0
100
AcDbSymbolTable
 70
     0
  0
ENDTAB
  0
TABLE
  2
UCS
  5
7
330
0
100
AcDbSymbolTable
 70
     0
  0
ENDTAB
  0
TABLE
  2
APPID
  5
9
330
0
100
AcDbSymbolTable
 70
     1
  0
APPID
  5
12
330
9
100
AcDbSymbolTableRecord
100
AcDbRegAppTableRecord
  2
ACAD
 70
     0
  0
ENDTAB
  0
TABLE
  2
DIMSTYLE
  5
A
330
0
100
AcDbSymbolTable
 70
     1
100
AcDbDimStyleTable
  0
DIMSTYLE
105
27
330
A
100
AcDbSymbolTableRecord
100
AcDbDimStyleTableRecord
  2
Standard
 70
     0
340
11
  0
ENDTAB
  0
TABLE
  2
BLOCK_RECORD
  5
1
330
0
100
AcDbSymbolTable
 70
     3
  0
BLOCK_RECORD
  5
1F
330
1
100
AcDbSymbolTableRecord
100
AcDbBlockTableRecord
  2
*Model_Space
340
22
  0
BLOCK_RECORD
  5
1B
330
1
100
AcDbSymbolTableRecord
100
AcDbBlockTableRecord
  2
*Paper_Space
340
1E
  0
BLOCK_RECORD
  5
23
330
1
100
AcDbSymbolTableRecord
100
AcDbBlockTableRecord
  2
*Paper_Space0
340
26
  0
BLOCK_RECORD
  5
3C
330
1
100
AcDbSymbolTableRecord
100
AcDbBlockTableRecord
  2
block 2
340
0
102
{BLKREFS
331
3D
102
}
  0
BLOCK_RECORD
  5
40
330
1
100
AcDbSymbolTableRecord
100
AcDbBlockTableRecord
  2
block 3
340
0
102
{BLKREFS
331
41
102
}
  0
ENDTAB
  0
ENDSEC
  0
SECTION
  2
BLOCKS
  0
BLOCK
  5
20
330
1F
100
AcDbEntity
  8
0
100
AcDbBlockBegin
  2
*Model_Space
 70
     0
 71
     0
 10
0.0
 20
0.0
 30
0.0
  3
*Model_Space
  1

  0
ENDBLK
  5
21
330
1F
100
AcDbEntity
  8
0
100
AcDbBlockEnd
  0
BLOCK
  5
1C
330
1B
100
AcDbEntity
 67
     1
  8
0
100
AcDbBlockBegin
  2
*Paper_Space
 70
     0
 71
     0
 10
0.0
 20
0.0
 30
0.0
  3
*Paper_Space
  1

  0
ENDBLK
  5
1D
330
1B
100
AcDbEntity
 67
     1
  8
0
100
AcDbBlockEnd
  0
BLOCK
  5
24
330
23
100
AcDbEntity
  8
0
100
AcDbBlockBegin
  2
*Paper_Space0
 70
     0
 71
     0
 10
0.0
 20
0.0
 30
0.0
  3
*Paper_Space0
  1

  0
ENDBLK
  5
25
330
23
100
AcDbEntity
  8
0
100
AcDbBlockEnd
  0
BLOCK
  5
3E
330
3C
100
AcDbEntity
  8
0
100
AcDbBlockBegin
  2
block 2
 70
     0
 71
     0
 10
0.0
 20
0.0
 30
0.0
  3
block 2
  1

  0
INSERT
  5
41
330
3C
100
AcDbEntity
  8
Layer 1
100
AcDbBlockReference
  2
block 3
 10
0.0
 20
0.0
 30
0.0
  0
POLYLINE
  5
61
330
3C
100
AcDbEntity
  8
Layer 1
370
     0
100
AcDb2dPolyline
 66
     1
 10
0.0
 20
0.0
 30
0.0
  0
VERTEX
  5
62
330
61
100
AcDbEntity
  8
Layer 1
370
     0
100
AcDbVertex
100
AcDb2dVertex
 10
8.169189453125
 20
-3.664042154947917
 30
0.0
  0
VERTEX
  5
63
330
61
100
AcDbEntity
  8
Layer 1
370
     0
100
AcDbVertex
100
AcDb2dVertex
 10
0.1466606987847222
 20
-3.664042154947917
 30
0.0
  0
VERTEX
  5
64
330
61
100
AcDbEntity
  8
Layer 1
370
     0
100
AcDbVertex
100
AcDb2dVertex
 10
0.1466606987847222
 20
-0.5560370551215278
 30
0.0
  0
VERTEX
  5
65
330
61
100
AcDbEntity
  8
Layer 1
370
     0
100
AcDbVertex
100
AcDb2dVertex
 10
8.169189453125
 20
-0.5560370551215278
 30
0.0
  0
VERTEX
  5
66
330
61
100
AcDbEntity
  8
Layer 1
370
     0
100
AcDbVertex
100
AcDb2dVertex
 10
8.169189453125
 20
-3.664042154947917
 30
0.0
  0
SEQEND
  5
67
330
61
100
AcDbEntity
  8
Layer 1
370
     0
  0
ENDBLK
  5
3F
330
3C
100
AcDbEntity
  8
0
100
AcDbBlockEnd
  0
BLOCK
  5
42
330
40
100
AcDbEntity
  8
0
100
AcDbBlockBegin
  2
block 3
 70
     0
 71
     0
 10
0.0
 20
0.0
 30
0.0
  3
block 3
  1

  0
SPLINE
  5
44
330
40
100
AcDbEntity
  8
Layer 1
370
     0
100
AcDbSpline
210
0.0
220
0.0
230
1.0
 70
    11
 71
     3
 72
    35
 73
    31
 74
     0
 42
0.0000000001
 43
0.0000000001
 40
0.0
 40
0.0
 40
0.0
 40
0.0
 40
1.0
 40
1.0
 40
1.0
 40
2.0
 40
2.0
 40
2.0
 40
3.0
 40
3.0
 40
3.0
 40
4.0
 40
4.0
 40
4.0
 40
5.0
 40
5.0
 40
5.0
 40
6.0
 40
6.0
 40
6.0
 40
7.0
 40
7.0
 40
7.0
 40
8.0
 40
8.0
 40
8.0
 40
9.0
 40
9.0
 40
9.0
 40
10.0
 40
10.0
 40
10.0
 40
10.0
 10
2.274305555555555
 20
-0.805019802517361
 30
0.0
 10
2.221523708767361
 20
-0.8230794270833333
 30
0.0
 10
2.175686306423611
 20
-0.861965603298611
 30
0.0
 10
2.175686306423611
 20
-0.9189181857638888
 30
0.0
 10
2.175686306423611
 20
-0.9869791666666666
 30
0.0
 10
2.213189019097222
 20
-1.028645833333333
 30
0.0
 10
2.37847900390625
 20
-1.092536078559028
 30
0.0
 10
2.62432861328125
 20
-1.186991373697917
 30
0.0
 10
2.679884168836805
 20
-1.317552354600694
 30
0.0
 10
2.679884168836805
 20
-1.445339626736111
 30
0.0
 10
2.679884168836805
 20
-1.660630967881944
 30
0.0
 10
2.500712076822917
 20
-1.800916883680555
 30
0.0
 10
2.295138888888889
 20
-1.805080837673611
 30
0.0
 10
2.295138888888889
 20
-1.805080837673611
 30
0.0
 10
2.295138888888889
 20
-1.724521213107639
 30
0.0
 10
2.295138888888889
 20
-1.724521213107639
 30
0.0
 10
2.361809624565972
 20
-1.703687879774305
 30
0.0
 10
2.41876220703125
 20
-1.673129611545139
 30
0.0
 10
2.421535915798611
 20
-1.596733940972222
 30
0.0
 10
2.42431640625
 20
-1.509229871961806
 30
0.0
 10
2.321533203125
 20
-1.473117404513889
 30
0.0
 10
2.254862467447917
 20
-1.443949381510417
 30
0.0
 10
2.079847547743055
 20
-1.370334201388889
 30
0.0
 10
1.917338053385417
 20
-1.291164822048611
 30
0.0
 10
1.917338053385417
 20
-1.073092990451389
 30
0.0
 10
1.917338053385417
 20
-0.861965603298611
 30
0.0
 10
2.07012939453125
 20
-0.7314046223958333
 30
0.0
 10
2.274305555555555
 20
-0.7244601779513888
 30
0.0
 10
2.274305555555555
 20
-0.7244601779513888
 30
0.0
 10
2.274305555555555
 20
-0.805019802517361
 30
0.0
 10
2.274305555555555
 20
-0.805019802517361
 30
0.0
  0
SPLINE
  5
45
330
40
100
AcDbEntity
  8
Layer 1
370
     0
100
AcDbSpline
210
0.0
220
0.0
230
1.0
 70
    11
 71
     3
 72
    29
 73
    25
 74
     0
 42
0.0000000001
 43
0.0000000001
 40
0.0
 40
0.0
 40
0.0
 40
0.0
 40
1.0
 40
1.0
 40
1.0
 40
2.0
 40
2.0
 40
2.0
 40
3.0
 40
3.0
 40
3.0
 40
4.0
 40
4.0
 40
4.0
 40
5.0
 40
5.0
 40
5.0
 40
6.0
 40
6.0
 40
6.0
 40
7.0
 40
7.0
 40
7.0
 40
8.0
 40
8.0
 40
8.0
 40
8.0
 10
1.917338053385417
 20
-1.473117404513889
 30
0.0
 10
1.917338053385417
 20
-1.443949381510417
 30
0.0
 10
1.922899034288194
 20
-1.405056423611111
 30
0.0
 10
1.961785210503472
 20
-1.405056423611111
 30
0.0
 10
1.989569769965278
 20
-1.405056423611111
 30
0.0
 10
2.009012858072917
 20
-1.427280002170139
 30
0.0
 10
2.013176812065972
 20
-1.450893825954861
 30
0.0
 10
2.032626681857639
 20
-1.56201171875
 30
0.0
 10
2.110405815972222
 20
-1.699517144097222
 30
0.0
 10
2.232638888888889
 20
-1.724521213107639
 30
0.0
 10
2.232638888888889
 20
-1.724521213107639
 30
0.0
 10
2.232638888888889
 20
-1.805080837673611
 30
0.0
 10
2.232638888888889
 20
-1.805080837673611
 30
0.0
 10
2.111796061197917
 20
-1.80230712890625
 30
0.0
 10
2.085408528645833
 20
-1.753689236111111
 30
0.0
 10
2.035400390625
 20
-1.753689236111111
 30
0.0
 10
1.990953233506944
 20
-1.753689236111111
 30
0.0
 10
1.995123969184028
 20
-1.799526638454861
 30
0.0
 10
1.960394965277778
 20
-1.799526638454861
 30
0.0
 10
1.917338053385417
 20
-1.799526638454861
 30
0.0
 10
1.917338053385417
 20
-1.748135036892361
 30
0.0
 10
1.917338053385417
 20
-1.741190592447917
 30
0.0
 10
1.917338053385417
 20
-1.741190592447917
 30
0.0
 10
1.917338053385417
 20
-1.473117404513889
 30
0.0
 10
1.917338053385417
 20
-1.473117404513889
 30
0.0
  0
SPLINE
  5
46
330
40
100
AcDbEntity
  8
Layer 1
370
     0
100
AcDbSpline
210
0.0
220
0.0
230
1.0
 70
    11
 71
     3
 72
    29
 73
    25
 74
     0
 42
0.0000000001
 43
0.0000000001
 40
0.0
 40
0.0
 40
0.0
 40
0.0
 40
1.0
 40
1.0
 40
1.0
 40
2.0
 40
2.0
 40
2.0
 40
3.0
 40
3.0
 40
3.0
 40
4.0
 40
4.0
 40
4.0
 40
5.0
 40
5.0
 40
5.0
 40
6.0
 40
6.0
 40
6.0
 40
7.0
 40
7.0
 40
7.0
 40
8.0
 40
8.0
 40
8.0
 40
8.0
 10
2.642381456163194
 20
-1.024481879340278
 30
0.0
 10
2.642381456163194
 20
-1.056423611111111
 30
0.0
 10
2.636827256944444
 20
-1.091152615017361
 30
0.0
 10
2.596550835503472
 20
-1.091152615017361
 30
0.0
 10
2.563212076822917
 20
-1.091152615017361
 30
0.0
 10
2.550713433159722
 20
-1.06475830078125
 30
0.0
 10
2.546542697482639
 20
-1.036980523003472
 30
0.0
 10
2.531263563368055
 20
-0.9341973198784722
 30
0.0
 10
2.445149739583333
 20
-0.8286336263020833
 30
0.0
 10
2.336812337239583
 20
-0.805019802517361
 30
0.0
 10
2.336812337239583
 20
-0.805019802517361
 30
0.0
 10
2.336812337239583
 20
-0.7244601779513888
 30
0.0
 10
2.336812337239583
 20
-0.7244601779513888
 30
0.0
 10
2.42431640625
 20
-0.7258504231770833
 30
0.0
 10
2.517374674479167
 20
-0.7786322699652777
 30
0.0
 10
2.53265380859375
 20
-0.7786322699652777
 30
0.0
 10
2.568766276041667
 20
-0.7786322699652777
 30
0.0
 10
2.565992567274305
 20
-0.7286241319444444
 30
0.0
 10
2.602105034722222
 20
-0.7286241319444444
 30
0.0
 10
2.645161946614583
 20
-0.7286241319444444
 30
0.0
 10
2.642381456163194
 20
-0.7758517795138888
 30
0.0
 10
2.642381456163194
 20
-0.7869669596354166
 30
0.0
 10
2.642381456163194
 20
-0.7869669596354166
 30
0.0
 10
2.642381456163194
 20
-1.024481879340278
 30
0.0
 10
2.642381456163194
 20
-1.024481879340278
 30
0.0
  0
SPLINE
  5
47
330
40
100
AcDbEntity
  8
Layer 1
370
     0
100
AcDbSpline
210
0.0
220
0.0
230
1.0
 70
    11
 71
     3
 72
    26
 73
    22
 74
     0
 42
0.0000000001
 43
0.0000000001
 40
0.0
 40
0.0
 40
0.0
 40
0.0
 40
1.0
 40
1.0
 40
1.0
 40
2.0
 40
2.0
 40
2.0
 40
3.0
 40
3.0
 40
3.0
 40
4.0
 40
4.0
 40
4.0
 40
5.0
 40
5.0
 40
5.0
 40
6.0
 40
6.0
 40
6.0
 40
7.0
 40
7.0
 40
7.0
 40
7.0
 10
3.199306911892361
 20
-0.805019802517361
 30
0.0
 10
3.134019639756944
 20
-0.8286336263020833
 30
0.0
 10
3.128465440538194
 20
-0.87030029296875
 30
0.0
 10
3.128465440538194
 20
-0.905029296875
 30
0.0
 10
3.128465440538194
 20
-0.905029296875
 30
0.0
 10
3.128465440538194
 20
-1.624518500434028
 30
0.0
 10
3.128465440538194
 20
-1.624518500434028
 30
0.0
 10
3.128465440538194
 20
-1.65924072265625
 30
0.0
 10
3.134019639756944
 20
-1.700907389322917
 30
0.0
 10
3.199306911892361
 20
-1.724521213107639
 30
0.0
 10
3.199306911892361
 20
-1.724521213107639
 30
0.0
 10
3.199306911892361
 20
-1.805080837673611
 30
0.0
 10
3.199306911892361
 20
-1.805080837673611
 30
0.0
 10
2.904839409722222
 20
-1.778693305121528
 30
0.0
 10
2.767333984375
 20
-1.541178385416667
 30
0.0
 10
2.767333984375
 20
-1.2647705078125
 30
0.0
 10
2.767333984375
 20
-0.9883626302083333
 30
0.0
 10
2.904839409722222
 20
-0.7508544921875
 30
0.0
 10
3.199306911892361
 20
-0.7244601779513888
 30
0.0
 10
3.199306911892361
 20
-0.7244601779513888
 30
0.0
 10
3.199306911892361
 20
-0.805019802517361
 30
0.0
 10
3.199306911892361
 20
-0.805019802517361
 30
0.0
  0
SPLINE
  5
48
330
40
100
AcDbEntity
  8
Layer 1
370
     0
100
AcDbSpline
210
0.0
220
0.0
230
1.0
 70
    11
 71
     3
 72
    26
 73
    22
 74
     0
 42
0.0000000001
 43
0.0000000001
 40
0.0
 40
0.0
 40
0.0
 40
0.0
 40
1.0
 40
1.0
 40
1.0
 40
2.0
 40
2.0
 40
2.0
 40
3.0
 40
3.0
 40
3.0
 40
4.0
 40
4.0
 40
4.0
 40
5.0
 40
5.0
 40
5.0
 40
6.0
 40
6.0
 40
6.0
 40
7.0
 40
7.0
 40
7.0
 40
7.0
 10
3.261806911892361
 20
-1.724521213107639
 30
0.0
 10
3.32708740234375
 20
-1.700907389322917
 30
0.0
 10
3.332648383246528
 20
-1.65924072265625
 30
0.0
 10
3.332648383246528
 20
-1.624518500434028
 30
0.0
 10
3.332648383246528
 20
-1.624518500434028
 30
0.0
 10
3.332648383246528
 20
-0.905029296875
 30
0.0
 10
3.332648383246528
 20
-0.905029296875
 30
0.0
 10
3.332648383246528
 20
-0.87030029296875
 30
0.0
 10
3.32708740234375
 20
-0.8286336263020833
 30
0.0
 10
3.261806911892361
 20
-0.805019802517361
 30
0.0
 10
3.261806911892361
 20
-0.805019802517361
 30
0.0
 10
3.261806911892361
 20
-0.7244601779513888
 30
0.0
 10
3.261806911892361
 20
-0.7244601779513888
 30
0.0
 10
3.556267632378472
 20
-0.7508544921875
 30
0.0
 10
3.693779839409722
 20
-0.9883626302083333
 30
0.0
 10
3.693779839409722
 20
-1.2647705078125
 30
0.0
 10
3.693779839409722
 20
-1.541178385416667
 30
0.0
 10
3.556267632378472
 20
-1.778693305121528
 30
0.0
 10
3.261806911892361
 20
-1.805080837673611
 30
0.0
 10
3.261806911892361
 20
-1.805080837673611
 30
0.0
 10
3.261806911892361
 20
-1.724521213107639
 30
0.0
 10
3.261806911892361
 20
-1.724521213107639
 30
0.0
  0
SPLINE
  5
49
330
40
100
AcDbEntity
  8
Layer 1
370
     0
100
AcDbSpline
210
0.0
220
0.0
230
1.0
 70
    11
 71
     3
 72
    44
 73
    40
 74
     0
 42
0.0000000001
 43
0.0000000001
 40
0.0
 40
0.0
 40
0.0
 40
0.0
 40
1.0
 40
1.0
 40
1.0
 40
2.0
 40
2.0
 40
2.0
 40
3.0
 40
3.0
 40
3.0
 40
4.0
 40
4.0
 40
4.0
 40
5.0
 40
5.0
 40
5.0
 40
6.0
 40
6.0
 40
6.0
 40
7.0
 40
7.0
 40
7.0
 40
8.0
 40
8.0
 40
8.0
 40
9.0
 40
9.0
 40
9.0
 40
10.0
 40
10.0
 40
10.0
 40
11.0
 40
11.0
 40
11.0
 40
12.0
 40
12.0
 40
12.0
 40
13.0
 40
13.0
 40
13.0
 40
13.0
 10
4.197916666666666
 20
-1.784247504340278
 30
0.0
 10
4.197916666666666
 20
-1.784247504340278
 30
0.0
 10
3.831217447916667
 20
-1.784247504340278
 30
0.0
 10
3.831217447916667
 20
-1.784247504340278
 30
0.0
 10
3.825670030381944
 20
-1.784247504340278
 30
0.0
 10
3.779825846354167
 20
-1.781467013888889
 30
0.0
 10
3.779825846354167
 20
-1.741190592447917
 30
0.0
 10
3.779825846354167
 20
-1.72174072265625
 30
0.0
 10
3.792331271701389
 20
-1.709242078993055
 30
0.0
 10
3.810384114583333
 20
-1.703687879774305
 30
0.0
 10
3.858995225694444
 20
-1.688408745659722
 30
0.0
 10
3.857611762152778
 20
-1.680074055989583
 30
0.0
 10
3.857611762152778
 20
-1.628682454427083
 30
0.0
 10
3.857611762152778
 20
-1.628682454427083
 30
0.0
 10
3.857611762152778
 20
-0.9008585611979166
 30
0.0
 10
3.857611762152778
 20
-0.9008585611979166
 30
0.0
 10
3.857611762152778
 20
-0.8494669596354166
 30
0.0
 10
3.858995225694444
 20
-0.8411322699652777
 30
0.0
 10
3.810384114583333
 20
-0.8258531358506944
 30
0.0
 10
3.792331271701389
 20
-0.8202989366319444
 30
0.0
 10
3.779825846354167
 20
-0.80780029296875
 30
0.0
 10
3.779825846354167
 20
-0.7883504231770833
 30
0.0
 10
3.779825846354167
 20
-0.748074001736111
 30
0.0
 10
3.825670030381944
 20
-0.7452935112847222
 30
0.0
 10
3.831217447916667
 20
-0.7452935112847222
 30
0.0
 10
3.831217447916667
 20
-0.7452935112847222
 30
0.0
 10
4.224297417534722
 20
-0.7452935112847222
 30
0.0
 10
4.224297417534722
 20
-0.7452935112847222
 30
0.0
 10
4.2298583984375
 20
-0.7452935112847222
 30
0.0
 10
4.275689019097222
 20
-0.748074001736111
 30
0.0
 10
4.275689019097222
 20
-0.7883504231770833
 30
0.0
 10
4.275689019097222
 20
-0.80780029296875
 30
0.0
 10
4.263197157118055
 20
-0.8202989366319444
 30
0.0
 10
4.245130750868055
 20
-0.8258531358506944
 30
0.0
 10
4.196519639756945
 20
-0.8411322699652777
 30
0.0
 10
4.197916666666666
 20
-0.8494669596354166
 30
0.0
 10
4.197916666666666
 20
-0.9008585611979166
 30
0.0
 10
4.197916666666666
 20
-0.9008585611979166
 30
0.0
 10
4.197916666666666
 20
-1.784247504340278
 30
0.0
 10
4.197916666666666
 20
-1.784247504340278
 30
0.0
  0
SPLINE
  5
4A
330
40
100
AcDbEntity
  8
Layer 1
370
     0
100
AcDbSpline
210
0.0
220
0.0
230
1.0
 70
    11
 71
     3
 72
    23
 73
    19
 74
     0
 42
0.0000000001
 43
0.0000000001
 40
0.0
 40
0.0
 40
0.0
 40
0.0
 40
1.0
 40
1.0
 40
1.0
 40
2.0
 40
2.0
 40
2.0
 40
3.0
 40
3.0
 40
3.0
 40
4.0
 40
4.0
 40
4.0
 40
5.0
 40
5.0
 40
5.0
 40
6.0
 40
6.0
 40
6.0
 40
6.0
 10
4.260416666666666
 20
-1.703687879774305
 30
0.0
 10
4.3729248046875
 20
-1.688408745659722
 30
0.0
 10
4.436808268229166
 20
-1.591179741753472
 30
0.0
 10
4.465983072916666
 20
-1.462009006076389
 30
0.0
 10
4.472927517361111
 20
-1.431450737847222
 30
0.0
 10
4.489596896701388
 20
-1.423116048177083
 30
0.0
 10
4.518758138020833
 20
-1.423116048177083
 30
0.0
 10
4.550713433159722
 20
-1.423116048177083
 30
0.0
 10
4.553493923611111
 20
-1.449503580729167
 30
0.0
 10
4.553493923611111
 20
-1.475897894965278
 30
0.0
 10
4.553493923611111
 20
-1.475897894965278
 30
0.0
 10
4.553493923611111
 20
-1.784247504340278
 30
0.0
 10
4.553493923611111
 20
-1.784247504340278
 30
0.0
 10
4.553493923611111
 20
-1.784247504340278
 30
0.0
 10
4.260416666666666
 20
-1.784247504340278
 30
0.0
 10
4.260416666666666
 20
-1.784247504340278
 30
0.0
 10
4.260416666666666
 20
-1.784247504340278
 30
0.0
 10
4.260416666666666
 20
-1.703687879774305
 30
0.0
 10
4.260416666666666
 20
-1.703687879774305
 30
0.0
  0
SPLINE
  5
4B
330
40
100
AcDbEntity
  8
Layer 1
370
     0
100
AcDbSpline
210
0.0
220
0.0
230
1.0
 70
    11
 71
     3
 72
    38
 73
    34
 74
     0
 42
0.0000000001
 43
0.0000000001
 40
0.0
 40
0.0
 40
0.0
 40
0.0
 40
1.0
 40
1.0
 40
1.0
 40
2.0
 40
2.0
 40
2.0
 40
3.0
 40
3.0
 40
3.0
 40
4.0
 40
4.0
 40
4.0
 40
5.0
 40
5.0
 40
5.0
 40
6.0
 40
6.0
 40
6.0
 40
7.0
 40
7.0
 40
7.0
 40
8.0
 40
8.0
 40
8.0
 40
9.0
 40
9.0
 40
9.0
 40
10.0
 40
10.0
 40
10.0
 40
11.0
 40
11.0
 40
11.0
 40
11.0
 10
4.965996636284722
 20
-1.096706814236111
 30
0.0
 10
4.965996636284722
 20
-1.096706814236111
 30
0.0
 10
4.835435655381944
 20
-1.571736653645833
 30
0.0
 10
4.835435655381944
 20
-1.571736653645833
 30
0.0
 10
4.813218858506944
 20
-1.656460232204861
 30
0.0
 10
4.832655164930555
 20
-1.680074055989583
 30
0.0
 10
4.8798828125
 20
-1.700907389322917
 30
0.0
 10
4.902113172743055
 20
-1.71063232421875
 30
0.0
 10
4.921549479166666
 20
-1.718967013888889
 30
0.0
 10
4.921549479166666
 20
-1.746744791666667
 30
0.0
 10
4.921549479166666
 20
-1.785637749565972
 30
0.0
 10
4.877102322048611
 20
-1.784247504340278
 30
0.0
 10
4.849324544270833
 20
-1.784247504340278
 30
0.0
 10
4.849324544270833
 20
-1.784247504340278
 30
0.0
 10
4.689602322048611
 20
-1.784247504340278
 30
0.0
 10
4.689602322048611
 20
-1.784247504340278
 30
0.0
 10
4.661810980902778
 20
-1.784247504340278
 30
0.0
 10
4.61181640625
 20
-1.782857259114583
 30
0.0
 10
4.61181640625
 20
-1.742580837673611
 30
0.0
 10
4.61181640625
 20
-1.709242078993055
 30
0.0
 10
4.635430230034722
 20
-1.71063232421875
 30
0.0
 10
4.665988498263888
 20
-1.695353190104167
 30
0.0
 10
4.695149739583333
 20
-1.680074055989583
 30
0.0
 10
4.732652452256944
 20
-1.648125542534722
 30
0.0
 10
4.759046766493055
 20
-1.549513075086806
 30
0.0
 10
4.759046766493055
 20
-1.549513075086806
 30
0.0
 10
4.925726996527778
 20
-0.9397515190972222
 30
0.0
 10
4.925726996527778
 20
-0.9397515190972222
 30
0.0
 10
4.925726996527778
 20
-0.9397515190972222
 30
0.0
 10
4.929890950520833
 20
-0.9397515190972222
 30
0.0
 10
4.929890950520833
 20
-0.9397515190972222
 30
0.0
 10
4.929890950520833
 20
-0.9397515190972222
 30
0.0
 10
4.965996636284722
 20
-1.096706814236111
 30
0.0
 10
4.965996636284722
 20
-1.096706814236111
 30
0.0
  0
SPLINE
  5
4C
330
40
100
AcDbEntity
  8
Layer 1
370
     0
100
AcDbSpline
210
0.0
220
0.0
230
1.0
 70
    11
 71
     3
 72
    50
 73
    46
 74
     0
 42
0.0000000001
 43
0.0000000001
 40
0.0
 40
0.0
 40
0.0
 40
0.0
 40
1.0
 40
1.0
 40
1.0
 40
2.0
 40
2.0
 40
2.0
 40
3.0
 40
3.0
 40
3.0
 40
4.0
 40
4.0
 40
4.0
 40
5.0
 40
5.0
 40
5.0
 40
6.0
 40
6.0
 40
6.0
 40
7.0
 40
7.0
 40
7.0
 40
8.0
 40
8.0
 40
8.0
 40
9.0
 40
9.0
 40
9.0
 40
10.0
 40
10.0
 40
10.0
 40
11.0
 40
11.0
 40
11.0
 40
12.0
 40
12.0
 40
12.0
 40
13.0
 40
13.0
 40
13.0
 40
14.0
 40
14.0
 40
14.0
 40
15.0
 40
15.0
 40
15.0
 40
15.0
 10
5.1146240234375
 20
-1.514784071180556
 30
0.0
 10
5.1146240234375
 20
-1.514784071180556
 30
0.0
 10
4.911824544270833
 20
-1.514784071180556
 30
0.0
 10
4.911824544270833
 20
-1.514784071180556
 30
0.0
 10
4.911824544270833
 20
-1.514784071180556
 30
0.0
 10
4.9312744140625
 20
-1.434224446614583
 30
0.0
 10
4.9312744140625
 20
-1.434224446614583
 30
0.0
 10
4.9312744140625
 20
-1.434224446614583
 30
0.0
 10
5.100735134548611
 20
-1.434224446614583
 30
0.0
 10
5.100735134548611
 20
-1.434224446614583
 30
0.0
 10
5.100735134548611
 20
-1.434224446614583
 30
0.0
 10
4.96044921875
 20
-0.8202989366319444
 30
0.0
 10
4.96044921875
 20
-0.8202989366319444
 30
0.0
 10
4.96044921875
 20
-0.8202989366319444
 30
0.0
 10
4.978502061631944
 20
-0.7452935112847222
 30
0.0
 10
4.978502061631944
 20
-0.7452935112847222
 30
0.0
 10
4.978502061631944
 20
-0.7452935112847222
 30
0.0
 10
5.285468207465278
 20
-0.7452935112847222
 30
0.0
 10
5.285468207465278
 20
-0.7452935112847222
 30
0.0
 10
5.285468207465278
 20
-0.7452935112847222
 30
0.0
 10
5.493815104166666
 20
-1.623128255208333
 30
0.0
 10
5.493815104166666
 20
-1.623128255208333
 30
0.0
 10
5.502143012152778
 20
-1.662014431423611
 30
0.0
 10
5.5035400390625
 20
-1.688408745659722
 30
0.0
 10
5.542426215277778
 20
-1.705078125
 30
0.0
 10
5.561876085069444
 20
-1.713412814670139
 30
0.0
 10
5.5771484375
 20
-1.723130967881944
 30
0.0
 10
5.5771484375
 20
-1.748135036892361
 30
0.0
 10
5.5771484375
 20
-1.785637749565972
 30
0.0
 10
5.527140299479166
 20
-1.784247504340278
 30
0.0
 10
5.500759548611111
 20
-1.784247504340278
 30
0.0
 10
5.500759548611111
 20
-1.784247504340278
 30
0.0
 10
5.1549072265625
 20
-1.784247504340278
 30
0.0
 10
5.1549072265625
 20
-1.784247504340278
 30
0.0
 10
5.127115885416666
 20
-1.784247504340278
 30
0.0
 10
5.086846245659722
 20
-1.781467013888889
 30
0.0
 10
5.086846245659722
 20
-1.745354546440972
 30
0.0
 10
5.086846245659722
 20
-1.723130967881944
 30
0.0
 10
5.095174153645833
 20
-1.7161865234375
 30
0.0
 10
5.113226996527778
 20
-1.706461588541667
 30
0.0
 10
5.149346245659722
 20
-1.685628255208333
 30
0.0
 10
5.1549072265625
 20
-1.675910101996528
 30
0.0
 10
5.142401801215278
 20
-1.621738009982639
 30
0.0
 10
5.142401801215278
 20
-1.621738009982639
 30
0.0
 10
5.1146240234375
 20
-1.514784071180556
 30
0.0
 10
5.1146240234375
 20
-1.514784071180556
 30
0.0
  0
SPLINE
  5
4D
330
40
100
AcDbEntity
  8
Layer 1
370
     0
100
AcDbSpline
210
0.0
220
0.0
230
1.0
 70
    11
 71
     3
 72
    44
 73
    40
 74
     0
 42
0.0000000001
 43
0.0000000001
 40
0.0
 40
0.0
 40
0.0
 40
0.0
 40
1.0
 40
1.0
 40
1.0
 40
2.0
 40
2.0
 40
2.0
 40
3.0
 40
3.0
 40
3.0
 40
4.0
 40
4.0
 40
4.0
 40
5.0
 40
5.0
 40
5.0
 40
6.0
 40
6.0
 40
6.0
 40
7.0
 40
7.0
 40
7.0
 40
8.0
 40
8.0
 40
8.0
 40
9.0
 40
9.0
 40
9.0
 40
10.0
 40
10.0
 40
10.0
 40
11.0
 40
11.0
 40
11.0
 40
12.0
 40
12.0
 40
12.0
 40
13.0
 40
13.0
 40
13.0
 40
13.0
 10
5.707614474826388
 20
-0.9008585611979166
 30
0.0
 10
5.707614474826388
 20
-0.8494669596354166
 30
0.0
 10
5.708997938368055
 20
-0.8411322699652777
 30
0.0
 10
5.660386827256944
 20
-0.8258531358506944
 30
0.0
 10
5.642333984375
 20
-0.8202989366319444
 30
0.0
 10
5.629828559027778
 20
-0.80780029296875
 30
0.0
 10
5.629828559027778
 20
-0.7883504231770833
 30
0.0
 10
5.629828559027778
 20
-0.748074001736111
 30
0.0
 10
5.675672743055555
 20
-0.7452935112847222
 30
0.0
 10
5.681220160590278
 20
-0.7452935112847222
 30
0.0
 10
5.681220160590278
 20
-0.7452935112847222
 30
0.0
 10
6.047919379340278
 20
-0.7452935112847222
 30
0.0
 10
6.047919379340278
 20
-0.7452935112847222
 30
0.0
 10
6.047919379340278
 20
-0.7452935112847222
 30
0.0
 10
6.047919379340278
 20
-1.628682454427083
 30
0.0
 10
6.047919379340278
 20
-1.628682454427083
 30
0.0
 10
6.047919379340278
 20
-1.680074055989583
 30
0.0
 10
6.046522352430555
 20
-1.688408745659722
 30
0.0
 10
6.095133463541666
 20
-1.703687879774305
 30
0.0
 10
6.113199869791666
 20
-1.709242078993055
 30
0.0
 10
6.125691731770833
 20
-1.72174072265625
 30
0.0
 10
6.125691731770833
 20
-1.741190592447917
 30
0.0
 10
6.125691731770833
 20
-1.781467013888889
 30
0.0
 10
6.079861111111111
 20
-1.784247504340278
 30
0.0
 10
6.074300130208333
 20
-1.784247504340278
 30
0.0
 10
6.074300130208333
 20
-1.784247504340278
 30
0.0
 10
5.681220160590278
 20
-1.784247504340278
 30
0.0
 10
5.681220160590278
 20
-1.784247504340278
 30
0.0
 10
5.675672743055555
 20
-1.784247504340278
 30
0.0
 10
5.629828559027778
 20
-1.781467013888889
 30
0.0
 10
5.629828559027778
 20
-1.741190592447917
 30
0.0
 10
5.629828559027778
 20
-1.72174072265625
 30
0.0
 10
5.642333984375
 20
-1.709242078993055
 30
0.0
 10
5.660386827256944
 20
-1.703687879774305
 30
0.0
 10
5.708997938368055
 20
-1.688408745659722
 30
0.0
 10
5.707614474826388
 20
-1.680074055989583
 30
0.0
 10
5.707614474826388
 20
-1.628682454427083
 30
0.0
 10
5.707614474826388
 20
-1.628682454427083
 30
0.0
 10
5.707614474826388
 20
-0.9008585611979166
 30
0.0
 10
5.707614474826388
 20
-0.9008585611979166
 30
0.0
  0
SPLINE
  5
4E
330
40
100
AcDbEntity
  8
Layer 1
370
     0
100
AcDbSpline
210
0.0
220
0.0
230
1.0
 70
    11
 71
     3
 72
    68
 73
    64
 74
     0
 42
0.0000000001
 43
0.0000000001
 40
0.0
 40
0.0
 40
0.0
 40
0.0
 40
1.0
 40
1.0
 40
1.0
 40
2.0
 40
2.0
 40
2.0
 40
3.0
 40
3.0
 40
3.0
 40
4.0
 40
4.0
 40
4.0
 40
5.0
 40
5.0
 40
5.0
 40
6.0
 40
6.0
 40
6.0
 40
7.0
 40
7.0
 40
7.0
 40
8.0
 40
8.0
 40
8.0
 40
9.0
 40
9.0
 40
9.0
 40
10.0
 40
10.0
 40
10.0
 40
11.0
 40
11.0
 40
11.0
 40
12.0
 40
12.0
 40
12.0
 40
13.0
 40
13.0
 40
13.0
 40
14.0
 40
14.0
 40
14.0
 40
15.0
 40
15.0
 40
15.0
 40
16.0
 40
16.0
 40
16.0
 40
17.0
 40
17.0
 40
17.0
 40
18.0
 40
18.0
 40
18.0
 40
19.0
 40
19.0
 40
19.0
 40
20.0
 40
20.0
 40
20.0
 40
21.0
 40
21.0
 40
21.0
 40
21.0
 10
6.110419379340278
 20
-0.7452935112847222
 30
0.0
 10
6.110419379340278
 20
-0.7452935112847222
 30
0.0
 10
6.117363823784722
 20
-0.7452935112847222
 30
0.0
 10
6.117363823784722
 20
-0.7452935112847222
 30
0.0
 10
6.2076416015625
 20
-0.7452935112847222
 30
0.0
 10
6.302096896701388
 20
-0.742519802517361
 30
0.0
 10
6.385430230034721
 20
-0.7827962239583333
 30
0.0
 10
6.478502061631944
 20
-0.8286336263020833
 30
0.0
 10
6.525716145833333
 20
-0.905029296875
 30
0.0
 10
6.527113172743055
 20
-1.010586208767361
 30
0.0
 10
6.529893663194444
 20
-1.170321994357639
 30
0.0
 10
6.424329969618055
 20
-1.239773220486111
 30
0.0
 10
6.282647026909721
 20
-1.273105197482639
 30
0.0
 10
6.282647026909721
 20
-1.273105197482639
 30
0.0
 10
6.282647026909721
 20
-1.275885687934028
 30
0.0
 10
6.282647026909721
 20
-1.275885687934028
 30
0.0
 10
6.406263563368055
 20
-1.293938530815972
 30
0.0
 10
6.524332682291666
 20
-1.330050998263889
 30
0.0
 10
6.527113172743055
 20
-1.477281358506944
 30
0.0
 10
6.527113172743055
 20
-1.477281358506944
 30
0.0
 10
6.527113172743055
 20
-1.599514431423611
 30
0.0
 10
6.527113172743055
 20
-1.599514431423611
 30
0.0
 10
6.527113172743055
 20
-1.612013075086805
 30
0.0
 10
6.52294921875
 20
-1.639797634548611
 30
0.0
 10
6.541002061631944
 20
-1.639797634548611
 30
0.0
 10
6.563218858506944
 20
-1.639797634548611
 30
0.0
 10
6.567396375868055
 20
-1.599514431423611
 30
0.0
 10
6.600721571180555
 20
-1.599514431423611
 30
0.0
 10
6.618787977430555
 20
-1.599514431423611
 30
0.0
 10
6.641004774305555
 20
-1.620347764756944
 30
0.0
 10
6.641004774305555
 20
-1.639797634548611
 30
0.0
 10
6.641004774305555
 20
-1.680074055989583
 30
0.0
 10
6.595174153645833
 20
-1.731465657552083
 30
0.0
 10
6.564615885416666
 20
-1.755079481336805
 30
0.0
 10
6.517388237847221
 20
-1.793972439236111
 30
0.0
 10
6.467380099826388
 20
-1.805080837673611
 30
0.0
 10
6.407660590277778
 20
-1.805080837673611
 30
0.0
 10
6.347927517361111
 20
-1.805080837673611
 30
0.0
 10
6.293768988715278
 20
-1.789801703559028
 30
0.0
 10
6.250705295138888
 20
-1.746744791666667
 30
0.0
 10
6.202094184027778
 20
-1.696743435329861
 30
0.0
 10
6.195149739583333
 20
-1.635626898871528
 30
0.0
 10
6.195149739583333
 20
-1.570346408420139
 30
0.0
 10
6.195149739583333
 20
-1.570346408420139
 30
0.0
 10
6.195149739583333
 20
-1.475897894965278
 30
0.0
 10
6.195149739583333
 20
-1.475897894965278
 30
0.0
 10
6.195149739583333
 20
-1.412000868055556
 30
0.0
 10
6.193752712673611
 20
-1.334221733940972
 30
0.0
 10
6.110419379340278
 20
-1.325887044270833
 30
0.0
 10
6.110419379340278
 20
-1.325887044270833
 30
0.0
 10
6.110419379340278
 20
-1.243937174479167
 30
0.0
 10
6.110419379340278
 20
-1.243937174479167
 30
0.0
 10
6.1854248046875
 20
-1.236992730034722
 30
0.0
 10
6.195149739583333
 20
-1.191155327690972
 30
0.0
 10
6.195149739583333
 20
-1.123094346788194
 30
0.0
 10
6.195149739583333
 20
-1.123094346788194
 30
0.0
 10
6.195149739583333
 20
-0.9550306532118055
 30
0.0
 10
6.195149739583333
 20
-0.9550306532118055
 30
0.0
 10
6.195149739583333
 20
-0.8855794270833333
 30
0.0
 10
6.179863823784722
 20
-0.8522474500868055
 30
0.0
 10
6.110419379340278
 20
-0.8272433810763888
 30
0.0
 10
6.110419379340278
 20
-0.8272433810763888
 30
0.0
 10
6.110419379340278
 20
-0.7452935112847222
 30
0.0
 10
6.110419379340278
 20
-0.7452935112847222
 30
0.0
  0
SPLINE
  5
4F
330
40
100
AcDbEntity
  8
Layer 1
370
     0
100
AcDbSpline
210
0.0
220
0.0
230
1.0
 70
    11
 71
     3
 72
    38
 73
    34
 74
     0
 42
0.0000000001
 43
0.0000000001
 40
0.0
 40
0.0
 40
0.0
 40
0.0
 40
1.0
 40
1.0
 40
1.0
 40
2.0
 40
2.0
 40
2.0
 40
3.0
 40
3.0
 40
3.0
 40
4.0
 40
4.0
 40
4.0
 40
5.0
 40
5.0
 40
5.0
 40
6.0
 40
6.0
 40
6.0
 40
7.0
 40
7.0
 40
7.0
 40
8.0
 40
8.0
 40
8.0
 40
9.0
 40
9.0
 40
9.0
 40
10.0
 40
10.0
 40
10.0
 40
11.0
 40
11.0
 40
11.0
 40
11.0
 10
0.682644314236111
 20
-2.763373480902778
 30
0.0
 10
0.682644314236111
 20
-2.763373480902778
 30
0.0
 10
0.5520765516493056
 20
-3.2384033203125
 30
0.0
 10
0.5520765516493056
 20
-3.2384033203125
 30
0.0
 10
0.5298529730902778
 20
-3.323133680555555
 30
0.0
 10
0.5493028428819444
 20
-3.346747504340278
 30
0.0
 10
0.596523708767361
 20
-3.367580837673611
 30
0.0
 10
0.6187472873263888
 20
-3.377292209201389
 30
0.0
 10
0.6381971571180555
 20
-3.385633680555555
 30
0.0
 10
0.6381971571180555
 20
-3.413411458333333
 30
0.0
 10
0.6381971571180555
 20
-3.452297634548611
 30
0.0
 10
0.59375
 20
-3.450914171006944
 30
0.0
 10
0.5659654405381944
 20
-3.450914171006944
 30
0.0
 10
0.5659654405381944
 20
-3.450914171006944
 30
0.0
 10
0.4062364366319444
 20
-3.450914171006944
 30
0.0
 10
0.4062364366319444
 20
-3.450914171006944
 30
0.0
 10
0.3784586588541666
 20
-3.450914171006944
 30
0.0
 10
0.3284505208333333
 20
-3.449530707465278
 30
0.0
 10
0.3284505208333333
 20
-3.409247504340278
 30
0.0
 10
0.3284505208333333
 20
-3.375908745659722
 30
0.0
 10
0.3520643446180555
 20
-3.377292209201389
 30
0.0
 10
0.3826226128472222
 20
-3.362019856770833
 30
0.0
 10
0.4117906358506944
 20
-3.346747504340278
 30
0.0
 10
0.4492933485243055
 20
-3.314792209201389
 30
0.0
 10
0.4756876627604166
 20
-3.216179741753472
 30
0.0
 10
0.4756876627604166
 20
-3.216179741753472
 30
0.0
 10
0.642361111111111
 20
-2.606418185763889
 30
0.0
 10
0.642361111111111
 20
-2.606418185763889
 30
0.0
 10
0.642361111111111
 20
-2.606418185763889
 30
0.0
 10
0.6465318467881944
 20
-2.606418185763889
 30
0.0
 10
0.6465318467881944
 20
-2.606418185763889
 30
0.0
 10
0.6465318467881944
 20
-2.606418185763889
 30
0.0
 10
0.682644314236111
 20
-2.763373480902778
 30
0.0
 10
0.682644314236111
 20
-2.763373480902778
 30
0.0
  0
SPLINE
  5
50
330
40
100
AcDbEntity
  8
Layer 1
370
     0
100
AcDbSpline
210
0.0
220
0.0
230
1.0
 70
    11
 71
     3
 72
    50
 73
    46
 74
     0
 42
0.0000000001
 43
0.0000000001
 40
0.0
 40
0.0
 40
0.0
 40
0.0
 40
1.0
 40
1.0
 40
1.0
 40
2.0
 40
2.0
 40
2.0
 40
3.0
 40
3.0
 40
3.0
 40
4.0
 40
4.0
 40
4.0
 40
5.0
 40
5.0
 40
5.0
 40
6.0
 40
6.0
 40
6.0
 40
7.0
 40
7.0
 40
7.0
 40
8.0
 40
8.0
 40
8.0
 40
9.0
 40
9.0
 40
9.0
 40
10.0
 40
10.0
 40
10.0
 40
11.0
 40
11.0
 40
11.0
 40
12.0
 40
12.0
 40
12.0
 40
13.0
 40
13.0
 40
13.0
 40
14.0
 40
14.0
 40
14.0
 40
15.0
 40
15.0
 40
15.0
 40
15.0
 10
0.831264919704861
 20
-3.181450737847222
 30
0.0
 10
0.831264919704861
 20
-3.181450737847222
 30
0.0
 10
0.6284722222222222
 20
-3.181450737847222
 30
0.0
 10
0.6284722222222222
 20
-3.181450737847222
 30
0.0
 10
0.6284722222222222
 20
-3.181450737847222
 30
0.0
 10
0.647915310329861
 20
-3.10089111328125
 30
0.0
 10
0.647915310329861
 20
-3.10089111328125
 30
0.0
 10
0.647915310329861
 20
-3.10089111328125
 30
0.0
 10
0.8173692491319444
 20
-3.10089111328125
 30
0.0
 10
0.8173692491319444
 20
-3.10089111328125
 30
0.0
 10
0.8173692491319444
 20
-3.10089111328125
 30
0.0
 10
0.6770833333333333
 20
-2.486965603298611
 30
0.0
 10
0.6770833333333333
 20
-2.486965603298611
 30
0.0
 10
0.6770833333333333
 20
-2.486965603298611
 30
0.0
 10
0.6951429578993055
 20
-2.411960177951389
 30
0.0
 10
0.6951429578993055
 20
-2.411960177951389
 30
0.0
 10
0.6951429578993055
 20
-2.411960177951389
 30
0.0
 10
1.002109103732639
 20
-2.411960177951389
 30
0.0
 10
1.002109103732639
 20
-2.411960177951389
 30
0.0
 10
1.002109103732639
 20
-2.411960177951389
 30
0.0
 10
1.21044921875
 20
-3.289794921875
 30
0.0
 10
1.21044921875
 20
-3.289794921875
 30
0.0
 10
1.218783908420139
 20
-3.328681098090278
 30
0.0
 10
1.220174153645833
 20
-3.355075412326389
 30
0.0
 10
1.259067111545139
 20
-3.371744791666667
 30
0.0
 10
1.278510199652778
 20
-3.380072699652778
 30
0.0
 10
1.293789333767361
 20
-3.389797634548611
 30
0.0
 10
1.293789333767361
 20
-3.414794921875
 30
0.0
 10
1.293789333767361
 20
-3.452297634548611
 30
0.0
 10
1.243787977430556
 20
-3.450914171006944
 30
0.0
 10
1.217393663194444
 20
-3.450914171006944
 30
0.0
 10
1.217393663194444
 20
-3.450914171006944
 30
0.0
 10
0.8715413411458333
 20
-3.450914171006944
 30
0.0
 10
0.8715413411458333
 20
-3.450914171006944
 30
0.0
 10
0.8437635633680555
 20
-3.450914171006944
 30
0.0
 10
0.8034803602430555
 20
-3.448133680555555
 30
0.0
 10
0.8034803602430555
 20
-3.412027994791667
 30
0.0
 10
0.8034803602430555
 20
-3.389797634548611
 30
0.0
 10
0.8118150499131944
 20
-3.382853190104167
 30
0.0
 10
0.8298746744791666
 20
-3.373128255208333
 30
0.0
 10
0.8659871419270833
 20
-3.352294921875
 30
0.0
 10
0.8715413411458333
 20
-3.342569986979167
 30
0.0
 10
0.8590426974826388
 20
-3.288404676649305
 30
0.0
 10
0.8590426974826388
 20
-3.288404676649305
 30
0.0
 10
0.831264919704861
 20
-3.181450737847222
 30
0.0
 10
0.831264919704861
 20
-3.181450737847222
 30
0.0
  0
SPLINE
  5
51
330
40
100
AcDbEntity
  8
Layer 1
370
     0
100
AcDbSpline
210
0.0
220
0.0
230
1.0
 70
    11
 71
     3
 72
    44
 73
    40
 74
     0
 42
0.0000000001
 43
0.0000000001
 40
0.0
 40
0.0
 40
0.0
 40
0.0
 40
1.0
 40
1.0
 40
1.0
 40
2.0
 40
2.0
 40
2.0
 40
3.0
 40
3.0
 40
3.0
 40
4.0
 40
4.0
 40
4.0
 40
5.0
 40
5.0
 40
5.0
 40
6.0
 40
6.0
 40
6.0
 40
7.0
 40
7.0
 40
7.0
 40
8.0
 40
8.0
 40
8.0
 40
9.0
 40
9.0
 40
9.0
 40
10.0
 40
10.0
 40
10.0
 40
11.0
 40
11.0
 40
11.0
 40
12.0
 40
12.0
 40
12.0
 40
13.0
 40
13.0
 40
13.0
 40
13.0
 10
1.420111762152778
 20
-2.411960177951389
 30
0.0
 10
1.420111762152778
 20
-2.411960177951389
 30
0.0
 10
1.772915310329861
 20
-2.411960177951389
 30
0.0
 10
1.772915310329861
 20
-2.411960177951389
 30
0.0
 10
1.772915310329861
 20
-2.411960177951389
 30
0.0
 10
1.921535915798611
 20
-2.83837890625
 30
0.0
 10
1.921535915798611
 20
-2.83837890625
 30
0.0
 10
1.921535915798611
 20
-2.83837890625
 30
0.0
 10
1.924309624565972
 20
-2.83837890625
 30
0.0
 10
1.924309624565972
 20
-2.83837890625
 30
0.0
 10
1.924309624565972
 20
-2.83837890625
 30
0.0
 10
1.98681640625
 20
-2.607808430989583
 30
0.0
 10
1.98681640625
 20
-2.607808430989583
 30
0.0
 10
1.98681640625
 20
-2.607808430989583
 30
0.0
 10
1.989596896701389
 20
-2.607808430989583
 30
0.0
 10
1.989596896701389
 20
-2.607808430989583
 30
0.0
 10
1.989596896701389
 20
-2.607808430989583
 30
0.0
 10
1.989596896701389
 20
-2.860602484809028
 30
0.0
 10
1.989596896701389
 20
-2.860602484809028
 30
0.0
 10
1.989596896701389
 20
-2.860602484809028
 30
0.0
 10
1.813191731770833
 20
-3.450914171006944
 30
0.0
 10
1.813191731770833
 20
-3.450914171006944
 30
0.0
 10
1.813191731770833
 20
-3.450914171006944
 30
0.0
 10
1.772915310329861
 20
-3.450914171006944
 30
0.0
 10
1.772915310329861
 20
-3.450914171006944
 30
0.0
 10
1.772915310329861
 20
-3.450914171006944
 30
0.0
 10
1.482618543836806
 20
-2.591139051649305
 30
0.0
 10
1.482618543836806
 20
-2.591139051649305
 30
0.0
 10
1.475674099392361
 20
-2.570305718315972
 30
0.0
 10
1.468729654947917
 20
-2.549472384982639
 30
0.0
 10
1.457614474826389
 20
-2.531412760416667
 30
0.0
 10
1.445115831163194
 20
-2.510579427083333
 30
0.0
 10
1.439561631944444
 20
-2.493910047743055
 30
0.0
 10
1.415947808159722
 20
-2.492519802517361
 30
0.0
 10
1.399278428819444
 20
-2.491136338975694
 30
0.0
 10
1.361775716145833
 20
-2.488355848524305
 30
0.0
 10
1.361775716145833
 20
-2.45501708984375
 30
0.0
 10
1.361775716145833
 20
-2.411960177951389
 30
0.0
 10
1.403449164496528
 20
-2.411960177951389
 30
0.0
 10
1.420111762152778
 20
-2.411960177951389
 30
0.0
  0
SPLINE
  5
52
330
40
100
AcDbEntity
  8
Layer 1
370
     0
100
AcDbSpline
210
0.0
220
0.0
230
1.0
 70
    11
 71
     3
 72
    32
 73
    28
 74
     0
 42
0.0000000001
 43
0.0000000001
 40
0.0
 40
0.0
 40
0.0
 40
0.0
 40
1.0
 40
1.0
 40
1.0
 40
2.0
 40
2.0
 40
2.0
 40
3.0
 40
3.0
 40
3.0
 40
4.0
 40
4.0
 40
4.0
 40
5.0
 40
5.0
 40
5.0
 40
6.0
 40
6.0
 40
6.0
 40
7.0
 40
7.0
 40
7.0
 40
8.0
 40
8.0
 40
8.0
 40
9.0
 40
9.0
 40
9.0
 40
9.0
 10
1.47845458984375
 20
-2.763373480902778
 30
0.0
 10
1.47845458984375
 20
-2.763373480902778
 30
0.0
 10
1.481228298611111
 20
-2.763373480902778
 30
0.0
 10
1.481228298611111
 20
-2.763373480902778
 30
0.0
 10
1.481228298611111
 20
-2.763373480902778
 30
0.0
 10
1.559014214409722
 20
-2.9925537109375
 30
0.0
 10
1.559014214409722
 20
-2.9925537109375
 30
0.0
 10
1.559014214409722
 20
-2.9925537109375
 30
0.0
 10
1.559014214409722
 20
-3.231458875868055
 30
0.0
 10
1.559014214409722
 20
-3.231458875868055
 30
0.0
 10
1.58123779296875
 20
-3.405083550347222
 30
0.0
 10
1.670132107204861
 20
-3.350911458333333
 30
0.0
 10
1.670132107204861
 20
-3.410630967881944
 30
0.0
 10
1.670132107204861
 20
-3.453694661458333
 30
0.0
 10
1.613179524739583
 20
-3.450914171006944
 30
0.0
 10
1.597900390625
 20
-3.450914171006944
 30
0.0
 10
1.597900390625
 20
-3.450914171006944
 30
0.0
 10
1.439561631944444
 20
-3.450914171006944
 30
0.0
 10
1.439561631944444
 20
-3.450914171006944
 30
0.0
 10
1.424282497829861
 20
-3.450914171006944
 30
0.0
 10
1.367336697048611
 20
-3.453694661458333
 30
0.0
 10
1.367336697048611
 20
-3.410630967881944
 30
0.0
 10
1.367336697048611
 20
-3.350911458333333
 30
0.0
 10
1.456231011284722
 20
-3.405083550347222
 30
0.0
 10
1.47845458984375
 20
-3.231458875868055
 30
0.0
 10
1.47845458984375
 20
-3.231458875868055
 30
0.0
 10
1.47845458984375
 20
-2.763373480902778
 30
0.0
 10
1.47845458984375
 20
-2.763373480902778
 30
0.0
  0
SPLINE
  5
53
330
40
100
AcDbEntity
  8
Layer 1
370
     0
100
AcDbSpline
210
0.0
220
0.0
230
1.0
 70
    11
 71
     3
 72
    44
 73
    40
 74
     0
 42
0.0000000001
 43
0.0000000001
 40
0.0
 40
0.0
 40
0.0
 40
0.0
 40
1.0
 40
1.0
 40
1.0
 40
2.0
 40
2.0
 40
2.0
 40
3.0
 40
3.0
 40
3.0
 40
4.0
 40
4.0
 40
4.0
 40
5.0
 40
5.0
 40
5.0
 40
6.0
 40
6.0
 40
6.0
 40
7.0
 40
7.0
 40
7.0
 40
8.0
 40
8.0
 40
8.0
 40
9.0
 40
9.0
 40
9.0
 40
10.0
 40
10.0
 40
10.0
 40
11.0
 40
11.0
 40
11.0
 40
12.0
 40
12.0
 40
12.0
 40
13.0
 40
13.0
 40
13.0
 40
13.0
 10
2.052096896701389
 20
-2.411960177951389
 30
0.0
 10
2.052096896701389
 20
-2.411960177951389
 30
0.0
 10
2.418789333767361
 20
-2.411960177951389
 30
0.0
 10
2.418789333767361
 20
-2.411960177951389
 30
0.0
 10
2.424343532986111
 20
-2.411960177951389
 30
0.0
 10
2.470180935329861
 20
-2.414740668402778
 30
0.0
 10
2.470180935329861
 20
-2.45501708984375
 30
0.0
 10
2.470180935329861
 20
-2.474466959635417
 30
0.0
 10
2.457675509982639
 20
-2.486965603298611
 30
0.0
 10
2.439622667100694
 20
-2.492519802517361
 30
0.0
 10
2.391004774305555
 20
-2.507798936631944
 30
0.0
 10
2.39239501953125
 20
-2.516133626302083
 30
0.0
 10
2.39239501953125
 20
-2.567525227864583
 30
0.0
 10
2.39239501953125
 20
-2.567525227864583
 30
0.0
 10
2.39239501953125
 20
-3.295342339409722
 30
0.0
 10
2.39239501953125
 20
-3.295342339409722
 30
0.0
 10
2.39239501953125
 20
-3.346747504340278
 30
0.0
 10
2.391004774305555
 20
-3.355075412326389
 30
0.0
 10
2.439622667100694
 20
-3.370347764756944
 30
0.0
 10
2.457675509982639
 20
-3.375908745659722
 30
0.0
 10
2.470180935329861
 20
-3.388414171006944
 30
0.0
 10
2.470180935329861
 20
-3.407850477430555
 30
0.0
 10
2.470180935329861
 20
-3.448133680555555
 30
0.0
 10
2.424343532986111
 20
-3.450914171006944
 30
0.0
 10
2.418789333767361
 20
-3.450914171006944
 30
0.0
 10
2.418789333767361
 20
-3.450914171006944
 30
0.0
 10
2.025709364149305
 20
-3.450914171006944
 30
0.0
 10
2.025709364149305
 20
-3.450914171006944
 30
0.0
 10
2.020148383246528
 20
-3.450914171006944
 30
0.0
 10
1.974317762586805
 20
-3.448133680555555
 30
0.0
 10
1.974317762586805
 20
-3.407850477430555
 30
0.0
 10
1.974317762586805
 20
-3.388414171006944
 30
0.0
 10
1.98681640625
 20
-3.375908745659722
 30
0.0
 10
2.004869249131944
 20
-3.370347764756944
 30
0.0
 10
2.053487141927083
 20
-3.355075412326389
 30
0.0
 10
2.052096896701389
 20
-3.346747504340278
 30
0.0
 10
2.052096896701389
 20
-3.295342339409722
 30
0.0
 10
2.052096896701389
 20
-3.295342339409722
 30
0.0
 10
2.052096896701389
 20
-2.411960177951389
 30
0.0
 10
2.052096896701389
 20
-2.411960177951389
 30
0.0
  0
SPLINE
  5
54
330
40
100
AcDbEntity
  8
Layer 1
370
     0
100
AcDbSpline
210
0.0
220
0.0
230
1.0
 70
    11
 71
     3
 72
    44
 73
    40
 74
     0
 42
0.0000000001
 43
0.0000000001
 40
0.0
 40
0.0
 40
0.0
 40
0.0
 40
1.0
 40
1.0
 40
1.0
 40
2.0
 40
2.0
 40
2.0
 40
3.0
 40
3.0
 40
3.0
 40
4.0
 40
4.0
 40
4.0
 40
5.0
 40
5.0
 40
5.0
 40
6.0
 40
6.0
 40
6.0
 40
7.0
 40
7.0
 40
7.0
 40
8.0
 40
8.0
 40
8.0
 40
9.0
 40
9.0
 40
9.0
 40
10.0
 40
10.0
 40
10.0
 40
11.0
 40
11.0
 40
11.0
 40
12.0
 40
12.0
 40
12.0
 40
13.0
 40
13.0
 40
13.0
 40
13.0
 10
2.640943739149305
 20
-2.411960177951389
 30
0.0
 10
2.640943739149305
 20
-2.411960177951389
 30
0.0
 10
2.993747287326389
 20
-2.411960177951389
 30
0.0
 10
2.993747287326389
 20
-2.411960177951389
 30
0.0
 10
2.993747287326389
 20
-2.411960177951389
 30
0.0
 10
3.142367892795139
 20
-2.83837890625
 30
0.0
 10
3.142367892795139
 20
-2.83837890625
 30
0.0
 10
3.142367892795139
 20
-2.83837890625
 30
0.0
 10
3.1451416015625
 20
-2.83837890625
 30
0.0
 10
3.1451416015625
 20
-2.83837890625
 30
0.0
 10
3.1451416015625
 20
-2.83837890625
 30
0.0
 10
3.207648383246528
 20
-2.607808430989583
 30
0.0
 10
3.207648383246528
 20
-2.607808430989583
 30
0.0
 10
3.207648383246528
 20
-2.607808430989583
 30
0.0
 10
3.210428873697917
 20
-2.607808430989583
 30
0.0
 10
3.210428873697917
 20
-2.607808430989583
 30
0.0
 10
3.210428873697917
 20
-2.607808430989583
 30
0.0
 10
3.210428873697917
 20
-2.860602484809028
 30
0.0
 10
3.210428873697917
 20
-2.860602484809028
 30
0.0
 10
3.210428873697917
 20
-2.860602484809028
 30
0.0
 10
3.034023708767361
 20
-3.450914171006944
 30
0.0
 10
3.034023708767361
 20
-3.450914171006944
 30
0.0
 10
3.034023708767361
 20
-3.450914171006944
 30
0.0
 10
2.993747287326389
 20
-3.450914171006944
 30
0.0
 10
2.993747287326389
 20
-3.450914171006944
 30
0.0
 10
2.993747287326389
 20
-3.450914171006944
 30
0.0
 10
2.703450520833333
 20
-2.591139051649305
 30
0.0
 10
2.703450520833333
 20
-2.591139051649305
 30
0.0
 10
2.696506076388889
 20
-2.570305718315972
 30
0.0
 10
2.689561631944444
 20
-2.549472384982639
 30
0.0
 10
2.678446451822917
 20
-2.531412760416667
 30
0.0
 10
2.665947808159722
 20
-2.510579427083333
 30
0.0
 10
2.660393608940972
 20
-2.493910047743055
 30
0.0
 10
2.63677978515625
 20
-2.492519802517361
 30
0.0
 10
2.620110405815972
 20
-2.491136338975694
 30
0.0
 10
2.582607693142361
 20
-2.488355848524305
 30
0.0
 10
2.582607693142361
 20
-2.45501708984375
 30
0.0
 10
2.582607693142361
 20
-2.411960177951389
 30
0.0
 10
2.624281141493055
 20
-2.411960177951389
 30
0.0
 10
2.640943739149305
 20
-2.411960177951389
 30
0.0
  0
SPLINE
  5
55
330
40
100
AcDbEntity
  8
Layer 1
370
     0
100
AcDbSpline
210
0.0
220
0.0
230
1.0
 70
    11
 71
     3
 72
    32
 73
    28
 74
     0
 42
0.0000000001
 43
0.0000000001
 40
0.0
 40
0.0
 40
0.0
 40
0.0
 40
1.0
 40
1.0
 40
1.0
 40
2.0
 40
2.0
 40
2.0
 40
3.0
 40
3.0
 40
3.0
 40
4.0
 40
4.0
 40
4.0
 40
5.0
 40
5.0
 40
5.0
 40
6.0
 40
6.0
 40
6.0
 40
7.0
 40
7.0
 40
7.0
 40
8.0
 40
8.0
 40
8.0
 40
9.0
 40
9.0
 40
9.0
 40
9.0
 10
2.699286566840278
 20
-2.763373480902778
 30
0.0
 10
2.699286566840278
 20
-2.763373480902778
 30
0.0
 10
2.702060275607639
 20
-2.763373480902778
 30
0.0
 10
2.702060275607639
 20
-2.763373480902778
 30
0.0
 10
2.702060275607639
 20
-2.763373480902778
 30
0.0
 10
2.77984619140625
 20
-2.9925537109375
 30
0.0
 10
2.77984619140625
 20
-2.9925537109375
 30
0.0
 10
2.77984619140625
 20
-2.9925537109375
 30
0.0
 10
2.77984619140625
 20
-3.231458875868055
 30
0.0
 10
2.77984619140625
 20
-3.231458875868055
 30
0.0
 10
2.802069769965278
 20
-3.405083550347222
 30
0.0
 10
2.890964084201389
 20
-3.350911458333333
 30
0.0
 10
2.890964084201389
 20
-3.410630967881944
 30
0.0
 10
2.890964084201389
 20
-3.453694661458333
 30
0.0
 10
2.834011501736111
 20
-3.450914171006944
 30
0.0
 10
2.818732367621528
 20
-3.450914171006944
 30
0.0
 10
2.818732367621528
 20
-3.450914171006944
 30
0.0
 10
2.660393608940972
 20
-3.450914171006944
 30
0.0
 10
2.660393608940972
 20
-3.450914171006944
 30
0.0
 10
2.645114474826389
 20
-3.450914171006944
 30
0.0
 10
2.588168674045139
 20
-3.453694661458333
 30
0.0
 10
2.588168674045139
 20
-3.410630967881944
 30
0.0
 10
2.588168674045139
 20
-3.350911458333333
 30
0.0
 10
2.67706298828125
 20
-3.405083550347222
 30
0.0
 10
2.699286566840278
 20
-3.231458875868055
 30
0.0
 10
2.699286566840278
 20
-3.231458875868055
 30
0.0
 10
2.699286566840278
 20
-2.763373480902778
 30
0.0
 10
2.699286566840278
 20
-2.763373480902778
 30
0.0
  0
SPLINE
  5
56
330
40
100
AcDbEntity
  8
Layer 1
370
     0
100
AcDbSpline
210
0.0
220
0.0
230
1.0
 70
    11
 71
     3
 72
    44
 73
    40
 74
     0
 42
0.0000000001
 43
0.0000000001
 40
0.0
 40
0.0
 40
0.0
 40
0.0
 40
1.0
 40
1.0
 40
1.0
 40
2.0
 40
2.0
 40
2.0
 40
3.0
 40
3.0
 40
3.0
 40
4.0
 40
4.0
 40
4.0
 40
5.0
 40
5.0
 40
5.0
 40
6.0
 40
6.0
 40
6.0
 40
7.0
 40
7.0
 40
7.0
 40
8.0
 40
8.0
 40
8.0
 40
9.0
 40
9.0
 40
9.0
 40
10.0
 40
10.0
 40
10.0
 40
11.0
 40
11.0
 40
11.0
 40
12.0
 40
12.0
 40
12.0
 40
13.0
 40
13.0
 40
13.0
 40
13.0
 10
3.272928873697917
 20
-2.411960177951389
 30
0.0
 10
3.272928873697917
 20
-2.411960177951389
 30
0.0
 10
3.639621310763889
 20
-2.411960177951389
 30
0.0
 10
3.639621310763889
 20
-2.411960177951389
 30
0.0
 10
3.645175509982639
 20
-2.411960177951389
 30
0.0
 10
3.691012912326389
 20
-2.414740668402778
 30
0.0
 10
3.691012912326389
 20
-2.45501708984375
 30
0.0
 10
3.691012912326389
 20
-2.474466959635417
 30
0.0
 10
3.678507486979167
 20
-2.486965603298611
 30
0.0
 10
3.660454644097222
 20
-2.492519802517361
 30
0.0
 10
3.611836751302083
 20
-2.507798936631944
 30
0.0
 10
3.613226996527778
 20
-2.516133626302083
 30
0.0
 10
3.613226996527778
 20
-2.567525227864583
 30
0.0
 10
3.613226996527778
 20
-2.567525227864583
 30
0.0
 10
3.613226996527778
 20
-3.295342339409722
 30
0.0
 10
3.613226996527778
 20
-3.295342339409722
 30
0.0
 10
3.613226996527778
 20
-3.346747504340278
 30
0.0
 10
3.611836751302083
 20
-3.355075412326389
 30
0.0
 10
3.660454644097222
 20
-3.370347764756944
 30
0.0
 10
3.678507486979167
 20
-3.375908745659722
 30
0.0
 10
3.691012912326389
 20
-3.388414171006944
 30
0.0
 10
3.691012912326389
 20
-3.407850477430555
 30
0.0
 10
3.691012912326389
 20
-3.448133680555555
 30
0.0
 10
3.645175509982639
 20
-3.450914171006944
 30
0.0
 10
3.639621310763889
 20
-3.450914171006944
 30
0.0
 10
3.639621310763889
 20
-3.450914171006944
 30
0.0
 10
3.246541341145833
 20
-3.450914171006944
 30
0.0
 10
3.246541341145833
 20
-3.450914171006944
 30
0.0
 10
3.240980360243055
 20
-3.450914171006944
 30
0.0
 10
3.195149739583333
 20
-3.448133680555555
 30
0.0
 10
3.195149739583333
 20
-3.407850477430555
 30
0.0
 10
3.195149739583333
 20
-3.388414171006944
 30
0.0
 10
3.207648383246528
 20
-3.375908745659722
 30
0.0
 10
3.2257080078125
 20
-3.370347764756944
 30
0.0
 10
3.274319118923611
 20
-3.355075412326389
 30
0.0
 10
3.272928873697917
 20
-3.346747504340278
 30
0.0
 10
3.272928873697917
 20
-3.295342339409722
 30
0.0
 10
3.272928873697917
 20
-3.295342339409722
 30
0.0
 10
3.272928873697917
 20
-2.411960177951389
 30
0.0
 10
3.272928873697917
 20
-2.411960177951389
 30
0.0
  0
SPLINE
  5
57
330
40
100
AcDbEntity
  8
Layer 1
370
     0
100
AcDbSpline
210
0.0
220
0.0
230
1.0
 70
    11
 71
     3
 72
    26
 73
    22
 74
     0
 42
0.0000000001
 43
0.0000000001
 40
0.0
 40
0.0
 40
0.0
 40
0.0
 40
1.0
 40
1.0
 40
1.0
 40
2.0
 40
2.0
 40
2.0
 40
3.0
 40
3.0
 40
3.0
 40
4.0
 40
4.0
 40
4.0
 40
5.0
 40
5.0
 40
5.0
 40
6.0
 40
6.0
 40
6.0
 40
7.0
 40
7.0
 40
7.0
 40
7.0
 10
4.209025065104166
 20
-2.471686469184028
 30
0.0
 10
4.143744574652778
 20
-2.49530029296875
 30
0.0
 10
4.13818359375
 20
-2.536966959635417
 30
0.0
 10
4.13818359375
 20
-2.571695963541667
 30
0.0
 10
4.13818359375
 20
-2.571695963541667
 30
0.0
 10
4.13818359375
 20
-3.291178385416667
 30
0.0
 10
4.13818359375
 20
-3.291178385416667
 30
0.0
 10
4.13818359375
 20
-3.325900607638889
 30
0.0
 10
4.143744574652778
 20
-3.367580837673611
 30
0.0
 10
4.209025065104166
 20
-3.391194661458333
 30
0.0
 10
4.209025065104166
 20
-3.391194661458333
 30
0.0
 10
4.209025065104166
 20
-3.471747504340278
 30
0.0
 10
4.209025065104166
 20
-3.471747504340278
 30
0.0
 10
3.914564344618055
 20
-3.445353190104167
 30
0.0
 10
3.777052137586805
 20
-3.207845052083333
 30
0.0
 10
3.777052137586805
 20
-2.931437174479167
 30
0.0
 10
3.777052137586805
 20
-2.655029296875
 30
0.0
 10
3.914564344618055
 20
-2.417521158854167
 30
0.0
 10
4.209025065104166
 20
-2.391126844618055
 30
0.0
 10
4.209025065104166
 20
-2.391126844618055
 30
0.0
 10
4.209025065104166
 20
-2.471686469184028
 30
0.0
 10
4.209025065104166
 20
-2.471686469184028
 30
0.0
  0
SPLINE
  5
58
330
40
100
AcDbEntity
  8
Layer 1
370
     0
100
AcDbSpline
210
0.0
220
0.0
230
1.0
 70
    11
 71
     3
 72
    26
 73
    22
 74
     0
 42
0.0000000001
 43
0.0000000001
 40
0.0
 40
0.0
 40
0.0
 40
0.0
 40
1.0
 40
1.0
 40
1.0
 40
2.0
 40
2.0
 40
2.0
 40
3.0
 40
3.0
 40
3.0
 40
4.0
 40
4.0
 40
4.0
 40
5.0
 40
5.0
 40
5.0
 40
6.0
 40
6.0
 40
6.0
 40
7.0
 40
7.0
 40
7.0
 40
7.0
 10
4.271525065104166
 20
-3.391194661458333
 30
0.0
 10
4.336805555555555
 20
-3.367580837673611
 30
0.0
 10
4.342366536458333
 20
-3.325900607638889
 30
0.0
 10
4.342366536458333
 20
-3.291178385416667
 30
0.0
 10
4.342366536458333
 20
-3.291178385416667
 30
0.0
 10
4.342366536458333
 20
-2.571695963541667
 30
0.0
 10
4.342366536458333
 20
-2.571695963541667
 30
0.0
 10
4.342366536458333
 20
-2.536966959635417
 30
0.0
 10
4.336805555555555
 20
-2.49530029296875
 30
0.0
 10
4.271525065104166
 20
-2.471686469184028
 30
0.0
 10
4.271525065104166
 20
-2.471686469184028
 30
0.0
 10
4.271525065104166
 20
-2.391126844618055
 30
0.0
 10
4.271525065104166
 20
-2.391126844618055
 30
0.0
 10
4.565985785590278
 20
-2.417521158854167
 30
0.0
 10
4.7034912109375
 20
-2.655029296875
 30
0.0
 10
4.7034912109375
 20
-2.931437174479167
 30
0.0
 10
4.7034912109375
 20
-3.207845052083333
 30
0.0
 10
4.565985785590278
 20
-3.445353190104167
 30
0.0
 10
4.271525065104166
 20
-3.471747504340278
 30
0.0
 10
4.271525065104166
 20
-3.471747504340278
 30
0.0
 10
4.271525065104166
 20
-3.391194661458333
 30
0.0
 10
4.271525065104166
 20
-3.391194661458333
 30
0.0
  0
SPLINE
  5
59
330
40
100
AcDbEntity
  8
Layer 1
370
     0
100
AcDbSpline
210
0.0
220
0.0
230
1.0
 70
    11
 71
     3
 72
    26
 73
    22
 74
     0
 42
0.0000000001
 43
0.0000000001
 40
0.0
 40
0.0
 40
0.0
 40
0.0
 40
1.0
 40
1.0
 40
1.0
 40
2.0
 40
2.0
 40
2.0
 40
3.0
 40
3.0
 40
3.0
 40
4.0
 40
4.0
 40
4.0
 40
5.0
 40
5.0
 40
5.0
 40
6.0
 40
6.0
 40
6.0
 40
7.0
 40
7.0
 40
7.0
 40
7.0
 10
5.686808268229166
 20
-3.471747504340278
 30
0.0
 10
5.3812255859375
 20
-3.4661865234375
 30
0.0
 10
5.236775716145833
 20
-3.234232584635417
 30
0.0
 10
5.236775716145833
 20
-2.949496799045139
 30
0.0
 10
5.236775716145833
 20
-2.628641764322917
 30
0.0
 10
5.417344835069444
 20
-2.400851779513889
 30
0.0
 10
5.686808268229166
 20
-2.391126844618055
 30
0.0
 10
5.686808268229166
 20
-2.391126844618055
 30
0.0
 10
5.686808268229166
 20
-2.471686469184028
 30
0.0
 10
5.686808268229166
 20
-2.471686469184028
 30
0.0
 10
5.620130750868055
 20
-2.485575358072917
 30
0.0
 10
5.597913953993055
 20
-2.542527940538194
 30
0.0
 10
5.597913953993055
 20
-2.600863986545139
 30
0.0
 10
5.597913953993055
 20
-2.600863986545139
 30
0.0
 10
5.597913953993055
 20
-3.259236653645833
 30
0.0
 10
5.597913953993055
 20
-3.259236653645833
 30
0.0
 10
5.597913953993055
 20
-3.317572699652778
 30
0.0
 10
5.620130750868055
 20
-3.374525282118055
 30
0.0
 10
5.686808268229166
 20
-3.391194661458333
 30
0.0
 10
5.686808268229166
 20
-3.391194661458333
 30
0.0
 10
5.686808268229166
 20
-3.471747504340278
 30
0.0
 10
5.686808268229166
 20
-3.471747504340278
 30
0.0
  0
SPLINE
  5
5A
330
40
100
AcDbEntity
  8
Layer 1
370
     0
100
AcDbSpline
210
0.0
220
0.0
230
1.0
 70
    11
 71
     3
 72
    32
 73
    28
 74
     0
 42
0.0000000001
 43
0.0000000001
 40
0.0
 40
0.0
 40
0.0
 40
0.0
 40
1.0
 40
1.0
 40
1.0
 40
2.0
 40
2.0
 40
2.0
 40
3.0
 40
3.0
 40
3.0
 40
4.0
 40
4.0
 40
4.0
 40
5.0
 40
5.0
 40
5.0
 40
6.0
 40
6.0
 40
6.0
 40
7.0
 40
7.0
 40
7.0
 40
8.0
 40
8.0
 40
8.0
 40
9.0
 40
9.0
 40
9.0
 40
9.0
 10
5.749308268229166
 20
-2.391126844618055
 30
0.0
 10
5.800699869791666
 20
-2.39251708984375
 30
0.0
 10
5.907647026909722
 20
-2.446689181857639
 30
0.0
 10
5.943766276041666
 20
-2.446689181857639
 30
0.0
 10
5.964599609375
 20
-2.446689181857639
 30
0.0
 10
5.972927517361111
 20
-2.4383544921875
 30
0.0
 10
5.981268988715278
 20
-2.420294867621528
 30
0.0
 10
5.989596896701388
 20
-2.402242024739583
 30
0.0
 10
5.999321831597222
 20
-2.391126844618055
 30
0.0
 10
6.018771701388888
 20
-2.391126844618055
 30
0.0
 10
6.063218858506944
 20
-2.391126844618055
 30
0.0
 10
6.063218858506944
 20
-2.434183756510417
 30
0.0
 10
6.063218858506944
 20
-2.441128200954861
 30
0.0
 10
6.063218858506944
 20
-2.441128200954861
 30
0.0
 10
6.063218858506944
 20
-2.763373480902778
 30
0.0
 10
6.063218858506944
 20
-2.763373480902778
 30
0.0
 10
6.063218858506944
 20
-2.770317925347222
 30
0.0
 10
6.063218858506944
 20
-2.813374837239583
 30
0.0
 10
6.018771701388888
 20
-2.813374837239583
 30
0.0
 10
5.989596896701388
 20
-2.813374837239583
 30
0.0
 10
5.972927517361111
 20
-2.789761013454861
 30
0.0
 10
5.967380099826388
 20
-2.763373480902778
 30
0.0
 10
5.943766276041666
 20
-2.650865342881944
 30
0.0
 10
5.878485785590278
 20
-2.506415473090278
 30
0.0
 10
5.749308268229166
 20
-2.471686469184028
 30
0.0
 10
5.749308268229166
 20
-2.471686469184028
 30
0.0
 10
5.749308268229166
 20
-2.391126844618055
 30
0.0
 10
5.749308268229166
 20
-2.391126844618055
 30
0.0
  0
SPLINE
  5
5B
330
40
100
AcDbEntity
  8
Layer 1
370
     0
100
AcDbSpline
210
0.0
220
0.0
230
1.0
 70
    11
 71
     3
 72
    20
 73
    16
 74
     0
 42
0.0000000001
 43
0.0000000001
 40
0.0
 40
0.0
 40
0.0
 40
0.0
 40
1.0
 40
1.0
 40
1.0
 40
2.0
 40
2.0
 40
2.0
 40
3.0
 40
3.0
 40
3.0
 40
4.0
 40
4.0
 40
4.0
 40
5.0
 40
5.0
 40
5.0
 40
5.0
 10
6.022935655381944
 20
-3.149509006076389
 30
0.0
 10
6.049329969618055
 20
-3.149509006076389
 30
0.0
 10
6.064602322048611
 20
-3.171732584635417
 30
0.0
 10
6.064602322048611
 20
-3.196729871961805
 30
0.0
 10
6.061821831597222
 20
-3.310628255208333
 30
0.0
 10
5.893758138020833
 20
-3.477308485243055
 30
0.0
 10
5.749308268229166
 20
-3.471747504340278
 30
0.0
 10
5.749308268229166
 20
-3.471747504340278
 30
0.0
 10
5.749308268229166
 20
-3.391194661458333
 30
0.0
 10
5.749308268229166
 20
-3.391194661458333
 30
0.0
 10
5.856255425347222
 20
-3.367580837673611
 30
0.0
 10
5.946546766493055
 20
-3.296739366319444
 30
0.0
 10
5.977091471354166
 20
-3.193956163194444
 30
0.0
 10
5.985432942708333
 20
-3.170342339409722
 30
0.0
 10
5.993760850694444
 20
-3.149509006076389
 30
0.0
 10
6.022935655381944
 20
-3.149509006076389
 30
0.0
  0
SPLINE
  5
5C
330
40
100
AcDbEntity
  8
Layer 1
370
     0
100
AcDbSpline
210
0.0
220
0.0
230
1.0
 70
    11
 71
     3
 72
    38
 73
    34
 74
     0
 42
0.0000000001
 43
0.0000000001
 40
0.0
 40
0.0
 40
0.0
 40
0.0
 40
1.0
 40
1.0
 40
1.0
 40
2.0
 40
2.0
 40
2.0
 40
3.0
 40
3.0
 40
3.0
 40
4.0
 40
4.0
 40
4.0
 40
5.0
 40
5.0
 40
5.0
 40
6.0
 40
6.0
 40
6.0
 40
7.0
 40
7.0
 40
7.0
 40
8.0
 40
8.0
 40
8.0
 40
9.0
 40
9.0
 40
9.0
 40
10.0
 40
10.0
 40
10.0
 40
11.0
 40
11.0
 40
11.0
 40
11.0
 10
6.460381401909721
 20
-2.763373480902778
 30
0.0
 10
6.460381401909721
 20
-2.763373480902778
 30
0.0
 10
6.329820421006944
 20
-3.2384033203125
 30
0.0
 10
6.329820421006944
 20
-3.2384033203125
 30
0.0
 10
6.307603624131944
 20
-3.323133680555555
 30
0.0
 10
6.327039930555555
 20
-3.346747504340278
 30
0.0
 10
6.374267578125
 20
-3.367580837673611
 30
0.0
 10
6.396497938368055
 20
-3.377292209201389
 30
0.0
 10
6.415934244791666
 20
-3.385633680555555
 30
0.0
 10
6.415934244791666
 20
-3.413411458333333
 30
0.0
 10
6.415934244791666
 20
-3.452297634548611
 30
0.0
 10
6.371487087673611
 20
-3.450914171006944
 30
0.0
 10
6.343709309895833
 20
-3.450914171006944
 30
0.0
 10
6.343709309895833
 20
-3.450914171006944
 30
0.0
 10
6.183973524305555
 20
-3.450914171006944
 30
0.0
 10
6.183973524305555
 20
-3.450914171006944
 30
0.0
 10
6.156195746527778
 20
-3.450914171006944
 30
0.0
 10
6.106201171875
 20
-3.449530707465278
 30
0.0
 10
6.106201171875
 20
-3.409247504340278
 30
0.0
 10
6.106201171875
 20
-3.375908745659722
 30
0.0
 10
6.129814995659722
 20
-3.377292209201389
 30
0.0
 10
6.160373263888888
 20
-3.362019856770833
 30
0.0
 10
6.189534505208333
 20
-3.346747504340278
 30
0.0
 10
6.227037217881944
 20
-3.314792209201389
 30
0.0
 10
6.253431532118055
 20
-3.216179741753472
 30
0.0
 10
6.253431532118055
 20
-3.216179741753472
 30
0.0
 10
6.420111762152778
 20
-2.606418185763889
 30
0.0
 10
6.420111762152778
 20
-2.606418185763889
 30
0.0
 10
6.420111762152778
 20
-2.606418185763889
 30
0.0
 10
6.424275716145833
 20
-2.606418185763889
 30
0.0
 10
6.424275716145833
 20
-2.606418185763889
 30
0.0
 10
6.424275716145833
 20
-2.606418185763889
 30
0.0
 10
6.460381401909721
 20
-2.763373480902778
 30
0.0
 10
6.460381401909721
 20
-2.763373480902778
 30
0.0
  0
SPLINE
  5
5D
330
40
100
AcDbEntity
  8
Layer 1
370
     0
100
AcDbSpline
210
0.0
220
0.0
230
1.0
 70
    11
 71
     3
 72
    50
 73
    46
 74
     0
 42
0.0000000001
 43
0.0000000001
 40
0.0
 40
0.0
 40
0.0
 40
0.0
 40
1.0
 40
1.0
 40
1.0
 40
2.0
 40
2.0
 40
2.0
 40
3.0
 40
3.0
 40
3.0
 40
4.0
 40
4.0
 40
4.0
 40
5.0
 40
5.0
 40
5.0
 40
6.0
 40
6.0
 40
6.0
 40
7.0
 40
7.0
 40
7.0
 40
8.0
 40
8.0
 40
8.0
 40
9.0
 40
9.0
 40
9.0
 40
10.0
 40
10.0
 40
10.0
 40
11.0
 40
11.0
 40
11.0
 40
12.0
 40
12.0
 40
12.0
 40
13.0
 40
13.0
 40
13.0
 40
14.0
 40
14.0
 40
14.0
 40
15.0
 40
15.0
 40
15.0
 40
15.0
 10
6.6090087890625
 20
-3.181450737847222
 30
0.0
 10
6.6090087890625
 20
-3.181450737847222
 30
0.0
 10
6.406222873263888
 20
-3.181450737847222
 30
0.0
 10
6.406222873263888
 20
-3.181450737847222
 30
0.0
 10
6.406222873263888
 20
-3.181450737847222
 30
0.0
 10
6.4256591796875
 20
-3.10089111328125
 30
0.0
 10
6.4256591796875
 20
-3.10089111328125
 30
0.0
 10
6.4256591796875
 20
-3.10089111328125
 30
0.0
 10
6.595119900173611
 20
-3.10089111328125
 30
0.0
 10
6.595119900173611
 20
-3.10089111328125
 30
0.0
 10
6.595119900173611
 20
-3.10089111328125
 30
0.0
 10
6.454833984375
 20
-2.486965603298611
 30
0.0
 10
6.454833984375
 20
-2.486965603298611
 30
0.0
 10
6.454833984375
 20
-2.486965603298611
 30
0.0
 10
6.472886827256944
 20
-2.411960177951389
 30
0.0
 10
6.472886827256944
 20
-2.411960177951389
 30
0.0
 10
6.472886827256944
 20
-2.411960177951389
 30
0.0
 10
6.779852973090278
 20
-2.411960177951389
 30
0.0
 10
6.779852973090278
 20
-2.411960177951389
 30
0.0
 10
6.779852973090278
 20
-2.411960177951389
 30
0.0
 10
6.988199869791666
 20
-3.289794921875
 30
0.0
 10
6.988199869791666
 20
-3.289794921875
 30
0.0
 10
6.996527777777778
 20
-3.328681098090278
 30
0.0
 10
6.9979248046875
 20
-3.355075412326389
 30
0.0
 10
7.036810980902778
 20
-3.371744791666667
 30
0.0
 10
7.056260850694444
 20
-3.380072699652778
 30
0.0
 10
7.071533203125
 20
-3.389797634548611
 30
0.0
 10
7.071533203125
 20
-3.414794921875
 30
0.0
 10
7.071533203125
 20
-3.452297634548611
 30
0.0
 10
7.021525065104166
 20
-3.450914171006944
 30
0.0
 10
6.995144314236111
 20
-3.450914171006944
 30
0.0
 10
6.995144314236111
 20
-3.450914171006944
 30
0.0
 10
6.6492919921875
 20
-3.450914171006944
 30
0.0
 10
6.6492919921875
 20
-3.450914171006944
 30
0.0
 10
6.621500651041666
 20
-3.450914171006944
 30
0.0
 10
6.581231011284721
 20
-3.448133680555555
 30
0.0
 10
6.581231011284721
 20
-3.412027994791667
 30
0.0
 10
6.581231011284721
 20
-3.389797634548611
 30
0.0
 10
6.589558919270833
 20
-3.382853190104167
 30
0.0
 10
6.607611762152778
 20
-3.373128255208333
 30
0.0
 10
6.643731011284721
 20
-3.352294921875
 30
0.0
 10
6.6492919921875
 20
-3.342569986979167
 30
0.0
 10
6.636786566840278
 20
-3.288404676649305
 30
0.0
 10
6.636786566840278
 20
-3.288404676649305
 30
0.0
 10
6.6090087890625
 20
-3.181450737847222
 30
0.0
 10
6.6090087890625
 20
-3.181450737847222
 30
0.0
  0
SPLINE
  5
5E
330
40
100
AcDbEntity
  8
Layer 1
370
     0
100
AcDbSpline
210
0.0
220
0.0
230
1.0
 70
    11
 71
     3
 72
    32
 73
    28
 74
     0
 42
0.0000000001
 43
0.0000000001
 40
0.0
 40
0.0
 40
0.0
 40
0.0
 40
1.0
 40
1.0
 40
1.0
 40
2.0
 40
2.0
 40
2.0
 40
3.0
 40
3.0
 40
3.0
 40
4.0
 40
4.0
 40
4.0
 40
5.0
 40
5.0
 40
5.0
 40
6.0
 40
6.0
 40
6.0
 40
7.0
 40
7.0
 40
7.0
 40
8.0
 40
8.0
 40
8.0
 40
9.0
 40
9.0
 40
9.0
 40
9.0
 10
7.2423095703125
 20
-2.673088921440972
 30
0.0
 10
7.2423095703125
 20
-2.673088921440972
 30
0.0
 10
7.245090060763888
 20
-2.673088921440972
 30
0.0
 10
7.245090060763888
 20
-2.673088921440972
 30
0.0
 10
7.245090060763888
 20
-2.673088921440972
 30
0.0
 10
7.322862413194444
 20
-2.811984592013889
 30
0.0
 10
7.322862413194444
 20
-2.811984592013889
 30
0.0
 10
7.322862413194444
 20
-2.811984592013889
 30
0.0
 10
7.322862413194444
 20
-3.231458875868055
 30
0.0
 10
7.322862413194444
 20
-3.231458875868055
 30
0.0
 10
7.3450927734375
 20
-3.405083550347222
 30
0.0
 10
7.433987087673611
 20
-3.350911458333333
 30
0.0
 10
7.433987087673611
 20
-3.410630967881944
 30
0.0
 10
7.433987087673611
 20
-3.453694661458333
 30
0.0
 10
7.377034505208333
 20
-3.450914171006944
 30
0.0
 10
7.361762152777778
 20
-3.450914171006944
 30
0.0
 10
7.361762152777778
 20
-3.450914171006944
 30
0.0
 10
7.203409830729166
 20
-3.450914171006944
 30
0.0
 10
7.203409830729166
 20
-3.450914171006944
 30
0.0
 10
7.188137478298611
 20
-3.450914171006944
 30
0.0
 10
7.131184895833333
 20
-3.453694661458333
 30
0.0
 10
7.131184895833333
 20
-3.410630967881944
 30
0.0
 10
7.131184895833333
 20
-3.350911458333333
 30
0.0
 10
7.220079210069444
 20
-3.405083550347222
 30
0.0
 10
7.2423095703125
 20
-3.231458875868055
 30
0.0
 10
7.2423095703125
 20
-3.231458875868055
 30
0.0
 10
7.2423095703125
 20
-2.673088921440972
 30
0.0
 10
7.2423095703125
 20
-2.673088921440972
 30
0.0
  0
SPLINE
  5
5F
330
40
100
AcDbEntity
  8
Layer 1
370
     0
100
AcDbSpline
210
0.0
220
0.0
230
1.0
 70
    11
 71
     3
 72
    29
 73
    25
 74
     0
 42
0.0000000001
 43
0.0000000001
 40
0.0
 40
0.0
 40
0.0
 40
0.0
 40
1.0
 40
1.0
 40
1.0
 40
2.0
 40
2.0
 40
2.0
 40
3.0
 40
3.0
 40
3.0
 40
4.0
 40
4.0
 40
4.0
 40
5.0
 40
5.0
 40
5.0
 40
6.0
 40
6.0
 40
6.0
 40
7.0
 40
7.0
 40
7.0
 40
8.0
 40
8.0
 40
8.0
 40
8.0
 10
7.965955946180555
 20
-3.114780002170139
 30
0.0
 10
7.965955946180555
 20
-3.114780002170139
 30
0.0
 10
7.965955946180555
 20
-3.450914171006944
 30
0.0
 10
7.965955946180555
 20
-3.450914171006944
 30
0.0
 10
7.965955946180555
 20
-3.450914171006944
 30
0.0
 10
7.759006076388888
 20
-3.450914171006944
 30
0.0
 10
7.759006076388888
 20
-3.450914171006944
 30
0.0
 10
7.759006076388888
 20
-3.450914171006944
 30
0.0
 10
7.250637478298611
 20
-2.574469672309028
 30
0.0
 10
7.250637478298611
 20
-2.574469672309028
 30
0.0
 10
7.228420681423611
 20
-2.53558349609375
 30
0.0
 10
7.221476236979166
 20
-2.514743381076389
 30
0.0
 10
7.175632052951388
 20
-2.499464246961805
 30
0.0
 10
7.152018229166666
 20
-2.491136338975694
 30
0.0
 10
7.133965386284721
 20
-2.485575358072917
 30
0.0
 10
7.133965386284721
 20
-2.45501708984375
 30
0.0
 10
7.133965386284721
 20
-2.413350423177083
 30
0.0
 10
7.175632052951388
 20
-2.413350423177083
 30
0.0
 10
7.204806857638888
 20
-2.411960177951389
 30
0.0
 10
7.204806857638888
 20
-2.411960177951389
 30
0.0
 10
7.561767578125
 20
-2.411960177951389
 30
0.0
 10
7.561767578125
 20
-2.411960177951389
 30
0.0
 10
7.561767578125
 20
-2.411960177951389
 30
0.0
 10
7.965955946180555
 20
-3.114780002170139
 30
0.0
 10
7.965955946180555
 20
-3.114780002170139
 30
0.0
  0
SPLINE
  5
60
330
40
100
AcDbEntity
  8
Layer 1
370
     0
100
AcDbSpline
210
0.0
220
0.0
230
1.0
 70
    11
 71
     3
 72
    32
 73
    28
 74
     0
 42
0.0000000001
 43
0.0000000001
 40
0.0
 40
0.0
 40
0.0
 40
0.0
 40
1.0
 40
1.0
 40
1.0
 40
2.0
 40
2.0
 40
2.0
 40
3.0
 40
3.0
 40
3.0
 40
4.0
 40
4.0
 40
4.0
 40
5.0
 40
5.0
 40
5.0
 40
6.0
 40
6.0
 40
6.0
 40
7.0
 40
7.0
 40
7.0
 40
8.0
 40
8.0
 40
8.0
 40
9.0
 40
9.0
 40
9.0
 40
9.0
 10
7.885403103298611
 20
-2.663363986545139
 30
0.0
 10
7.885403103298611
 20
-2.464742024739583
 30
0.0
 10
7.771511501736111
 20
-2.517523871527778
 30
0.0
 10
7.771511501736111
 20
-2.453633626302083
 30
0.0
 10
7.771511501736111
 20
-2.414740668402778
 30
0.0
 10
7.817342122395833
 20
-2.411960177951389
 30
0.0
 10
7.831231011284721
 20
-2.411960177951389
 30
0.0
 10
7.831231011284721
 20
-2.411960177951389
 30
0.0
 10
8.020128038194445
 20
-2.411960177951389
 30
0.0
 10
8.020128038194445
 20
-2.411960177951389
 30
0.0
 10
8.034016927083332
 20
-2.411960177951389
 30
0.0
 10
8.07986111111111
 20
-2.414740668402778
 30
0.0
 10
8.07986111111111
 20
-2.453633626302083
 30
0.0
 10
8.07986111111111
 20
-2.517523871527778
 30
0.0
 10
7.965955946180555
 20
-2.464742024739583
 30
0.0
 10
7.965955946180555
 20
-2.663363986545139
 30
0.0
 10
7.965955946180555
 20
-2.663363986545139
 30
0.0
 10
7.965955946180555
 20
-3.000888400607639
 30
0.0
 10
7.965955946180555
 20
-3.000888400607639
 30
0.0
 10
7.965955946180555
 20
-3.000888400607639
 30
0.0
 10
7.963189019097221
 20
-3.000888400607639
 30
0.0
 10
7.963189019097221
 20
-3.000888400607639
 30
0.0
 10
7.963189019097221
 20
-3.000888400607639
 30
0.0
 10
7.885403103298611
 20
-2.860602484809028
 30
0.0
 10
7.885403103298611
 20
-2.860602484809028
 30
0.0
 10
7.885403103298611
 20
-2.860602484809028
 30
0.0
 10
7.885403103298611
 20
-2.663363986545139
 30
0.0
 10
7.885403103298611
 20
-2.663363986545139
 30
0.0
  0
ENDBLK
  5
43
330
40
100
AcDbEntity
  8
0
100
AcDbBlockEnd
  0
ENDSEC
  0
SECTION
  2
ENTITIES
  0
INSERT
  5
3D
330
1F
100
AcDbEntity
  8
Layer 1
100
AcDbBlockReference
  2
block 2
 10
0.0
 20
0.0
 30
0.0
  0
ENDSEC
  0
SECTION
  2
OBJECTS
  0
DICTIONARY
  5
C
330
0
100
AcDbDictionary
281
     1
  3
ACAD_GROUP
350
D
  3
ACAD_LAYOUT
350
1A
  3
ACAD_MLINESTYLE
350
17
  3
ACAD_PLOTSETTINGS
350
19
  3
ACAD_PLOTSTYLENAME
350
E
  3
ACAD_TABLESTYLE
350
68
  3
ACAD_VISUALSTYLE
350
2A
  0
DICTIONARY
  5
D
102
{ACAD_REACTORS
330
C
102
}
330
C
100
AcDbDictionary
281
     1
  0
DICTIONARY
  5
1A
102
{ACAD_REACTORS
330
C
102
}
330
C
100
AcDbDictionary
281
     1
  3
Layout1
350
1E
  3
Layout2
350
26
  3
Model
350
22
  0
DICTIONARY
  5
17
102
{ACAD_REACTORS
330
C
102
}
330
C
100
AcDbDictionary
281
     1
  3
Standard
350
18
  0
DICTIONARY
  5
19
102
{ACAD_REACTORS
330
C
102
}
330
C
100
AcDbDictionary
281
     1
  0
ACDBDICTIONARYWDFLT
  5
E
102
{ACAD_REACTORS
330
C
102
}
330
C
100
AcDbDictionary
281
     1
  3
Normal
350
F
100
AcDbDictionaryWithDefault
340
F
  0
DICTIONARY
  5
68
102
{ACAD_REACTORS
330
C
102
}
330
C
100
AcDbDictionary
281
     1
  0
DICTIONARY
  5
2A
102
{ACAD_REACTORS
330
C
102
}
330
C
100
AcDbDictionary
281
     1
  3
2dWireframe
350
2F
  3
3D Hidden
350
31
  3
3dWireframe
350
30
  3
Basic
350
32
  3
Brighten
350
36
  3
ColorChange
350
3A
  3
Conceptual
350
34
  3
Dim
350
35
  3
Facepattern
350
39
  3
Flat
350
2B
  3
FlatWithEdges
350
2C
  3
Gouraud
350
2D
  3
GouraudWithEdges
350
2E
  3
Linepattern
350
38
  3
Realistic
350
33
  3
Thicken
350
37
  0
LAYOUT
  5
1E
102
{ACAD_REACTORS
330
1A
102
}
330
1A
100
AcDbPlotSettings
  1

  2
none_device
  4

  6

 40
0.0
 41
0.0
 42
0.0
 43
0.0
 44
0.0
 45
0.0
 46
0.0
 47
0.0
 48
0.0
 49
0.0
140
0.0
141
0.0
142
1.0
143
1.0
 70
   688
 72
     0
 73
     0
 74
     5
  7

 75
    16
 76
     0
 77
     2
 78
   300
147
1.0
148
0.0
149
0.0
100
AcDbLayout
  1
Layout1
 70
     1
 71
     1
 10
0.0
 20
0.0
 11
12.0
 21
9.0
 12
0.0
 22
0.0
 32
0.0
 14
1.000000000000000E+20
 24
1.000000000000000E+20
 34
1.000000000000000E+20
 15
-1.000000000000000E+20
 25
-1.000000000000000E+20
 35
-1.000000000000000E+20
146
0.0
 13
0.0
 23
0.0
 33
0.0
 16
1.0
 26
0.0
 36
0.0
 17
0.0
 27
1.0
 37
0.0
 76
     0
330
1B
  0
LAYOUT
  5
26
102
{ACAD_REACTORS
330
1A
102
}
330
1A
100
AcDbPlotSettings
  1

  2
none_device
  4

  6

 40
0.0
 41
0.0
 42
0.0
 43
0.0
 44
0.0
 45
0.0
 46
0.0
 47
0.0
 48
0.0
 49
0.0
140
0.0
141
0.0
142
1.0
143
1.0
 70
   688
 72
     0
 73
     0
 74
     5
  7

 75
    16
 76
     0
 77
     2
 78
   300
147
1.0
148
0.0
149
0.0
100
AcDbLayout
  1
Layout2
 70
     1
 71
     2
 10
0.0
 20
0.0
 11
0.0
 21
0.0
 12
0.0
 22
0.0
 32
0.0
 14
0.0
 24
0.0
 34
0.0
 15
0.0
 25
0.0
 35
0.0
146
0.0
 13
0.0
 23
0.0
 33
0.0
 16
1.0
 26
0.0
 36
0.0
 17
0.0
 27
1.0
 37
0.0
 76
     0
330
23
  0
LAYOUT
  5
22
102
{ACAD_REACTORS
330
1A
102
}
330
1A
100
AcDbPlotSettings
  1

  2
none_device
  4

  6

 40
0.0
 41
0.0
 42
0.0
 43
0.0
 44
0.0
 45
0.0
 46
0.0
 47
0.0
 48
0.0
 49
0.0
140
0.0
141
0.0
142
1.0
143
1.0
 70
  1712
 72
     0
 73
     0
 74
     0
  7

 75
     0
 76
     0
 77
     2
 78
   300
147
1.0
148
0.0
149
0.0
100
AcDbLayout
  1
Model
 70
     1
 71
     0
 10
0.0
 20
0.0
 11
12.0
 21
9.0
 12
0.0
 22
0.0
 32
0.0
 14
1.000000000000000E+20
 24
1.000000000000000E+20
 34
1.000000000000000E+20
 15
-1.000000000000000E+20
 25
-1.000000000000000E+20
 35
-1.000000000000000E+20
146
0.0
 13
0.0
 23
0.0
 33
0.0
 16
1.0
 26
0.0
 36
0.0
 17
0.0
 27
1.0
 37
0.0
 76
     0
330
1F
331
29
  0
MLINESTYLE
  5
18
102
{ACAD_REACTORS
330
17
102
}
330
17
100
AcDbMlineStyle
  2
Standard
 70
     0
  3

 62
   256
 51
90.0
 52
90.0
 71
     2
 49
0.5
 62
   256
  6
BYLAYER
 49
-0.5
 62
   256
  6
BYLAYER
  0
ACDBPLACEHOLDER
  5
F
102
{ACAD_REACTORS
330
E
102
}
330
E
  0
VISUALSTYLE
  5
2F
102
{ACAD_REACTORS
330
2A
102
}
330
2A
100
AcDbVisualStyle
  2
2dWireframe
 70
     4
 71
     0
 72
     2
 73
     0
 90
        0
 40
-0.6
 41
-30.0
 62
     5
 63
     7
421
 16777215
 74
     1
 91
        4
 64
     7
 65
   257
 75
     1
175
     1
 42
1.0
 92
        0
 66
   257
 43
1.0
 76
     1
 77
     6
 78
     2
 67
     7
 79
     5
170
     0
171
     0
290
     0
174
     0
 93
        1
 44
0.0
173
     0
291
     0
 45
0.0
1001
ACAD
1000
AcDbSavedByObjectVersion
1070
     0
  0
VISUALSTYLE
  5
31
102
{ACAD_REACTORS
330
2A
102
}
330
2A
100
AcDbVisualStyle
  2
3D Hidden
 70
     6
 71
     1
 72
     2
 73
     2
 90
        0
 40
-0.6
 41
-30.0
 62
     5
 63
     7
421
 16777215
 74
     2
 91
        2
 64
     7
 65
   257
 75
     2
175
     1
 42
40.0
 92
        0
 66
   257
 43
1.0
 76
     1
 77
     6
 78
     2
 67
     7
 79
     3
170
     0
171
     0
290
     0
174
     0
 93
        1
 44
0.0
173
     0
291
     0
 45
0.0
1001
ACAD
1000
AcDbSavedByObjectVersion
1070
     0
  0
VISUALSTYLE
  5
30
102
{ACAD_REACTORS
330
2A
102
}
330
2A
100
AcDbVisualStyle
  2
3dWireframe
 70
     5
 71
     0
 72
     2
 73
     0
 90
        0
 40
-0.6
 41
-30.0
 62
     5
 63
     7
421
 16777215
 74
     1
 91
        4
 64
     7
 65
   257
 75
     1
175
     1
 42
1.0
 92
        0
 66
   257
 43
1.0
 76
     1
 77
     6
 78
     2
 67
     7
 79
     5
170
     0
171
     0
290
     0
174
     0
 93
        1
 44
0.0
173
     0
291
     0
 45
0.0
1001
ACAD
1000
AcDbSavedByObjectVersion
1070
     0
  0
VISUALSTYLE
  5
32
102
{ACAD_REACTORS
330
2A
102
}
330
2A
100
AcDbVisualStyle
  2
Basic
 70
     7
 71
     1
 72
     0
 73
     1
 90
        0
 40
-0.6
 41
-30.0
 62
     5
 63
     7
421
 16777215
 74
     0
 91
        4
 64
     7
 65
   257
 75
     1
175
     1
 42
1.0
 92
        8
 66
     7
 43
1.0
 76
     1
 77
     6
 78
     2
 67
     7
 79
     5
170
     0
171
     0
290
     0
174
     0
 93
        1
 44
0.0
173
     0
291
     1
 45
0.0
1001
ACAD
1000
AcDbSavedByObjectVersion
1070
     0
  0
VISUALSTYLE
  5
36
102
{ACAD_REACTORS
330
2A
102
}
330
2A
100
AcDbVisualStyle
  2
Brighten
 70
    12
 71
     2
 72
     2
 73
     0
 90
        0
 40
-0.6
 41
-30.0
 62
     5
 63
     7
421
 16777215
 74
     1
 91
        4
 64
     7
 65
   257
 75
     1
175
     1
 42
1.0
 92
        8
 66
     7
 43
1.0
 76
     1
 77
     6
 78
     2
 67
     7
 79
     5
170
     0
171
     0
290
     0
174
     0
 93
        1
 44
50.0
173
     0
291
     1
 45
0.0
1001
ACAD
1000
AcDbSavedByObjectVersion
1070
     0
  0
VISUALSTYLE
  5
3A
102
{ACAD_REACTORS
330
2A
102
}
330
2A
100
AcDbVisualStyle
  2
ColorChange
 70
    16
 71
     2
 72
     2
 73
     3
 90
        0
 40
-0.6
 41
-30.0
 62
     5
 63
     8
421
  8421504
 74
     1
 91
        4
 64
     7
 65
   257
 75
     1
175
     1
 42
1.0
 92
        8
 66
     8
424
  8421504
 43
1.0
 76
     1
 77
     6
 78
     2
 67
     7
 79
     5
170
     0
171
     0
290
     0
174
     0
 93
        1
 44
0.0
173
     0
291
     1
 45
0.0
1001
ACAD
1000
AcDbSavedByObjectVersion
1070
     0
  0
VISUALSTYLE
  5
34
102
{ACAD_REACTORS
330
2A
102
}
330
2A
100
AcDbVisualStyle
  2
Conceptual
 70
     9
 71
     3
 72
     2
 73
     0
 90
        0
 40
-0.6
 41
-30.0
 62
     5
 63
     7
421
 16777215
 74
     2
 91
        2
 64
     7
 65
   257
 75
     1
175
     1
 42
40.0
 92
        8
 66
     7
 43
1.0
 76
     1
 77
     6
 78
     2
 67
     7
 79
     3
170
     0
171
     0
290
     0
174
     0
 93
        1
 44
0.0
173
     0
291
     0
 45
0.0
1001
ACAD
1000
AcDbSavedByObjectVersion
1070
     0
  0
VISUALSTYLE
  5
35
102
{ACAD_REACTORS
330
2A
102
}
330
2A
100
AcDbVisualStyle
  2
Dim
 70
    11
 71
     2
 72
     2
 73
     0
 90
        0
 40
-0.6
 41
-30.0
 62
     5
 63
     7
421
 16777215
 74
     1
 91
        4
 64
     7
 65
   257
 75
     1
175
     1
 42
1.0
 92
        8
 66
     7
 43
1.0
 76
     1
 77
     6
 78
     2
 67
     7
 79
     5
170
     0
171
     0
290
     0
174
     0
 93
        1
 44
-50.0
173
     0
291
     1
 45
0.0
1001
ACAD
1000
AcDbSavedByObjectVersion
1070
     0
  0
VISUALSTYLE
  5
39
102
{ACAD_REACTORS
330
2A
102
}
330
2A
100
AcDbVisualStyle
  2
Facepattern
 70
    15
 71
     2
 72
     2
 73
     0
 90
        0
 40
-0.6
 41
-30.0
 62
     5
 63
     7
421
 16777215
 74
     1
 91
        4
 64
     7
 65
   257
 75
     1
175
     1
 42
1.0
 92
        8
 66
     7
 43
1.0
 76
     1
 77
     6
 78
     2
 67
     7
 79
     5
170
     0
171
     0
290
     0
174
     0
 93
        1
 44
0.0
173
     0
291
     1
 45
0.0
1001
ACAD
1000
AcDbSavedByObjectVersion
1070
     0
  0
VISUALSTYLE
  5
2B
102
{ACAD_REACTORS
330
2A
102
}
330
2A
100
AcDbVisualStyle
  2
Flat
 70
     0
 71
     2
 72
     1
 73
     1
 90
        2
 40
-0.6
 41
30.0
 62
     5
 63
     7
421
 16777215
 74
     0
 91
        4
 64
     7
 65
   257
 75
     1
175
     1
 42
1.0
 92
        8
 66
     7
 43
1.0
 76
     1
 77
     6
 78
     2
 67
     7
 79
     5
170
     0
171
     0
290
     0
174
     0
 93
       13
 44
0.0
173
     0
291
     1
 45
0.0
1001
ACAD
1000
AcDbSavedByObjectVersion
1070
     0
  0
VISUALSTYLE
  5
2C
102
{ACAD_REACTORS
330
2A
102
}
330
2A
100
AcDbVisualStyle
  2
FlatWithEdges
 70
     1
 71
     2
 72
     1
 73
     1
 90
        2
 40
-0.6
 41
30.0
 62
     5
 63
     7
421
 16777215
 74
     1
 91
        4
 64
     7
 65
   257
 75
     1
175
     1
 42
1.0
 92
        0
 66
   257
 43
1.0
 76
     1
 77
     6
 78
     2
 67
     7
 79
     5
170
     0
171
     0
290
     0
174
     0
 93
       13
 44
0.0
173
     0
291
     1
 45
0.0
1001
ACAD
1000
AcDbSavedByObjectVersion
1070
     0
  0
VISUALSTYLE
  5
2D
102
{ACAD_REACTORS
330
2A
102
}
330
2A
100
AcDbVisualStyle
  2
Gouraud
 70
     2
 71
     2
 72
     2
 73
     1
 90
        2
 40
-0.6
 41
30.0
 62
     5
 63
     7
421
 16777215
 74
     0
 91
        4
 64
     7
 65
   257
 75
     1
175
     1
 42
1.0
 92
        0
 66
     7
 43
1.0
 76
     1
 77
     6
 78
     2
 67
     7
 79
     5
170
     0
171
     0
290
     0
174
     0
 93
       13
 44
0.0
173
     0
291
     1
 45
0.0
1001
ACAD
1000
AcDbSavedByObjectVersion
1070
     0
  0
VISUALSTYLE
  5
2E
102
{ACAD_REACTORS
330
2A
102
}
330
2A
100
AcDbVisualStyle
  2
GouraudWithEdges
 70
     3
 71
     2
 72
     2
 73
     1
 90
        2
 40
-0.6
 41
30.0
 62
     5
 63
     7
421
 16777215
 74
     1
 91
        4
 64
     7
 65
   257
 75
     1
175
     1
 42
1.0
 92
        0
 66
   257
 43
1.0
 76
     1
 77
     6
 78
     2
 67
     7
 79
     5
170
     0
171
     0
290
     0
174
     0
 93
       13
 44
0.0
173
     0
291
     1
 45
0.0
1001
ACAD
1000
AcDbSavedByObjectVersion
1070
     0
  0
VISUALSTYLE
  5
38
102
{ACAD_REACTORS
330
2A
102
}
330
2A
100
AcDbVisualStyle
  2
Linepattern
 70
    14
 71
     2
 72
     2
 73
     0
 90
        0
 40
-0.6
 41
-30.0
 62
     5
 63
     7
421
 16777215
 74
     1
 91
        4
 64
     7
 65
   257
 75
     7
175
     7
 42
1.0
 92
        8
 66
     7
 43
1.0
 76
     1
 77
     6
 78
     2
 67
     7
 79
     5
170
     0
171
     0
290
     0
174
     0
 93
        1
 44
0.0
173
     0
291
     1
 45
0.0
1001
ACAD
1000
AcDbSavedByObjectVersion
1070
     0
  0
VISUALSTYLE
  5
33
102
{ACAD_REACTORS
330
2A
102
}
330
2A
100
AcDbVisualStyle
  2
Realistic
 70
     8
 71
     2
 72
     2
 73
     0
 90
        0
 40
-0.6
 41
-30.0
 62
     5
 63
     7
421
 16777215
 74
     1
 91
        0
 64
     7
 65
   257
 75
     1
175
     1
 42
1.0
 92
        8
 66
     8
424
  7895160
 43
1.0
 76
     1
 77
     6
 78
     2
 67
     7
 79
     5
170
     0
171
     0
290
     0
174
     0
 93
       13
 44
0.0
173
     0
291
     0
 45
0.0
1001
ACAD
1000
AcDbSavedByObjectVersion
1070
     0
  0
VISUALSTYLE
  5
37
102
{ACAD_REACTORS
330
2A
102
}
330
2A
100
AcDbVisualStyle
  2
Thicken
 70
    13
 71
     2
 72
     2
 73
     0
 90
        0
 40
-0.6
 41
-30.0
 62
     5
 63
     7
421
 16777215
 74
     1
 91
        4
 64
     7
 65
   257
 75
     1
175
     1
 42
1.0
 92
       12
 66
     7
 43
1.0
 76
     1
 77
     6
 78
     2
 67
     7
 79
     5
170
     0
171
     0
290
     0
174
     0
 93
        1
 44
0.0
173
     0
291
     1
 45
0.0
1001
ACAD
1000
AcDbSavedByObjectVersion
1070
     0
  0
ENDSEC
  0
EOF
