  0
SECTION
  2
HEADER
  9
$ACADVER
  1
AC1014
  9
$HANDSEED
  5
FFFF
  9
$MEASUREMENT
 70
     1
  0
ENDSEC
  0
SECTION
  2
TABLES
  0
TABLE
  2
VPORT
  5
8
330
0
100
AcDbSymbolTable
 70
     4
  0
VPORT
  5
2E
330
8
100
AcDbSymbolTableRecord
100
AcDbViewportTableRecord
  2
*ACTIVE
 70
     0
 10
0.0
 20
0.0
 11
1.0
 21
1.0
 12
210.0
 22
148.5
 13
0.0
 23
0.0
 14
10.0
 24
10.0
 15
10.0
 25
10.0
 16
0.0
 26
0.0
 36
1.0
 17
0.0
 27
0.0
 37
0.0
 40
341.0
 41
1.24
 42
50.0
 43
0.0
 44
0.0
 50
0.0
 51
0.0
 71
     0
 72
   100
 73
     1
 74
     3
 75
     0
 76
     0
 77
     0
 78
     0
  0
ENDTAB
  0
TABLE
  2
LTYPE
  5
5
330
0
100
AcDbSymbolTable
 70
     1
  0
LTYPE
  5
14
330
5
100
AcDbSymbolTableRecord
100
AcDbLinetypeTableRecord
  2
BYBLOCK
 70
     0
  3

 72
    65
 73
     0
 40
0.0
  0
LTYPE
  5
15
330
5
100
AcDbSymbolTableRecord
100
AcDbLinetypeTableRecord
  2
BYLAYER
 70
     0
  3

 72
    65
 73
     0
 40
0.0
  0
LTYPE
  5
16
330
5
100
AcDbSymbolTableRecord
100
AcDbLinetypeTableRecord
  2
CONTINUOUS
 70
     0
  3
Solid line
 72
    65
 73
     0
 40
0.0
  0
ENDTAB
  0
TABLE
  2
LAYER
  5
2
100
AcDbSymbolTable
 70
2
  0
LAYER
  5
50
100
AcDbSymbolTableRecord
100
AcDbLayerTableRecord
  2
0
 70
0
  6
CONTINUOUS
  0
LAYER
  5
51
100
AcDbSymbolTableRecord
100
AcDbLayerTableRecord
  2
Layer_1
 70
0
  6
CONTINUOUS
  0
ENDTAB
  0
TABLE
  2
STYLE
  5
3
330
0
100
AcDbSymbolTable
 70
     1
  0
STYLE
  5
11
330
3
100
AcDbSymbolTableRecord
100
AcDbTextStyleTableRecord
  2
STANDARD
 70
     0
 40
0.0
 41
1.0
 50
0.0
 71
     0
 42
2.5
  3
txt
  4

  0
ENDTAB
  0
TABLE
  2
VIEW
  5
6
330
0
100
AcDbSymbolTable
 70
     0
  0
ENDTAB
  0
TABLE
  2
UCS
  5
7
330
0
100
AcDbSymbolTable
 70
     0
  0
ENDTAB
  0
TABLE
  2
APPID
  5
9
330
0
100
AcDbSymbolTable
 70
     2
  0
APPID
  5
12
330
9
100
AcDbSymbolTableRecord
100
AcDbRegAppTableRecord
  2
ACAD
 70
     0
  0
ENDTAB
  0
TABLE
  2
DIMSTYLE
  5
A
330
0
100
AcDbSymbolTable
 70
     1
  0
DIMSTYLE
105
27
330
A
100
AcDbSymbolTableRecord
100
AcDbDimStyleTableRecord
  2
ISO-25
 70
     0
  3

  4

  5

  6

  7

 40
1.0
 41
2.5
 42
0.625
 43
3.75
 44
1.25
 45
0.0
 46
0.0
 47
0.0
 48
0.0
140
2.5
141
2.5
142
0.0
143
0.03937007874016
144
1.0
145
0.0
146
1.0
147
0.625
 71
     0
 72
     0
 73
     0
 74
     0
 75
     0
 76
     0
 77
     1
 78
     8
170
     0
171
     3
172
     1
173
     0
174
     0
175
     0
176
     0
177
     0
178
     0
270
     2
271
     2
272
     2
273
     2
274
     3
340
11
275
     0
280
     0
281
     0
282
     0
283
     0
284
     8
285
     0
286
     0
287
     3
288
     0
  0
ENDTAB
  0
TABLE
  2
BLOCK_RECORD
  5
1
330
0
100
AcDbSymbolTable
 70
     1
  0
BLOCK_RECORD
  5
1F
330
1
100
AcDbSymbolTableRecord
100
AcDbBlockTableRecord
  2
*MODEL_SPACE
  0
BLOCK_RECORD
  5
1B
330
1
100
AcDbSymbolTableRecord
100
AcDbBlockTableRecord
  2
*PAPER_SPACE
  0
ENDTAB
  0
ENDSEC
  0
SECTION
  2
BLOCKS
  0
BLOCK
  5
20
330
1F
100
AcDbEntity
  8
0
100
AcDbBlockBegin
  2
*MODEL_SPACE
 70
     0
 10
0.0
 20
0.0
 30
0.0
  3
*MODEL_SPACE
  1

  0
ENDBLK
  5
21
330
1F
100
AcDbEntity
  8
0
100
AcDbBlockEnd
  0
BLOCK
  5
1C
330
1B
100
AcDbEntity
 67
     1
  8
0
100
AcDbBlockBegin
  2
*PAPER_SPACE
  1

  0
ENDBLK
  5
1D
330
1B
100
AcDbEntity
 67
     1
  8
0
100
AcDbBlockEnd
  0
ENDSEC
  0
SECTION
  2
ENTITIES
  0
LINE
  5
100
100
AcDbEntity
  8
Layer_1
 62
1
100
AcDbLine
 10
17.694772
 20
1.832490
 30
0.0
 11
17.691172
 21
26.554500
 31
0.0
  0
LINE
  5
101
100
AcDbEntity
  8
Layer_1
 62
1
100
AcDbLine
 10
17.691172
 20
26.554500
 30
0.0
 11
14.687222
 21
26.557500
 31
0.0
  0
LINE
  5
102
100
AcDbEntity
  8
Layer_1
 62
1
100
AcDbLine
 10
14.687222
 20
26.557500
 30
0.0
 11
14.687222
 21
36.557420
 31
0.0
  0
LINE
  5
103
100
AcDbEntity
  8
Layer_1
 62
1
100
AcDbLine
 10
14.687222
 20
36.557420
 30
0.0
 11
17.687555
 21
36.557420
 31
0.0
  0
LINE
  5
104
100
AcDbEntity
  8
Layer_1
 62
1
100
AcDbLine
 10
17.687555
 20
36.557420
 30
0.0
 11
17.687555
 21
39.957720
 31
0.0
  0
LINE
  5
105
100
AcDbEntity
  8
Layer_1
 62
1
100
AcDbLine
 10
17.687555
 20
39.957720
 30
0.0
 11
20.687372
 21
39.957720
 31
0.0
  0
LINE
  5
106
100
AcDbEntity
  8
Layer_1
 62
1
100
AcDbLine
 10
20.687372
 20
39.957720
 30
0.0
 11
20.687372
 21
38.357810
 31
0.0
  0
LINE
  5
107
100
AcDbEntity
  8
Layer_1
 62
1
100
AcDbLine
 10
20.687372
 20
38.357810
 30
0.0
 11
23.687188
 21
38.357810
 31
0.0
  0
LINE
  5
108
100
AcDbEntity
  8
Layer_1
 62
1
100
AcDbLine
 10
23.687188
 20
38.357810
 30
0.0
 11
23.687188
 21
39.957720
 31
0.0
  0
LINE
  5
109
100
AcDbEntity
  8
Layer_1
 62
1
100
AcDbLine
 10
23.687188
 20
39.957720
 30
0.0
 11
25.687068
 21
39.957720
 31
0.0
  0
LINE
  5
10a
100
AcDbEntity
  8
Layer_1
 62
1
100
AcDbLine
 10
25.687068
 20
39.957720
 30
0.0
 11
25.687068
 21
43.158040
 31
0.0
  0
LINE
  5
10b
100
AcDbEntity
  8
Layer_1
 62
1
100
AcDbLine
 10
25.687068
 20
43.158040
 30
0.0
 11
23.687188
 21
43.158040
 31
0.0
  0
LINE
  5
10c
100
AcDbEntity
  8
Layer_1
 62
1
100
AcDbLine
 10
23.687188
 20
43.158040
 30
0.0
 11
23.687188
 21
44.757420
 31
0.0
  0
LINE
  5
10d
100
AcDbEntity
  8
Layer_1
 62
1
100
AcDbLine
 10
23.687188
 20
44.757420
 30
0.0
 11
20.687367
 21
44.757420
 31
0.0
  0
LINE
  5
10e
100
AcDbEntity
  8
Layer_1
 62
1
100
AcDbLine
 10
20.687367
 20
44.757420
 30
0.0
 11
20.687367
 21
43.158040
 31
0.0
  0
LINE
  5
10f
100
AcDbEntity
  8
Layer_1
 62
1
100
AcDbLine
 10
20.687367
 20
43.158040
 30
0.0
 11
17.687550
 21
43.158040
 31
0.0
  0
LINE
  5
110
100
AcDbEntity
  8
Layer_1
 62
1
100
AcDbLine
 10
17.687550
 20
43.158040
 30
0.0
 11
17.687550
 21
46.557830
 31
0.0
  0
LINE
  5
111
100
AcDbEntity
  8
Layer_1
 62
1
100
AcDbLine
 10
17.687550
 20
46.557830
 30
0.0
 11
14.687217
 21
46.557830
 31
0.0
  0
LINE
  5
112
100
AcDbEntity
  8
Layer_1
 62
1
100
AcDbLine
 10
14.687217
 20
46.557830
 30
0.0
 11
14.687217
 21
56.557730
 31
0.0
  0
LINE
  5
113
100
AcDbEntity
  8
Layer_1
 62
1
100
AcDbLine
 10
14.687217
 20
56.557730
 30
0.0
 11
17.691167
 21
56.512730
 31
0.0
  0
LINE
  5
114
100
AcDbEntity
  8
Layer_1
 62
1
100
AcDbLine
 10
17.691167
 20
56.512730
 30
0.0
 11
17.719587
 21
134.405130
 31
0.0
  0
LINE
  5
115
100
AcDbEntity
  8
Layer_1
 62
1
100
AcDbLine
 10
17.719587
 20
134.405130
 30
0.0
 11
14.746644
 21
134.417530
 31
0.0
  0
LINE
  5
116
100
AcDbEntity
  8
Layer_1
 62
1
100
AcDbLine
 10
14.746644
 20
134.417530
 30
0.0
 11
14.746644
 21
144.417430
 31
0.0
  0
LINE
  5
117
100
AcDbEntity
  8
Layer_1
 62
1
100
AcDbLine
 10
14.746644
 20
144.417430
 30
0.0
 11
17.746976
 21
144.417430
 31
0.0
  0
LINE
  5
118
100
AcDbEntity
  8
Layer_1
 62
1
100
AcDbLine
 10
17.746976
 20
144.417430
 30
0.0
 11
17.746976
 21
147.817750
 31
0.0
  0
LINE
  5
119
100
AcDbEntity
  8
Layer_1
 62
1
100
AcDbLine
 10
17.746976
 20
147.817750
 30
0.0
 11
20.746793
 21
147.817750
 31
0.0
  0
LINE
  5
11a
100
AcDbEntity
  8
Layer_1
 62
1
100
AcDbLine
 10
20.746793
 20
147.817750
 30
0.0
 11
20.746793
 21
146.217310
 31
0.0
  0
LINE
  5
11b
100
AcDbEntity
  8
Layer_1
 62
1
100
AcDbLine
 10
20.746793
 20
146.217310
 30
0.0
 11
23.746609
 21
146.217310
 31
0.0
  0
LINE
  5
11c
100
AcDbEntity
  8
Layer_1
 62
1
100
AcDbLine
 10
23.746609
 20
146.217310
 30
0.0
 11
23.746609
 21
147.817750
 31
0.0
  0
LINE
  5
11d
100
AcDbEntity
  8
Layer_1
 62
1
100
AcDbLine
 10
23.746609
 20
147.817750
 30
0.0
 11
25.747005
 21
147.817750
 31
0.0
  0
LINE
  5
11e
100
AcDbEntity
  8
Layer_1
 62
1
100
AcDbLine
 10
25.747005
 20
147.817750
 30
0.0
 11
25.747005
 21
151.017540
 31
0.0
  0
LINE
  5
11f
100
AcDbEntity
  8
Layer_1
 62
1
100
AcDbLine
 10
25.747005
 20
151.017540
 30
0.0
 11
23.746609
 21
151.017540
 31
0.0
  0
LINE
  5
120
100
AcDbEntity
  8
Layer_1
 62
1
100
AcDbLine
 10
23.746609
 20
151.017540
 30
0.0
 11
23.746609
 21
152.617450
 31
0.0
  0
LINE
  5
121
100
AcDbEntity
  8
Layer_1
 62
1
100
AcDbLine
 10
23.746609
 20
152.617450
 30
0.0
 11
20.746775
 21
152.617450
 31
0.0
  0
LINE
  5
122
100
AcDbEntity
  8
Layer_1
 62
1
100
AcDbLine
 10
20.746775
 20
152.617450
 30
0.0
 11
20.746775
 21
151.017540
 31
0.0
  0
LINE
  5
123
100
AcDbEntity
  8
Layer_1
 62
1
100
AcDbLine
 10
20.746775
 20
151.017540
 30
0.0
 11
17.746958
 21
151.017540
 31
0.0
  0
LINE
  5
124
100
AcDbEntity
  8
Layer_1
 62
1
100
AcDbLine
 10
17.746958
 20
151.017540
 30
0.0
 11
17.746958
 21
154.417330
 31
0.0
  0
LINE
  5
125
100
AcDbEntity
  8
Layer_1
 62
1
100
AcDbLine
 10
17.746958
 20
154.417330
 30
0.0
 11
14.746631
 21
154.417330
 31
0.0
  0
LINE
  5
126
100
AcDbEntity
  8
Layer_1
 62
1
100
AcDbLine
 10
14.746631
 20
154.417330
 30
0.0
 11
14.746631
 21
164.417760
 31
0.0
  0
LINE
  5
127
100
AcDbEntity
  8
Layer_1
 62
1
100
AcDbLine
 10
14.746631
 20
164.417760
 30
0.0
 11
17.719574
 21
164.481260
 31
0.0
  0
LINE
  5
128
100
AcDbEntity
  8
Layer_1
 62
1
100
AcDbLine
 10
17.719574
 20
164.481260
 30
0.0
 11
17.696314
 21
242.313740
 31
0.0
  0
LINE
  5
129
100
AcDbEntity
  8
Layer_1
 62
1
100
AcDbLine
 10
17.696314
 20
242.313740
 30
0.0
 11
14.687197
 21
242.277040
 31
0.0
  0
LINE
  5
12a
100
AcDbEntity
  8
Layer_1
 62
1
100
AcDbLine
 10
14.687197
 20
242.277040
 30
0.0
 11
14.687197
 21
252.276600
 31
0.0
  0
LINE
  5
12b
100
AcDbEntity
  8
Layer_1
 62
1
100
AcDbLine
 10
14.687197
 20
252.276600
 30
0.0
 11
17.687014
 21
252.276600
 31
0.0
  0
LINE
  5
12c
100
AcDbEntity
  8
Layer_1
 62
1
100
AcDbLine
 10
17.687014
 20
252.276600
 30
0.0
 11
17.687014
 21
255.676920
 31
0.0
  0
LINE
  5
12d
100
AcDbEntity
  8
Layer_1
 62
1
100
AcDbLine
 10
17.687014
 20
255.676920
 30
0.0
 11
20.687346
 21
255.676920
 31
0.0
  0
LINE
  5
12e
100
AcDbEntity
  8
Layer_1
 62
1
100
AcDbLine
 10
20.687346
 20
255.676920
 30
0.0
 11
20.687346
 21
254.076480
 31
0.0
  0
LINE
  5
12f
100
AcDbEntity
  8
Layer_1
 62
1
100
AcDbLine
 10
20.687346
 20
254.076480
 30
0.0
 11
23.687163
 21
254.076480
 31
0.0
  0
LINE
  5
130
100
AcDbEntity
  8
Layer_1
 62
1
100
AcDbLine
 10
23.687163
 20
254.076480
 30
0.0
 11
23.687163
 21
255.676920
 31
0.0
  0
LINE
  5
131
100
AcDbEntity
  8
Layer_1
 62
1
100
AcDbLine
 10
23.687163
 20
255.676920
 30
0.0
 11
25.687043
 21
255.676920
 31
0.0
  0
LINE
  5
132
100
AcDbEntity
  8
Layer_1
 62
1
100
AcDbLine
 10
25.687043
 20
255.676920
 30
0.0
 11
25.687043
 21
258.876710
 31
0.0
  0
LINE
  5
133
100
AcDbEntity
  8
Layer_1
 62
1
100
AcDbLine
 10
25.687043
 20
258.876710
 30
0.0
 11
23.687163
 21
258.876710
 31
0.0
  0
LINE
  5
134
100
AcDbEntity
  8
Layer_1
 62
1
100
AcDbLine
 10
23.687163
 20
258.876710
 30
0.0
 11
23.687163
 21
260.476090
 31
0.0
  0
LINE
  5
135
100
AcDbEntity
  8
Layer_1
 62
1
100
AcDbLine
 10
23.687163
 20
260.476090
 30
0.0
 11
20.687346
 21
260.476090
 31
0.0
  0
LINE
  5
136
100
AcDbEntity
  8
Layer_1
 62
1
100
AcDbLine
 10
20.687346
 20
260.476090
 30
0.0
 11
20.687346
 21
258.876710
 31
0.0
  0
LINE
  5
137
100
AcDbEntity
  8
Layer_1
 62
1
100
AcDbLine
 10
20.687346
 20
258.876710
 30
0.0
 11
17.687014
 21
258.876710
 31
0.0
  0
LINE
  5
138
100
AcDbEntity
  8
Layer_1
 62
1
100
AcDbLine
 10
17.687014
 20
258.876710
 30
0.0
 11
17.687014
 21
262.276500
 31
0.0
  0
LINE
  5
139
100
AcDbEntity
  8
Layer_1
 62
1
100
AcDbLine
 10
17.687014
 20
262.276500
 30
0.0
 11
14.687197
 21
262.276500
 31
0.0
  0
LINE
  5
13a
100
AcDbEntity
  8
Layer_1
 62
1
100
AcDbLine
 10
14.687197
 20
262.276500
 30
0.0
 11
14.687197
 21
272.276430
 31
0.0
  0
LINE
  5
13b
100
AcDbEntity
  8
Layer_1
 62
1
100
AcDbLine
 10
14.687197
 20
272.276430
 30
0.0
 11
17.693216
 21
272.152920
 31
0.0
  0
LINE
  5
13c
100
AcDbEntity
  8
Layer_1
 62
1
100
AcDbLine
 10
17.693216
 20
272.152920
 30
0.0
 11
17.696316
 21
296.735920
 31
0.0
  0
LINE
  5
13d
100
AcDbEntity
  8
Layer_1
 62
1
100
AcDbLine
 10
17.696316
 20
296.735920
 30
0.0
 11
95.931850
 21
296.751520
 31
0.0
  0
LINE
  5
13e
100
AcDbEntity
  8
Layer_1
 62
1
100
AcDbLine
 10
95.931850
 20
296.751520
 30
0.0
 11
95.931850
 21
293.784240
 31
0.0
  0
LINE
  5
13f
100
AcDbEntity
  8
Layer_1
 62
1
100
AcDbLine
 10
95.931850
 20
293.784240
 30
0.0
 11
94.331949
 21
293.784240
 31
0.0
  0
LINE
  5
140
100
AcDbEntity
  8
Layer_1
 62
1
100
AcDbLine
 10
94.331949
 20
293.784240
 30
0.0
 11
94.331949
 21
290.784420
 31
0.0
  0
LINE
  5
141
100
AcDbEntity
  8
Layer_1
 62
1
100
AcDbLine
 10
94.331949
 20
290.784420
 30
0.0
 11
95.931850
 21
290.784420
 31
0.0
  0
LINE
  5
142
100
AcDbEntity
  8
Layer_1
 62
1
100
AcDbLine
 10
95.931850
 20
290.784420
 30
0.0
 11
95.931850
 21
288.784540
 31
0.0
  0
LINE
  5
143
100
AcDbEntity
  8
Layer_1
 62
1
100
AcDbLine
 10
95.931850
 20
288.784540
 30
0.0
 11
99.132173
 21
288.784540
 31
0.0
  0
LINE
  5
144
100
AcDbEntity
  8
Layer_1
 62
1
100
AcDbLine
 10
99.132173
 20
288.784540
 30
0.0
 11
99.132173
 21
290.784420
 31
0.0
  0
LINE
  5
145
100
AcDbEntity
  8
Layer_1
 62
1
100
AcDbLine
 10
99.132173
 20
290.784420
 30
0.0
 11
100.732070
 21
290.784420
 31
0.0
  0
LINE
  5
146
100
AcDbEntity
  8
Layer_1
 62
1
100
AcDbLine
 10
100.732070
 20
290.784420
 30
0.0
 11
100.732070
 21
293.784240
 31
0.0
  0
LINE
  5
147
100
AcDbEntity
  8
Layer_1
 62
1
100
AcDbLine
 10
100.732070
 20
293.784240
 30
0.0
 11
99.132173
 21
293.784240
 31
0.0
  0
LINE
  5
148
100
AcDbEntity
  8
Layer_1
 62
1
100
AcDbLine
 10
99.132173
 20
293.784240
 30
0.0
 11
99.132173
 21
296.752020
 31
0.0
  0
LINE
  5
149
100
AcDbEntity
  8
Layer_1
 62
1
100
AcDbLine
 10
99.132173
 20
296.752020
 30
0.0
 11
177.273130
 21
296.767620
 31
0.0
  0
SPLINE
  5
14a
100
AcDbEntity
  8
Layer_1
 62
1
100
AcDbSpline
 70
8
 71
3
 72
8
 73
4
 74
0
 40
0
 40
0
 40
0
 40
0
 40
1
 40
1
 40
1
 40
1
 10
177.273130
 20
296.767620
 30
0.0
 10
216.405790
 20
296.799220
 30
0.0
 10
253.926410
 20
281.257400
 30
0.0
 10
281.590790
 20
253.592990
 30
0.0
  0
LINE
  5
14b
100
AcDbEntity
  8
Layer_1
 62
3
100
AcDbLine
 10
281.590790
 20
253.592990
 30
0.0
 11
281.590790
 21
253.592990
 31
0.0
  0
SPLINE
  5
14c
100
AcDbEntity
  8
Layer_1
 62
1
100
AcDbSpline
 70
8
 71
3
 72
8
 73
4
 74
0
 40
0
 40
0
 40
0
 40
0
 40
1
 40
1
 40
1
 40
1
 10
281.590790
 20
253.592990
 30
0.0
 10
309.255180
 20
225.928600
 30
0.0
 10
324.796830
 20
188.407930
 30
0.0
 10
324.898240
 20
149.355930
 30
0.0
  0
LINE
  5
14d
100
AcDbEntity
  8
Layer_1
 62
1
100
AcDbLine
 10
324.898240
 20
149.355930
 30
0.0
 11
324.932840
 21
90.493370
 31
0.0
  0
LINE
  5
14e
100
AcDbEntity
  8
Layer_1
 62
1
100
AcDbLine
 10
324.932840
 20
90.493370
 30
0.0
 11
327.925940
 21
90.532670
 31
0.0
  0
LINE
  5
14f
100
AcDbEntity
  8
Layer_1
 62
1
100
AcDbLine
 10
327.925940
 20
90.532670
 30
0.0
 11
327.925940
 21
80.532740
 31
0.0
  0
LINE
  5
150
100
AcDbEntity
  8
Layer_1
 62
1
100
AcDbLine
 10
327.925940
 20
80.532740
 30
0.0
 11
324.925620
 21
80.532740
 31
0.0
  0
LINE
  5
151
100
AcDbEntity
  8
Layer_1
 62
1
100
AcDbLine
 10
324.925620
 20
80.532740
 30
0.0
 11
324.925620
 21
77.132450
 31
0.0
  0
LINE
  5
152
100
AcDbEntity
  8
Layer_1
 62
1
100
AcDbLine
 10
324.925620
 20
77.132450
 30
0.0
 11
321.925800
 21
77.132450
 31
0.0
  0
LINE
  5
153
100
AcDbEntity
  8
Layer_1
 62
1
100
AcDbLine
 10
321.925800
 20
77.132450
 30
0.0
 11
321.925800
 21
78.732860
 31
0.0
  0
LINE
  5
154
100
AcDbEntity
  8
Layer_1
 62
1
100
AcDbLine
 10
321.925800
 20
78.732860
 30
0.0
 11
318.925980
 21
78.732860
 31
0.0
  0
LINE
  5
155
100
AcDbEntity
  8
Layer_1
 62
1
100
AcDbLine
 10
318.925980
 20
78.732860
 30
0.0
 11
318.925980
 21
77.132450
 31
0.0
  0
LINE
  5
156
100
AcDbEntity
  8
Layer_1
 62
1
100
AcDbLine
 10
318.925980
 20
77.132450
 30
0.0
 11
316.925570
 21
77.132450
 31
0.0
  0
LINE
  5
157
100
AcDbEntity
  8
Layer_1
 62
1
100
AcDbLine
 10
316.925570
 20
77.132450
 30
0.0
 11
316.925570
 21
73.932630
 31
0.0
  0
LINE
  5
158
100
AcDbEntity
  8
Layer_1
 62
1
100
AcDbLine
 10
316.925570
 20
73.932630
 30
0.0
 11
318.925980
 21
73.932630
 31
0.0
  0
LINE
  5
159
100
AcDbEntity
  8
Layer_1
 62
1
100
AcDbLine
 10
318.925980
 20
73.932630
 30
0.0
 11
318.925980
 21
72.332720
 31
0.0
  0
LINE
  5
15a
100
AcDbEntity
  8
Layer_1
 62
1
100
AcDbLine
 10
318.925980
 20
72.332720
 30
0.0
 11
321.925800
 21
72.332720
 31
0.0
  0
LINE
  5
15b
100
AcDbEntity
  8
Layer_1
 62
1
100
AcDbLine
 10
321.925800
 20
72.332720
 30
0.0
 11
321.925800
 21
73.932630
 31
0.0
  0
LINE
  5
15c
100
AcDbEntity
  8
Layer_1
 62
1
100
AcDbLine
 10
321.925800
 20
73.932630
 30
0.0
 11
324.925620
 21
73.932630
 31
0.0
  0
LINE
  5
15d
100
AcDbEntity
  8
Layer_1
 62
1
100
AcDbLine
 10
324.925620
 20
73.932630
 30
0.0
 11
324.925620
 21
70.532840
 31
0.0
  0
LINE
  5
15e
100
AcDbEntity
  8
Layer_1
 62
1
100
AcDbLine
 10
324.925620
 20
70.532840
 30
0.0
 11
327.925940
 21
70.532840
 31
0.0
  0
LINE
  5
15f
100
AcDbEntity
  8
Layer_1
 62
1
100
AcDbLine
 10
327.925940
 20
70.532840
 30
0.0
 11
327.925940
 21
60.532410
 31
0.0
  0
LINE
  5
160
100
AcDbEntity
  8
Layer_1
 62
1
100
AcDbLine
 10
327.925940
 20
60.532410
 30
0.0
 11
324.942150
 21
60.568610
 31
0.0
  0
LINE
  5
161
100
AcDbEntity
  8
Layer_1
 62
1
100
AcDbLine
 10
324.942150
 20
60.568610
 30
0.0
 11
324.998450
 21
1.833170
 31
0.0
  0
LINE
  5
162
100
AcDbEntity
  8
Layer_1
 62
1
100
AcDbLine
 10
324.998450
 20
1.833170
 30
0.0
 11
237.339230
 21
1.833170
 31
0.0
  0
LINE
  5
163
100
AcDbEntity
  8
Layer_1
 62
1
100
AcDbLine
 10
237.339230
 20
1.833170
 30
0.0
 11
237.339230
 21
4.785450
 31
0.0
  0
LINE
  5
164
100
AcDbEntity
  8
Layer_1
 62
1
100
AcDbLine
 10
237.339230
 20
4.785450
 30
0.0
 11
238.939140
 21
4.785450
 31
0.0
  0
LINE
  5
165
100
AcDbEntity
  8
Layer_1
 62
1
100
AcDbLine
 10
238.939140
 20
4.785450
 30
0.0
 11
238.939140
 21
7.785270
 31
0.0
  0
LINE
  5
166
100
AcDbEntity
  8
Layer_1
 62
3
100
AcDbLine
 10
238.939140
 20
7.785270
 30
0.0
 11
237.339230
 21
7.785270
 31
0.0
  0
LINE
  5
167
100
AcDbEntity
  8
Layer_1
 62
3
100
AcDbLine
 10
237.339230
 20
7.785270
 30
0.0
 11
237.339230
 21
9.785150
 31
0.0
  0
LINE
  5
168
100
AcDbEntity
  8
Layer_1
 62
3
100
AcDbLine
 10
237.339230
 20
9.785150
 30
0.0
 11
234.138910
 21
9.785150
 31
0.0
  0
LINE
  5
169
100
AcDbEntity
  8
Layer_1
 62
3
100
AcDbLine
 10
234.138910
 20
9.785150
 30
0.0
 11
234.138910
 21
7.785270
 31
0.0
  0
LINE
  5
16a
100
AcDbEntity
  8
Layer_1
 62
3
100
AcDbLine
 10
234.138910
 20
7.785270
 30
0.0
 11
232.539000
 21
7.785270
 31
0.0
  0
LINE
  5
16b
100
AcDbEntity
  8
Layer_1
 62
1
100
AcDbLine
 10
232.539000
 20
7.785270
 30
0.0
 11
232.539000
 21
4.785450
 31
0.0
  0
LINE
  5
16c
100
AcDbEntity
  8
Layer_1
 62
1
100
AcDbLine
 10
232.539000
 20
4.785450
 30
0.0
 11
234.138910
 21
4.785450
 31
0.0
  0
LINE
  5
16d
100
AcDbEntity
  8
Layer_1
 62
1
100
AcDbLine
 10
234.138910
 20
4.785450
 30
0.0
 11
234.138910
 21
1.833320
 31
0.0
  0
LINE
  5
16e
100
AcDbEntity
  8
Layer_1
 62
1
100
AcDbLine
 10
234.138910
 20
1.833320
 30
0.0
 11
108.242210
 21
1.833320
 31
0.0
  0
LINE
  5
16f
100
AcDbEntity
  8
Layer_1
 62
1
100
AcDbLine
 10
108.242210
 20
1.833320
 30
0.0
 11
108.242210
 21
4.760780
 31
0.0
  0
LINE
  5
170
100
AcDbEntity
  8
Layer_1
 62
1
100
AcDbLine
 10
108.242210
 20
4.760780
 30
0.0
 11
109.842110
 21
4.760780
 31
0.0
  0
LINE
  5
171
100
AcDbEntity
  8
Layer_1
 62
1
100
AcDbLine
 10
109.842110
 20
4.760780
 30
0.0
 11
109.842110
 21
7.760600
 31
0.0
  0
LINE
  5
172
100
AcDbEntity
  8
Layer_1
 62
1
100
AcDbLine
 10
109.842110
 20
7.760600
 30
0.0
 11
108.242210
 21
7.760600
 31
0.0
  0
LINE
  5
173
100
AcDbEntity
  8
Layer_1
 62
1
100
AcDbLine
 10
108.242210
 20
7.760600
 30
0.0
 11
108.242210
 21
9.760480
 31
0.0
  0
LINE
  5
174
100
AcDbEntity
  8
Layer_1
 62
1
100
AcDbLine
 10
108.242210
 20
9.760480
 30
0.0
 11
105.041890
 21
9.760480
 31
0.0
  0
LINE
  5
175
100
AcDbEntity
  8
Layer_1
 62
1
100
AcDbLine
 10
105.041890
 20
9.760480
 30
0.0
 11
105.041890
 21
7.760600
 31
0.0
  0
LINE
  5
176
100
AcDbEntity
  8
Layer_1
 62
1
100
AcDbLine
 10
105.041890
 20
7.760600
 30
0.0
 11
103.441990
 21
7.760600
 31
0.0
  0
LINE
  5
177
100
AcDbEntity
  8
Layer_1
 62
1
100
AcDbLine
 10
103.441990
 20
7.760600
 30
0.0
 11
103.441990
 21
4.760780
 31
0.0
  0
LINE
  5
178
100
AcDbEntity
  8
Layer_1
 62
1
100
AcDbLine
 10
103.441990
 20
4.760780
 30
0.0
 11
105.041890
 21
4.760780
 31
0.0
  0
LINE
  5
179
100
AcDbEntity
  8
Layer_1
 62
1
100
AcDbLine
 10
105.041890
 20
4.760780
 30
0.0
 11
105.041890
 21
1.833320
 31
0.0
  0
LINE
  5
17a
100
AcDbEntity
  8
Layer_1
 62
1
100
AcDbLine
 10
105.041890
 20
1.833320
 30
0.0
 11
17.694772
 21
1.832490
 31
0.0
  0
SPLINE
  5
17b
100
AcDbEntity
  8
Layer_1
 62
3
100
AcDbSpline
 70
8
 71
3
 72
8
 73
4
 74
0
 40
0
 40
0
 40
0
 40
0
 40
1
 40
1
 40
1
 40
1
 10
177.280920
 20
1.769050
 30
0.0
 10
216.404280
 20
1.769050
 30
0.0
 10
253.925260
 20
17.310740
 30
0.0
 10
281.589640
 20
44.975130
 30
0.0
  0
SPLINE
  5
17c
100
AcDbEntity
  8
Layer_1
 62
3
100
AcDbSpline
 70
8
 71
3
 72
8
 73
4
 74
0
 40
0
 40
0
 40
0
 40
0
 40
1
 40
1
 40
1
 40
1
 10
281.589640
 20
44.975130
 30
0.0
 10
309.254020
 20
72.639510
 30
0.0
 10
324.795730
 20
110.160480
 30
0.0
 10
324.795730
 20
149.283840
 30
0.0
  0
SPLINE
  5
17d
100
AcDbEntity
  8
Layer_1
 62
3
100
AcDbSpline
 70
8
 71
3
 72
8
 73
4
 74
0
 40
0
 40
0
 40
0
 40
0
 40
1
 40
1
 40
1
 40
1
 10
201.155450
 20
149.409800
 30
0.0
 10
201.155451
 20
155.723563
 30
0.0
 10
198.647319
 20
161.778730
 30
0.0
 10
194.182814
 20
166.243234
 30
0.0
  0
SPLINE
  5
17e
100
AcDbEntity
  8
Layer_1
 62
3
100
AcDbSpline
 70
8
 71
3
 72
8
 73
4
 74
0
 40
0
 40
0
 40
0
 40
0
 40
1
 40
1
 40
1
 40
1
 10
194.182814
 20
166.243234
 30
0.0
 10
189.718310
 20
170.707739
 30
0.0
 10
183.663143
 20
173.215871
 30
0.0
 10
177.349380
 20
173.215870
 30
0.0
  0
SPLINE
  5
17f
100
AcDbEntity
  8
Layer_1
 62
3
100
AcDbSpline
 70
8
 71
3
 72
8
 73
4
 74
0
 40
0
 40
0
 40
0
 40
0
 40
1
 40
1
 40
1
 40
1
 10
177.349380
 20
173.215870
 30
0.0
 10
171.035617
 20
173.215871
 30
0.0
 10
164.980450
 20
170.707739
 30
0.0
 10
160.515946
 20
166.243234
 30
0.0
  0
SPLINE
  5
180
100
AcDbEntity
  8
Layer_1
 62
3
100
AcDbSpline
 70
8
 71
3
 72
8
 73
4
 74
0
 40
0
 40
0
 40
0
 40
0
 40
1
 40
1
 40
1
 40
1
 10
160.515946
 20
166.243234
 30
0.0
 10
156.051441
 20
161.778730
 30
0.0
 10
153.543309
 20
155.723563
 30
0.0
 10
153.543310
 20
149.409800
 30
0.0
  0
SPLINE
  5
181
100
AcDbEntity
  8
Layer_1
 62
3
100
AcDbSpline
 70
8
 71
3
 72
8
 73
4
 74
0
 40
0
 40
0
 40
0
 40
0
 40
1
 40
1
 40
1
 40
1
 10
153.543310
 20
149.409800
 30
0.0
 10
153.543314
 20
136.262074
 30
0.0
 10
164.201654
 20
125.603738
 30
0.0
 10
177.349380
 20
125.603740
 30
0.0
  0
SPLINE
  5
182
100
AcDbEntity
  8
Layer_1
 62
3
100
AcDbSpline
 70
8
 71
3
 72
8
 73
4
 74
0
 40
0
 40
0
 40
0
 40
0
 40
1
 40
1
 40
1
 40
1
 10
177.349380
 20
125.603740
 30
0.0
 10
190.497106
 20
125.603738
 30
0.0
 10
201.155446
 20
136.262074
 30
0.0
 10
201.155450
 20
149.409800
 30
0.0
  0
LINE
  5
183
100
AcDbEntity
  8
Layer_1
 62
3
100
AcDbLine
 10
201.155450
 20
149.409800
 30
0.0
 11
201.155450
 21
149.409800
 31
0.0
  0
SPLINE
  5
184
100
AcDbEntity
  8
Layer_1
 62
1
100
AcDbSpline
 70
8
 71
3
 72
8
 73
4
 74
0
 40
0
 40
0
 40
0
 40
0
 40
1
 40
1
 40
1
 40
1
 10
190.889880
 20
149.409800
 30
0.0
 10
190.889880
 20
153.000964
 30
0.0
 10
189.463296
 20
156.445043
 30
0.0
 10
186.923959
 20
158.984379
 30
0.0
  0
SPLINE
  5
185
100
AcDbEntity
  8
Layer_1
 62
1
100
AcDbSpline
 70
8
 71
3
 72
8
 73
4
 74
0
 40
0
 40
0
 40
0
 40
0
 40
1
 40
1
 40
1
 40
1
 10
186.923959
 20
158.984379
 30
0.0
 10
184.384623
 20
161.523716
 30
0.0
 10
180.940544
 20
162.950300
 30
0.0
 10
177.349380
 20
162.950300
 30
0.0
  0
SPLINE
  5
186
100
AcDbEntity
  8
Layer_1
 62
1
100
AcDbSpline
 70
8
 71
3
 72
8
 73
4
 74
0
 40
0
 40
0
 40
0
 40
0
 40
1
 40
1
 40
1
 40
1
 10
177.349380
 20
162.950300
 30
0.0
 10
173.758216
 20
162.950300
 30
0.0
 10
170.314137
 20
161.523716
 30
0.0
 10
167.774801
 20
158.984379
 30
0.0
  0
SPLINE
  5
187
100
AcDbEntity
  8
Layer_1
 62
1
100
AcDbSpline
 70
8
 71
3
 72
8
 73
4
 74
0
 40
0
 40
0
 40
0
 40
0
 40
1
 40
1
 40
1
 40
1
 10
167.774801
 20
158.984379
 30
0.0
 10
165.235464
 20
156.445043
 30
0.0
 10
163.808880
 20
153.000964
 30
0.0
 10
163.808880
 20
149.409800
 30
0.0
  0
SPLINE
  5
188
100
AcDbEntity
  8
Layer_1
 62
1
100
AcDbSpline
 70
8
 71
3
 72
8
 73
4
 74
0
 40
0
 40
0
 40
0
 40
0
 40
1
 40
1
 40
1
 40
1
 10
163.808880
 20
149.409800
 30
0.0
 10
163.808880
 20
145.818636
 30
0.0
 10
165.235464
 20
142.374557
 30
0.0
 10
167.774801
 20
139.835221
 30
0.0
  0
SPLINE
  5
189
100
AcDbEntity
  8
Layer_1
 62
1
100
AcDbSpline
 70
8
 71
3
 72
8
 73
4
 74
0
 40
0
 40
0
 40
0
 40
0
 40
1
 40
1
 40
1
 40
1
 10
167.774801
 20
139.835221
 30
0.0
 10
170.314137
 20
137.295884
 30
0.0
 10
173.758216
 20
135.869300
 30
0.0
 10
177.349380
 20
135.869300
 30
0.0
  0
SPLINE
  5
18a
100
AcDbEntity
  8
Layer_1
 62
1
100
AcDbSpline
 70
8
 71
3
 72
8
 73
4
 74
0
 40
0
 40
0
 40
0
 40
0
 40
1
 40
1
 40
1
 40
1
 10
177.349380
 20
135.869300
 30
0.0
 10
180.940544
 20
135.869300
 30
0.0
 10
184.384623
 20
137.295884
 30
0.0
 10
186.923959
 20
139.835221
 30
0.0
  0
SPLINE
  5
18b
100
AcDbEntity
  8
Layer_1
 62
1
100
AcDbSpline
 70
8
 71
3
 72
8
 73
4
 74
0
 40
0
 40
0
 40
0
 40
0
 40
1
 40
1
 40
1
 40
1
 10
186.923959
 20
139.835221
 30
0.0
 10
189.463296
 20
142.374557
 30
0.0
 10
190.889880
 20
145.818636
 30
0.0
 10
190.889880
 20
149.409800
 30
0.0
  0
LINE
  5
18c
100
AcDbEntity
  8
Layer_1
 62
1
100
AcDbLine
 10
190.889880
 20
149.409800
 30
0.0
 11
190.889880
 21
149.409800
 31
0.0
  0
SPLINE
  5
18d
100
AcDbEntity
  8
Layer_1
 62
3
100
AcDbSpline
 70
8
 71
3
 72
8
 73
4
 74
0
 40
0
 40
0
 40
0
 40
0
 40
1
 40
1
 40
1
 40
1
 10
177.280920
 20
6.441860
 30
0.0
 10
215.164980
 20
6.441860
 30
0.0
 10
251.497390
 20
21.491240
 30
0.0
 10
278.285470
 20
48.279300
 30
0.0
  0
SPLINE
  5
18e
100
AcDbEntity
  8
Layer_1
 62
3
100
AcDbSpline
 70
8
 71
3
 72
8
 73
4
 74
0
 40
0
 40
0
 40
0
 40
0
 40
1
 40
1
 40
1
 40
1
 10
278.285470
 20
48.279300
 30
0.0
 10
305.073530
 20
75.067380
 30
0.0
 10
320.122920
 20
111.399800
 30
0.0
 10
320.122920
 20
149.283840
 30
0.0
  0
SPLINE
  5
18f
100
AcDbEntity
  8
Layer_1
 62
3
100
AcDbSpline
 70
8
 71
3
 72
8
 73
4
 74
0
 40
0
 40
0
 40
0
 40
0
 40
1
 40
1
 40
1
 40
1
 10
320.122920
 20
149.283840
 30
0.0
 10
320.122920
 20
187.167880
 30
0.0
 10
305.073530
 20
223.500290
 30
0.0
 10
278.285470
 20
250.288380
 30
0.0
  0
SPLINE
  5
190
100
AcDbEntity
  8
Layer_1
 62
3
100
AcDbSpline
 70
8
 71
3
 72
8
 73
4
 74
0
 40
0
 40
0
 40
0
 40
0
 40
1
 40
1
 40
1
 40
1
 10
278.285470
 20
250.288380
 30
0.0
 10
251.497390
 20
277.076420
 30
0.0
 10
215.164980
 20
292.125810
 30
0.0
 10
177.280920
 20
292.125810
 30
0.0
  0
SPLINE
  5
191
100
AcDbEntity
  8
Layer_1
 62
3
100
AcDbSpline
 70
8
 71
3
 72
8
 73
4
 74
0
 40
0
 40
0
 40
0
 40
0
 40
1
 40
1
 40
1
 40
1
 10
177.280920
 20
10.847660
 30
0.0
 10
213.996490
 20
10.847660
 30
0.0
 10
249.208250
 20
25.432880
 30
0.0
 10
275.170100
 20
51.394690
 30
0.0
  0
SPLINE
  5
192
100
AcDbEntity
  8
Layer_1
 62
3
100
AcDbSpline
 70
8
 71
3
 72
8
 73
4
 74
0
 40
0
 40
0
 40
0
 40
0
 40
1
 40
1
 40
1
 40
1
 10
275.170100
 20
51.394690
 30
0.0
 10
301.131900
 20
77.356490
 30
0.0
 10
315.717080
 20
112.568310
 30
0.0
 10
315.717080
 20
149.283860
 30
0.0
  0
SPLINE
  5
193
100
AcDbEntity
  8
Layer_1
 62
3
100
AcDbSpline
 70
8
 71
3
 72
8
 73
4
 74
0
 40
0
 40
0
 40
0
 40
0
 40
1
 40
1
 40
1
 40
1
 10
315.717080
 20
149.283860
 30
0.0
 10
315.717080
 20
185.999400
 30
0.0
 10
301.131870
 20
221.211190
 30
0.0
 10
275.170080
 20
247.173010
 30
0.0
  0
SPLINE
  5
194
100
AcDbEntity
  8
Layer_1
 62
3
100
AcDbSpline
 70
8
 71
3
 72
8
 73
4
 74
0
 40
0
 40
0
 40
0
 40
0
 40
1
 40
1
 40
1
 40
1
 10
275.170080
 20
247.173010
 30
0.0
 10
249.208250
 20
273.134840
 30
0.0
 10
213.996480
 20
287.720020
 30
0.0
 10
177.280920
 20
287.720020
 30
0.0
  0
SPLINE
  5
195
100
AcDbEntity
  8
Layer_1
 62
3
100
AcDbSpline
 70
8
 71
3
 72
8
 73
4
 74
0
 40
0
 40
0
 40
0
 40
0
 40
1
 40
1
 40
1
 40
1
 10
177.325210
 20
15.525550
 30
0.0
 10
212.800130
 20
15.525550
 30
0.0
 10
246.822040
 20
29.617890
 30
0.0
 10
271.906650
 20
54.702420
 30
0.0
  0
SPLINE
  5
196
100
AcDbEntity
  8
Layer_1
 62
3
100
AcDbSpline
 70
8
 71
3
 72
8
 73
4
 74
0
 40
0
 40
0
 40
0
 40
0
 40
1
 40
1
 40
1
 40
1
 10
271.906650
 20
54.702420
 30
0.0
 10
296.991170
 20
79.786930
 30
0.0
 10
311.083510
 20
113.808960
 30
0.0
 10
311.083510
 20
149.283840
 30
0.0
  0
SPLINE
  5
197
100
AcDbEntity
  8
Layer_1
 62
3
100
AcDbSpline
 70
8
 71
3
 72
8
 73
4
 74
0
 40
0
 40
0
 40
0
 40
0
 40
1
 40
1
 40
1
 40
1
 10
311.083510
 20
149.283840
 30
0.0
 10
311.083510
 20
184.758780
 30
0.0
 10
296.991140
 20
218.780720
 30
0.0
 10
271.906630
 20
243.865230
 30
0.0
  0
SPLINE
  5
198
100
AcDbEntity
  8
Layer_1
 62
3
100
AcDbSpline
 70
8
 71
3
 72
8
 73
4
 74
0
 40
0
 40
0
 40
0
 40
0
 40
1
 40
1
 40
1
 40
1
 10
271.906630
 20
243.865230
 30
0.0
 10
246.822040
 20
268.949820
 30
0.0
 10
212.800130
 20
283.042140
 30
0.0
 10
177.325210
 20
283.042140
 30
0.0
  0
LINE
  5
199
100
AcDbEntity
  8
Layer_1
 62
1
100
AcDbLine
 10
58.960690
 20
133.515300
 30
0.0
 11
58.960690
 21
164.681970
 31
0.0
  0
LINE
  5
19a
100
AcDbEntity
  8
Layer_1
 62
1
100
AcDbLine
 10
58.960690
 20
164.681970
 30
0.0
 11
55.960696
 21
164.681970
 31
0.0
  0
LINE
  5
19b
100
AcDbEntity
  8
Layer_1
 62
1
100
AcDbLine
 10
55.960696
 20
164.681970
 30
0.0
 11
55.960696
 21
133.515300
 31
0.0
  0
LINE
  5
19c
100
AcDbEntity
  8
Layer_1
 62
1
100
AcDbLine
 10
55.960696
 20
133.515300
 30
0.0
 11
58.960690
 21
133.515300
 31
0.0
  0
LINE
  5
19d
100
AcDbEntity
  8
Layer_1
 62
1
100
AcDbLine
 10
177.289150
 20
253.684870
 30
0.0
 11
177.289150
 21
263.684880
 31
0.0
  0
LINE
  5
19e
100
AcDbEntity
  8
Layer_1
 62
1
100
AcDbLine
 10
177.289150
 20
263.684880
 30
0.0
 11
174.289160
 21
263.684880
 31
0.0
  0
LINE
  5
19f
100
AcDbEntity
  8
Layer_1
 62
1
100
AcDbLine
 10
174.289160
 20
263.684880
 30
0.0
 11
174.289160
 21
253.684870
 31
0.0
  0
LINE
  5
1a0
100
AcDbEntity
  8
Layer_1
 62
1
100
AcDbLine
 10
174.289160
 20
253.684870
 30
0.0
 11
177.289150
 21
253.684870
 31
0.0
  0
LINE
  5
1a1
100
AcDbEntity
  8
Layer_1
 62
1
100
AcDbLine
 10
177.289150
 20
273.684830
 30
0.0
 11
177.289150
 21
283.684830
 31
0.0
  0
LINE
  5
1a2
100
AcDbEntity
  8
Layer_1
 62
1
100
AcDbLine
 10
177.289150
 20
283.684830
 30
0.0
 11
174.289160
 21
283.684830
 31
0.0
  0
LINE
  5
1a3
100
AcDbEntity
  8
Layer_1
 62
1
100
AcDbLine
 10
174.289160
 20
283.684830
 30
0.0
 11
174.289160
 21
273.684830
 31
0.0
  0
LINE
  5
1a4
100
AcDbEntity
  8
Layer_1
 62
1
100
AcDbLine
 10
174.289160
 20
273.684830
 30
0.0
 11
177.289150
 21
273.684830
 31
0.0
  0
SPLINE
  5
1a5
100
AcDbEntity
  8
Layer_1
 62
1
100
AcDbSpline
 70
8
 71
3
 72
8
 73
4
 74
0
 40
0
 40
0
 40
0
 40
0
 40
1
 40
1
 40
1
 40
1
 10
175.788020
 20
270.234830
 30
0.0
 10
174.931982
 20
270.234825
 30
0.0
 10
174.238030
 20
269.540868
 30
0.0
 10
174.238030
 20
268.684830
 30
0.0
  0
SPLINE
  5
1a6
100
AcDbEntity
  8
Layer_1
 62
1
100
AcDbSpline
 70
8
 71
3
 72
8
 73
4
 74
0
 40
0
 40
0
 40
0
 40
0
 40
1
 40
1
 40
1
 40
1
 10
174.238030
 20
268.684830
 30
0.0
 10
174.238030
 20
267.828792
 30
0.0
 10
174.931982
 20
267.134835
 30
0.0
 10
175.788020
 20
267.134830
 30
0.0
  0
SPLINE
  5
1a7
100
AcDbEntity
  8
Layer_1
 62
1
100
AcDbSpline
 70
8
 71
3
 72
8
 73
4
 74
0
 40
0
 40
0
 40
0
 40
0
 40
1
 40
1
 40
1
 40
1
 10
175.788020
 20
267.134830
 30
0.0
 10
176.199106
 20
267.134830
 30
0.0
 10
176.593354
 20
267.298133
 30
0.0
 10
176.884036
 20
267.588814
 30
0.0
  0
SPLINE
  5
1a8
100
AcDbEntity
  8
Layer_1
 62
1
100
AcDbSpline
 70
8
 71
3
 72
8
 73
4
 74
0
 40
0
 40
0
 40
0
 40
0
 40
1
 40
1
 40
1
 40
1
 10
176.884036
 20
267.588814
 30
0.0
 10
177.174717
 20
267.879496
 30
0.0
 10
177.338020
 20
268.273744
 30
0.0
 10
177.338020
 20
268.684830
 30
0.0
  0
SPLINE
  5
1a9
100
AcDbEntity
  8
Layer_1
 62
1
100
AcDbSpline
 70
8
 71
3
 72
8
 73
4
 74
0
 40
0
 40
0
 40
0
 40
0
 40
1
 40
1
 40
1
 40
1
 10
177.338020
 20
268.684830
 30
0.0
 10
177.338020
 20
269.095916
 30
0.0
 10
177.174717
 20
269.490164
 30
0.0
 10
176.884036
 20
269.780846
 30
0.0
  0
SPLINE
  5
1aa
100
AcDbEntity
  8
Layer_1
 62
1
100
AcDbSpline
 70
8
 71
3
 72
8
 73
4
 74
0
 40
0
 40
0
 40
0
 40
0
 40
1
 40
1
 40
1
 40
1
 10
176.884036
 20
269.780846
 30
0.0
 10
176.593354
 20
270.071527
 30
0.0
 10
176.199106
 20
270.234830
 30
0.0
 10
175.788020
 20
270.234830
 30
0.0
  0
LINE
  5
1ab
100
AcDbEntity
  8
Layer_1
 62
1
100
AcDbLine
 10
175.788020
 20
270.234830
 30
0.0
 11
175.788020
 21
270.234830
 31
0.0
  0
LINE
  5
1ac
100
AcDbEntity
  8
Layer_1
 62
1
100
AcDbLine
 10
180.155580
 20
240.965283
 30
0.0
 11
189.963440
 21
239.014382
 31
0.0
  0
LINE
  5
1ad
100
AcDbEntity
  8
Layer_1
 62
1
100
AcDbLine
 10
189.963440
 20
239.014382
 30
0.0
 11
190.548710
 21
241.956738
 31
0.0
  0
LINE
  5
1ae
100
AcDbEntity
  8
Layer_1
 62
1
100
AcDbLine
 10
190.548710
 20
241.956738
 30
0.0
 11
180.740850
 21
243.907639
 31
0.0
  0
LINE
  5
1af
100
AcDbEntity
  8
Layer_1
 62
1
100
AcDbLine
 10
180.740850
 20
243.907639
 30
0.0
 11
180.155580
 21
240.965283
 31
0.0
  0
LINE
  5
1b0
100
AcDbEntity
  8
Layer_1
 62
1
100
AcDbLine
 10
199.771260
 20
237.063486
 30
0.0
 11
209.579110
 21
235.112585
 31
0.0
  0
LINE
  5
1b1
100
AcDbEntity
  8
Layer_1
 62
1
100
AcDbLine
 10
209.579110
 20
235.112585
 30
0.0
 11
210.164380
 21
238.054941
 31
0.0
  0
LINE
  5
1b2
100
AcDbEntity
  8
Layer_1
 62
1
100
AcDbLine
 10
210.164380
 20
238.054941
 30
0.0
 11
200.356530
 21
240.005842
 31
0.0
  0
LINE
  5
1b3
100
AcDbEntity
  8
Layer_1
 62
1
100
AcDbLine
 10
200.356530
 20
240.005842
 30
0.0
 11
199.771260
 21
237.063486
 31
0.0
  0
LINE
  5
1b4
100
AcDbEntity
  8
Layer_1
 62
1
100
AcDbLine
 10
214.963510
 20
232.762859
 30
0.0
 11
223.278210
 21
227.207155
 31
0.0
  0
LINE
  5
1b5
100
AcDbEntity
  8
Layer_1
 62
1
100
AcDbLine
 10
223.278210
 20
227.207155
 30
0.0
 11
224.944910
 21
229.701556
 31
0.0
  0
LINE
  5
1b6
100
AcDbEntity
  8
Layer_1
 62
1
100
AcDbLine
 10
224.944910
 20
229.701556
 30
0.0
 11
216.630210
 21
235.257260
 31
0.0
  0
LINE
  5
1b7
100
AcDbEntity
  8
Layer_1
 62
1
100
AcDbLine
 10
216.630210
 20
235.257260
 30
0.0
 11
214.963510
 21
232.762859
 31
0.0
  0
LINE
  5
1b8
100
AcDbEntity
  8
Layer_1
 62
1
100
AcDbLine
 10
231.592870
 20
221.651478
 30
0.0
 11
239.907570
 21
216.095775
 31
0.0
  0
LINE
  5
1b9
100
AcDbEntity
  8
Layer_1
 62
1
100
AcDbLine
 10
239.907570
 20
216.095775
 30
0.0
 11
241.574270
 21
218.590175
 31
0.0
  0
LINE
  5
1ba
100
AcDbEntity
  8
Layer_1
 62
1
100
AcDbLine
 10
241.574270
 20
218.590175
 30
0.0
 11
233.259570
 21
224.145879
 31
0.0
  0
LINE
  5
1bb
100
AcDbEntity
  8
Layer_1
 62
1
100
AcDbLine
 10
233.259570
 20
224.145879
 30
0.0
 11
231.592870
 21
221.651478
 31
0.0
  0
LINE
  5
1bc
100
AcDbEntity
  8
Layer_1
 62
1
100
AcDbLine
 10
243.756180
 20
211.656039
 30
0.0
 11
249.311890
 21
203.341338
 31
0.0
  0
LINE
  5
1bd
100
AcDbEntity
  8
Layer_1
 62
1
100
AcDbLine
 10
249.311890
 20
203.341338
 30
0.0
 11
251.806300
 21
205.008049
 31
0.0
  0
LINE
  5
1be
100
AcDbEntity
  8
Layer_1
 62
1
100
AcDbLine
 10
251.806300
 20
205.008049
 30
0.0
 11
246.250590
 21
213.322750
 31
0.0
  0
LINE
  5
1bf
100
AcDbEntity
  8
Layer_1
 62
1
100
AcDbLine
 10
246.250590
 20
213.322750
 30
0.0
 11
243.756180
 21
211.656039
 31
0.0
  0
LINE
  5
1c0
100
AcDbEntity
  8
Layer_1
 62
1
100
AcDbLine
 10
254.867570
 20
195.026680
 30
0.0
 11
260.423280
 21
186.711980
 31
0.0
  0
LINE
  5
1c1
100
AcDbEntity
  8
Layer_1
 62
1
100
AcDbLine
 10
260.423280
 20
186.711980
 30
0.0
 11
262.917690
 21
188.378690
 31
0.0
  0
LINE
  5
1c2
100
AcDbEntity
  8
Layer_1
 62
1
100
AcDbLine
 10
262.917690
 20
188.378690
 30
0.0
 11
257.361980
 21
196.693390
 31
0.0
  0
LINE
  5
1c3
100
AcDbEntity
  8
Layer_1
 62
1
100
AcDbLine
 10
257.361980
 20
196.693390
 30
0.0
 11
254.867570
 21
195.026680
 31
0.0
  0
LINE
  5
1c4
100
AcDbEntity
  8
Layer_1
 62
1
100
AcDbLine
 10
262.663840
 20
181.388640
 30
0.0
 11
264.614740
 21
171.580780
 31
0.0
  0
LINE
  5
1c5
100
AcDbEntity
  8
Layer_1
 62
1
100
AcDbLine
 10
264.614740
 20
171.580780
 30
0.0
 11
267.557100
 21
172.166050
 31
0.0
  0
LINE
  5
1c6
100
AcDbEntity
  8
Layer_1
 62
1
100
AcDbLine
 10
267.557100
 20
172.166050
 30
0.0
 11
265.606190
 21
181.973910
 31
0.0
  0
LINE
  5
1c7
100
AcDbEntity
  8
Layer_1
 62
1
100
AcDbLine
 10
265.606190
 20
181.973910
 30
0.0
 11
262.663840
 21
181.388640
 31
0.0
  0
LINE
  5
1c8
100
AcDbEntity
  8
Layer_1
 62
1
100
AcDbLine
 10
266.565640
 20
161.772970
 30
0.0
 11
268.516550
 21
151.965110
 31
0.0
  0
LINE
  5
1c9
100
AcDbEntity
  8
Layer_1
 62
1
100
AcDbLine
 10
268.516550
 20
151.965110
 30
0.0
 11
271.458900
 21
152.550380
 31
0.0
  0
LINE
  5
1ca
100
AcDbEntity
  8
Layer_1
 62
1
100
AcDbLine
 10
271.458900
 20
152.550380
 30
0.0
 11
269.507990
 21
162.358240
 31
0.0
  0
LINE
  5
1cb
100
AcDbEntity
  8
Layer_1
 62
1
100
AcDbLine
 10
269.507990
 20
162.358240
 30
0.0
 11
266.565640
 21
161.772970
 31
0.0
  0
LINE
  5
1cc
100
AcDbEntity
  8
Layer_1
 62
1
100
AcDbLine
 10
281.692320
 20
146.537140
 30
0.0
 11
291.692330
 21
146.537140
 31
0.0
  0
LINE
  5
1cd
100
AcDbEntity
  8
Layer_1
 62
1
100
AcDbLine
 10
291.692330
 20
146.537140
 30
0.0
 11
291.692330
 21
149.537130
 31
0.0
  0
LINE
  5
1ce
100
AcDbEntity
  8
Layer_1
 62
1
100
AcDbLine
 10
291.692330
 20
149.537130
 30
0.0
 11
281.692320
 21
149.537130
 31
0.0
  0
LINE
  5
1cf
100
AcDbEntity
  8
Layer_1
 62
1
100
AcDbLine
 10
281.692320
 20
149.537130
 30
0.0
 11
281.692320
 21
146.537140
 31
0.0
  0
LINE
  5
1d0
100
AcDbEntity
  8
Layer_1
 62
1
100
AcDbLine
 10
301.692280
 20
146.537130
 30
0.0
 11
310.633950
 21
146.537130
 31
0.0
  0
LINE
  5
1d1
100
AcDbEntity
  8
Layer_1
 62
1
100
AcDbLine
 10
310.633950
 20
146.537130
 30
0.0
 11
310.633950
 21
149.537120
 31
0.0
  0
LINE
  5
1d2
100
AcDbEntity
  8
Layer_1
 62
1
100
AcDbLine
 10
310.633950
 20
149.537120
 30
0.0
 11
301.692280
 21
149.537120
 31
0.0
  0
LINE
  5
1d3
100
AcDbEntity
  8
Layer_1
 62
1
100
AcDbLine
 10
301.692280
 20
149.537120
 30
0.0
 11
301.692280
 21
146.537130
 31
0.0
  0
SPLINE
  5
1d4
100
AcDbEntity
  8
Layer_1
 62
1
100
AcDbSpline
 70
8
 71
3
 72
8
 73
4
 74
0
 40
0
 40
0
 40
0
 40
0
 40
1
 40
1
 40
1
 40
1
 10
298.242290
 20
148.038270
 30
0.0
 10
298.242290
 20
148.449356
 30
0.0
 10
298.078987
 20
148.843604
 30
0.0
 10
297.788306
 20
149.134286
 30
0.0
  0
SPLINE
  5
1d5
100
AcDbEntity
  8
Layer_1
 62
1
100
AcDbSpline
 70
8
 71
3
 72
8
 73
4
 74
0
 40
0
 40
0
 40
0
 40
0
 40
1
 40
1
 40
1
 40
1
 10
297.788306
 20
149.134286
 30
0.0
 10
297.497624
 20
149.424967
 30
0.0
 10
297.103376
 20
149.588270
 30
0.0
 10
296.692290
 20
149.588270
 30
0.0
  0
SPLINE
  5
1d6
100
AcDbEntity
  8
Layer_1
 62
1
100
AcDbSpline
 70
8
 71
3
 72
8
 73
4
 74
0
 40
0
 40
0
 40
0
 40
0
 40
1
 40
1
 40
1
 40
1
 10
296.692290
 20
149.588270
 30
0.0
 10
296.281204
 20
149.588270
 30
0.0
 10
295.886956
 20
149.424967
 30
0.0
 10
295.596274
 20
149.134286
 30
0.0
  0
SPLINE
  5
1d7
100
AcDbEntity
  8
Layer_1
 62
1
100
AcDbSpline
 70
8
 71
3
 72
8
 73
4
 74
0
 40
0
 40
0
 40
0
 40
0
 40
1
 40
1
 40
1
 40
1
 10
295.596274
 20
149.134286
 30
0.0
 10
295.305593
 20
148.843604
 30
0.0
 10
295.142290
 20
148.449356
 30
0.0
 10
295.142290
 20
148.038270
 30
0.0
  0
SPLINE
  5
1d8
100
AcDbEntity
  8
Layer_1
 62
1
100
AcDbSpline
 70
8
 71
3
 72
8
 73
4
 74
0
 40
0
 40
0
 40
0
 40
0
 40
1
 40
1
 40
1
 40
1
 10
295.142290
 20
148.038270
 30
0.0
 10
295.142290
 20
147.627184
 30
0.0
 10
295.305593
 20
147.232936
 30
0.0
 10
295.596274
 20
146.942254
 30
0.0
  0
SPLINE
  5
1d9
100
AcDbEntity
  8
Layer_1
 62
1
100
AcDbSpline
 70
8
 71
3
 72
8
 73
4
 74
0
 40
0
 40
0
 40
0
 40
0
 40
1
 40
1
 40
1
 40
1
 10
295.596274
 20
146.942254
 30
0.0
 10
295.886956
 20
146.651573
 30
0.0
 10
296.281204
 20
146.488270
 30
0.0
 10
296.692290
 20
146.488270
 30
0.0
  0
SPLINE
  5
1da
100
AcDbEntity
  8
Layer_1
 62
1
100
AcDbSpline
 70
8
 71
3
 72
8
 73
4
 74
0
 40
0
 40
0
 40
0
 40
0
 40
1
 40
1
 40
1
 40
1
 10
296.692290
 20
146.488270
 30
0.0
 10
297.103376
 20
146.488270
 30
0.0
 10
297.497624
 20
146.651573
 30
0.0
 10
297.788306
 20
146.942254
 30
0.0
  0
SPLINE
  5
1db
100
AcDbEntity
  8
Layer_1
 62
1
100
AcDbSpline
 70
8
 71
3
 72
8
 73
4
 74
0
 40
0
 40
0
 40
0
 40
0
 40
1
 40
1
 40
1
 40
1
 10
297.788306
 20
146.942254
 30
0.0
 10
298.078987
 20
147.232936
 30
0.0
 10
298.242290
 20
147.627184
 30
0.0
 10
298.242290
 20
148.038270
 30
0.0
  0
LINE
  5
1dc
100
AcDbEntity
  8
Layer_1
 62
1
100
AcDbLine
 10
298.242290
 20
148.038270
 30
0.0
 11
298.242290
 21
148.038270
 31
0.0
  0
ENDSEC
  0
SECTION
  2
OBJECTS
  0
DICTIONARY
  5
C
330
0
100
AcDbDictionary
  3
ACAD_GROUP
350
D
  3
ACAD_MLINESTYLE
350
17
  0
DICTIONARY
  5
D
330
C
100
AcDbDictionary
  0
DICTIONARY
  5
1A
330
C
100
AcDbDictionary
  0
DICTIONARY
  5
17
330
C
100
AcDbDictionary
  3
STANDARD
350
18
  0
DICTIONARY
  5
19
330
C
100
AcDbDictionary
  0
ENDSEC
  0
EOF
